  0
SECTION
  2
HEADER
  9
$ACADVER
  1
AC1015
  9
$ACADMAINTVER
 70
    13
  9
$DWGCODEPAGE
  3
ANSI_932
  9
$INSBASE
 10
0.0
 20
0.0
 30
0.0
  9
$EXTMIN
 10
14.22619228281661
 20
20.7962445022997
 30
0.0
  9
$EXTMAX
 10
363.0870561601007
 20
238.1630565514098
 30
0.0
  9
$LIMMIN
 10
0.0
 20
0.0
  9
$LIMMAX
 10
375.0
 20
270.0
  9
$ORTHOMODE
 70
     1
  9
$REGENMODE
 70
     1
  9
$FILLMODE
 70
     1
  9
$QTEXTMODE
 70
     0
  9
$MIRRTEXT
 70
     0
  9
$LTSCALE
 40
10.0
  9
$ATTMODE
 70
     1
  9
$TEXTSIZE
 40
0.2
  9
$TRACEWID
 40
0.05
  9
$TEXTSTYLE
  7
STANDARD
  9
$CLAYER
  8
0
  9
$CELTYPE
  6
ByLayer
  9
$CECOLOR
 62
   256
  9
$CELTSCALE
 40
1.0
  9
$DISPSILH
 70
     0
  9
$DIMSCALE
 40
1.0
  9
$DIMASZ
 40
2.5
  9
$DIMEXO
 40
2.0
  9
$DIMDLI
 40
0.38
  9
$DIMRND
 40
0.0
  9
$DIMDLE
 40
0.0
  9
$DIMEXE
 40
2.0
  9
$DIMTP
 40
0.0
  9
$DIMTM
 40
0.0
  9
$DIMTXT
 40
3.0
  9
$DIMCEN
 40
0.09
  9
$DIMTSZ
 40
0.0
  9
$DIMTOL
 70
     0
  9
$DIMLIM
 70
     0
  9
$DIMTIH
 70
     0
  9
$DIMTOH
 70
     0
  9
$DIMSE1
 70
     0
  9
$DIMSE2
 70
     0
  9
$DIMTAD
 70
     1
  9
$DIMZIN
 70
     0
  9
$DIMBLK
  1

  9
$DIMASO
 70
     1
  9
$DIMSHO
 70
     0
  9
$DIMPOST
  1

  9
$DIMAPOST
  1

  9
$DIMALT
 70
     0
  9
$DIMALTD
 70
     2
  9
$DIMALTF
 40
25.4
  9
$DIMLFAC
 40
1.0
  9
$DIMTOFL
 70
     0
  9
$DIMTVP
 40
1.6
  9
$DIMTIX
 70
     1
  9
$DIMSOXD
 70
     0
  9
$DIMSAH
 70
     0
  9
$DIMBLK1
  1

  9
$DIMBLK2
  1

  9
$DIMSTYLE
  2
STANDARD
  9
$DIMCLRD
 70
     0
  9
$DIMCLRE
 70
     0
  9
$DIMCLRT
 70
     0
  9
$DIMTFAC
 40
1.0
  9
$DIMGAP
 40
0.09
  9
$DIMJUST
 70
     0
  9
$DIMSD1
 70
     0
  9
$DIMSD2
 70
     0
  9
$DIMTOLJ
 70
     1
  9
$DIMTZIN
 70
     0
  9
$DIMALTZ
 70
     0
  9
$DIMALTTZ
 70
     0
  9
$DIMUPT
 70
     0
  9
$DIMDEC
 70
     4
  9
$DIMTDEC
 70
     4
  9
$DIMALTU
 70
     2
  9
$DIMALTTD
 70
     2
  9
$DIMTXSTY
  7
STANDARD
  9
$DIMAUNIT
 70
     0
  9
$DIMADEC
 70
     0
  9
$DIMALTRND
 40
0.0
  9
$DIMAZIN
 70
     0
  9
$DIMDSEP
 70
    46
  9
$DIMATFIT
 70
     3
  9
$DIMFRAC
 70
     0
  9
$DIMLDRBLK
  1

  9
$DIMLUNIT
 70
     2
  9
$DIMLWD
 70
    -2
  9
$DIMLWE
 70
    -2
  9
$DIMTMOVE
 70
     0
  9
$LUNITS
 70
     2
  9
$LUPREC
 70
     4
  9
$SKETCHINC
 40
0.1
  9
$FILLETRAD
 40
3.0
  9
$AUNITS
 70
     0
  9
$AUPREC
 70
     0
  9
$MENU
  1
E:\r13\win\SUPPORT\ACAD
  9
$ELEVATION
 40
0.0
  9
$PELEVATION
 40
0.0
  9
$THICKNESS
 40
0.0
  9
$LIMCHECK
 70
     0
  9
$CHAMFERA
 40
0.0
  9
$CHAMFERB
 40
0.0
  9
$CHAMFERC
 40
0.0
  9
$CHAMFERD
 40
0.0
  9
$SKPOLY
 70
     0
  9
$TDCREATE
 40
2447977.543957060
  9
$TDUCREATE
 40
2447977.168957060
  9
$TDUPDATE
 40
2456447.696701747
  9
$TDUUPDATE
 40
2456447.321701748
  9
$TDINDWG
 40
0.1769506597
  9
$TDUSRTIMER
 40
0.1769506597
  9
$USRTIMER
 70
     1
  9
$ANGBASE
 50
0.0
  9
$ANGDIR
 70
     0
  9
$PDMODE
 70
     0
  9
$PDSIZE
 40
0.0
  9
$PLINEWID
 40
0.0
  9
$SPLFRAME
 70
     0
  9
$SPLINETYPE
 70
     6
  9
$SPLINESEGS
 70
     8
  9
$HANDSEED
  5
90C
  9
$SURFTAB1
 70
     6
  9
$SURFTAB2
 70
     6
  9
$SURFTYPE
 70
     6
  9
$SURFU
 70
     6
  9
$SURFV
 70
     6
  9
$UCSBASE
  2

  9
$UCSNAME
  2

  9
$UCSORG
 10
0.0
 20
0.0
 30
0.0
  9
$UCSXDIR
 10
1.0
 20
0.0
 30
0.0
  9
$UCSYDIR
 10
0.0
 20
1.0
 30
0.0
  9
$UCSORTHOREF
  2

  9
$UCSORTHOVIEW
 70
     0
  9
$UCSORGTOP
 10
0.0
 20
0.0
 30
0.0
  9
$UCSORGBOTTOM
 10
0.0
 20
0.0
 30
0.0
  9
$UCSORGLEFT
 10
0.0
 20
0.0
 30
0.0
  9
$UCSORGRIGHT
 10
0.0
 20
0.0
 30
0.0
  9
$UCSORGFRONT
 10
0.0
 20
0.0
 30
0.0
  9
$UCSORGBACK
 10
0.0
 20
0.0
 30
0.0
  9
$PUCSBASE
  2

  9
$PUCSNAME
  2

  9
$PUCSORG
 10
0.0
 20
0.0
 30
0.0
  9
$PUCSXDIR
 10
1.0
 20
0.0
 30
0.0
  9
$PUCSYDIR
 10
0.0
 20
1.0
 30
0.0
  9
$PUCSORTHOREF
  2

  9
$PUCSORTHOVIEW
 70
     0
  9
$PUCSORGTOP
 10
0.0
 20
0.0
 30
0.0
  9
$PUCSORGBOTTOM
 10
0.0
 20
0.0
 30
0.0
  9
$PUCSORGLEFT
 10
0.0
 20
0.0
 30
0.0
  9
$PUCSORGRIGHT
 10
0.0
 20
0.0
 30
0.0
  9
$PUCSORGFRONT
 10
0.0
 20
0.0
 30
0.0
  9
$PUCSORGBACK
 10
0.0
 20
0.0
 30
0.0
  9
$USERI1
 70
     0
  9
$USERI2
 70
     1
  9
$USERI3
 70
     1
  9
$USERI4
 70
     0
  9
$USERI5
 70
     0
  9
$USERR1
 40
0.0
  9
$USERR2
 40
0.0
  9
$USERR3
 40
0.0
  9
$USERR4
 40
0.0
  9
$USERR5
 40
0.0
  9
$WORLDVIEW
 70
     1
  9
$SHADEDGE
 70
     3
  9
$SHADEDIF
 70
    70
  9
$TILEMODE
 70
     1
  9
$MAXACTVP
 70
    16
  9
$PINSBASE
 10
0.0
 20
0.0
 30
0.0
  9
$PLIMCHECK
 70
     0
  9
$PEXTMIN
 10
1.000000000000000E+20
 20
1.000000000000000E+20
 30
1.000000000000000E+20
  9
$PEXTMAX
 10
-1.000000000000000E+20
 20
-1.000000000000000E+20
 30
-1.000000000000000E+20
  9
$PLIMMIN
 10
0.0
 20
0.0
  9
$PLIMMAX
 10
12.0
 20
9.0
  9
$UNITMODE
 70
     0
  9
$VISRETAIN
 70
     0
  9
$PLINEGEN
 70
     1
  9
$PSLTSCALE
 70
     0
  9
$TREEDEPTH
 70
  3020
  9
$CMLSTYLE
  2
Standard
  9
$CMLJUST
 70
     0
  9
$CMLSCALE
 40
1.0
  9
$PROXYGRAPHICS
 70
     1
  9
$MEASUREMENT
 70
     0
  9
$CELWEIGHT
370
    -1
  9
$ENDCAPS
280
     0
  9
$JOINSTYLE
280
     0
  9
$LWDISPLAY
290
     0
  9
$INSUNITS
 70
     0
  9
$HYPERLINKBASE
  1

  9
$STYLESHEET
  1

  9
$XEDIT
290
     1
  9
$CEPSNTYPE
380
     0
  9
$PSTYLEMODE
290
     1
  9
$FINGERPRINTGUID
  2
{6B84DF1E-94A7-42C5-B387-67B3F70421CB}
  9
$VERSIONGUID
  2
{693951DD-A018-4E02-A2FE-34E59C188990}
  9
$EXTNAMES
290
     1
  9
$PSVPSCALE
 40
0.0
  9
$OLESTARTUP
290
     0
  0
ENDSEC
  0
SECTION
  2
CLASSES
  0
CLASS
  1
ACDBDICTIONARYWDFLT
  2
AcDbDictionaryWithDefault
  3
AutoCAD 2000
 90
        0
280
     0
281
     0
  0
CLASS
  1
ACDBPLACEHOLDER
  2
AcDbPlaceHolder
  3
AutoCAD 2000
 90
        0
280
     0
281
     0
  0
CLASS
  1
LAYOUT
  2
AcDbLayout
  3
AutoCAD 2000
 90
        0
280
     0
281
     0
  0
CLASS
  1
AMGSETTINGSOBJ
  2
AmgSettingsObj
  3
"AcadM|Product Description: AutoCAD Mechanical 2000|Company: Autodesk"
 90
        0
280
     0
281
     0
  0
CLASS
  1
ACME_DOCUMENT
  2
AcMeDbDoc
  3
AcMeServices
 90
        0
280
     0
281
     0
  0
CLASS
  1
ACMESCOPE
  2
AcMeScope
  3
AcMeServices
 90
        0
280
     0
281
     0
  0
CLASS
  1
ACMECOMMANDHISTORY
  2
AcMeCommandHistory
  3
AcMeServices
 90
        0
280
     0
281
     0
  0
CLASS
  1
ACIMSYSVARMAN
  2
AcImSysVarManager
  3
AcMeServices
 90
        0
280
     0
281
     0
  0
CLASS
  1
ACIMREALSYSVAR
  2
AcImRealSysVar
  3
AcMeServices
 90
        0
280
     0
281
     0
  0
CLASS
  1
ACIMINTSYSVAR
  2
AcImIntSysVar
  3
AcMeServices
 90
        0
280
     0
281
     0
  0
CLASS
  1
ACMEDRAWINGMAN
  2
AcMeDrawingMan
  3
AcMeServices
 90
        0
280
     0
281
     0
  0
CLASS
  1
ACMEVIEW
  2
AcMeView
  3
AcMeServices
 90
        0
280
     0
281
     0
  0
CLASS
  1
ACDBENTITYCACHE
  2
AcMeEntityCache
  3
AcMeServices
 90
        0
280
     0
281
     0
  0
CLASS
  1
GSMANAGER
  2
AcMeGSManager
  3
AcMeServices
 90
        0
280
     0
281
     0
  0
CLASS
  1
AMDTINTERNALREACTOR
  2
AmdtInternalReactor
  3
AcMeServices
 90
        0
280
     0
281
     0
  0
CLASS
  1
ACMESTATEMGR
  2
AcMeStateMgr
  3
AcMeServices
 90
        0
280
     0
281
     0
  0
CLASS
  1
ACGREFMASTER
  2
AcGrefMaster
  3
AcAttribServices
 90
        0
280
     0
281
     0
  0
CLASS
  1
AM_DRAWING_MGR
  2
AcDmDwgMgr
  3
AcMechDwgViewMgmt
 90
        0
280
     0
281
     0
  0
CLASS
  1
AM_DWG_DOCUMENT
  2
AcDmDwgDocument
  3
AcMechDwgViewMgmt
 90
        0
280
     0
281
     0
  0
CLASS
  1
AM_DWG_SHEET
  2
AcDmSheet
  3
AcMechDwgViewMgmt
 90
        0
280
     0
281
     0
  0
CLASS
  1
AM_VIEWDIMPARMAP
  2
AcDmViewDimParMap
  3
AcMechDwgViewMgmt
 90
        0
280
     0
281
     0
  0
CLASS
  1
AM_DWGMGR_NAME
  2
AcDmDwgMgrName
  3
AcMechDwgViewMgmt
 90
        0
280
     0
281
     0
  0
CLASS
  1
ACME_DATABASE
  2
AcMeDbDatabase
  3
AcMeServices
 90
        0
280
     0
281
     0
  0
CLASS
  1
ACRFINSADJUSTERMGR
  2
AcRfInsAdjusterMgr
  3
AcMeServices
 90
        0
280
     0
281
     0
  0
CLASS
  1
ACGREFACADMASTER
  2
AcGrefacadMaster
  3
AcGrefServices
 90
        0
280
     0
281
     0
  0
CLASS
  1
AMDTMENUSTATEMGR
  2
AmdtMenuStateMgr
  3
McadcomServices
 90
        0
280
     0
281
     0
  0
CLASS
  1
AMDTMCOMMENUSTATE
  2
AmdtMcomMenuState
  3
McadcomServices
 90
        0
280
     0
281
     0
  0
CLASS
  1
AMIMASTER
  2
AmiMaster
  3
AmiServices
 90
        0
280
     0
281
     0
  0
CLASS
  1
ASAPP
  2
AcAsAppObject
  3
AutoSurfServices
 90
        0
280
     0
281
     0
  0
CLASS
  1
IM_STATIC_MAN
  2
AcImStaticVarManager
  3
AcMeServices
 90
        0
280
     0
281
     0
  0
CLASS
  1
ACIMSTRSYSVAR
  2
AcImStrSysVar
  3
AcMeServices
 90
        0
280
     0
281
     0
  0
CLASS
  1
ACIMDBLSTATICVAR
  2
AcImDblStaticVar
  3
AcMeServices
 90
        0
280
     0
281
     0
  0
CLASS
  1
ACIMSTRSTATICVAR
  2
AcImStrStaticVar
  3
AcMeServices
 90
        0
280
     0
281
     0
  0
CLASS
  1
ACIMINTSTATICVAR
  2
AcImIntStaticVar
  3
AcMeServices
 90
        0
280
     0
281
     0
  0
CLASS
  1
ACASGREFMASTER
  2
AcAsGrefMaster
  3
AutoSurfResolverServices
 90
        0
280
     0
281
     0
  0
CLASS
  1
ACADGREFMODULE
  2
AcAdGrefModule
  3
AdGrefServices
 90
        0
280
     0
281
     0
  0
CLASS
  1
AMDTMAPISURFMOUDULE
  2
AmdtMApiSurfModule
  3
MApiSurfServices
 90
        0
280
     0
281
     0
  0
CLASS
  1
MAPIAMMOUDLE
  2
MApiAmModule
  3
MApiAmServices
 90
        0
280
     0
281
     0
  0
CLASS
  1
AMDTADMENUSTATE
  2
AmdtAdMenuState
  3
DesignerServices
 90
        0
280
     0
281
     0
  0
CLASS
  1
ADAPPL
  2
AcAdAppl
  3
DesignerServices
 90
        0
280
     0
281
     0
  0
CLASS
  1
DEPMGR
  2
AcAdDepMgr
  3
DesignerServices
 90
        0
280
     0
281
     0
  0
CLASS
  1
PARAMMGR
  2
AcAdParamMgr
  3
DesignerServices
 90
        0
280
     0
281
     0
  0
CLASS
  1
PARAMSCOPE
  2
AcAdParamScope
  3
DesignerServices
 90
        0
280
     0
281
     0
  0
CLASS
  1
NAMEDAPPL
  2
AcAdNamedAppl
  3
DesignerServices
 90
        0
280
     0
281
     0
  0
CLASS
  1
AMDTDMMENUSTATE
  2
AmdtDmMenuState
  3
AcMechDwgViewMgmt
 90
        0
280
     0
281
     0
  0
CLASS
  1
MAPIADMODULE
  2
MApiAdModule
  3
MApiAdServices
 90
        0
280
     0
281
     0
  0
CLASS
  1
AMDTAMMENUSTATE
  2
AmdtAmMenuState
  3
DesignerAssemblies
 90
        0
280
     0
281
     0
  0
CLASS
  1
ACAMPROJECT
  2
AcAmProject
  3
DesignerAssemblies
 90
        0
280
     0
281
     0
  0
CLASS
  1
ACAMGRCOMPDEF
  2
AcAmGrCompDef
  3
DesignerAssemblies
 90
        0
280
     0
281
     0
  0
CLASS
  1
ACCMCONTEXT
  2
AcCmContext
  3
DesignerAssemblies
 90
        0
280
     0
281
     0
  0
CLASS
  1
ACAMCOMPDEF
  2
AcAmCompDef
  3
DesignerAssemblies
 90
        0
280
     0
281
     0
  0
CLASS
  1
ACAMCOMPDEFMGR
  2
AcAmCompDefMgr
  3
DesignerAssemblies
 90
        0
280
     0
281
     0
  0
CLASS
  1
AMCONTEXTMGR
  2
AcAmContextMgr
  3
DesignerAssemblies
 90
        0
280
     0
281
     0
  0
CLASS
  1
ACAMCONTEXTMODELER
  2
AcAmContextModeler
  3
DesignerAssemblies
 90
        0
280
     0
281
     0
  0
CLASS
  1
ACMDATADICTIONARY
  2
AcmDataDictionary
  3
"AcmSymBB|Product Description: AutoCAD Mechanical 2000|Company: Autodesk"
 90
        0
280
     0
281
     0
  0
CLASS
  1
ACMDATAENTRYBLOCK
  2
AcmDataEntryBlock
  3
"AcmSymBB|Product Description: AutoCAD Mechanical 2000|Company: Autodesk"
 90
        0
280
     0
281
     0
  0
CLASS
  1
CATALOGSTATE
  2
AcAmCatalogState
  3
DesignerAssemblies
 90
        0
280
     0
281
     0
  0
CLASS
  1
ACAMGRCOMPDEFSET
  2
AcAmGrCompDefSet
  3
DesignerAssemblies
 90
        0
280
     0
281
     0
  0
CLASS
  1
AMDTBROWSERDBTAB
  2
AmdtBrowserDbTab
  3
McadcomServices
 90
        0
280
     0
281
     0
  0
CLASS
  1
CBROWSERAPPOBJECT
  2
CBrowserAppObject
  3
McadcomServices
 90
        0
280
     0
281
     0
  0
CLASS
  1
DM_PLACEHOLDER
  2
AcDmSelsetPlaceholder
  3
AcMechDwgViewMgmt
 90
        0
280
     0
281
     0
  0
CLASS
  1
AMGOBJPROPCFG
  2
AmgObjPropCfg
  3
"AmgLay|Product Description: AutoCAD Mechanical 2000|Company: Autodesk"
 90
        1
280
     0
281
     0
  0
CLASS
  1
LAYER_INDEX
  2
AcDbLayerIndex
  3
AutoCAD 2000
 90
        0
280
     0
281
     0
  0
CLASS
  1
IDBUFFER
  2
AcDbIdBuffer
  3
AutoCAD 2000
 90
        0
280
     0
281
     0
  0
CLASS
  1
DICTIONARYVAR
  2
AcDbDictionaryVar
  3
AutoCAD 2000
 90
        0
280
     0
281
     0
  0
CLASS
  1
ACAMGFILTERDAT
  2
AcAmgFilterDat
  3
"AcadM|Product Description: AutoCAD Mechanical 2000|Company: Autodesk"
 90
        0
280
     0
281
     0
  0
ENDSEC
  0
SECTION
  2
TABLES
  0
TABLE
  2
VPORT
  5
787
330
0
100
AcDbSymbolTable
 70
     4
  0
VPORT
  5
90B
330
787
100
AcDbSymbolTableRecord
100
AcDbViewportTableRecord
  2
*Active
 70
     0
 10
0.0
 20
0.0
 11
1.0
 21
1.0
 12
0.0
 22
0.0
 13
0.0
 23
0.0
 14
10.0
 24
10.0
 15
10.0
 25
10.0
 16
0.0
 26
0.0
 36
1.0
 17
243.2913669064747
 27
169.1427212392895
 37
0.0
 40
326.6508259033366
 41
1.489721886336154
 42
50.0
 43
0.0
 44
0.0
 50
0.0
 51
0.0
 71
     0
 72
   500
 73
     1
 74
     0
 75
     0
 76
     0
 77
     0
 78
     2
281
     0
 65
     0
110
0.0
120
0.0
130
0.0
111
1.0
121
0.0
131
0.0
112
0.0
122
1.0
132
0.0
 79
     0
146
0.0
  0
ENDTAB
  0
TABLE
  2
LTYPE
  5
784
330
0
100
AcDbSymbolTable
 70
    16
  0
LTYPE
  5
792
330
784
100
AcDbSymbolTableRecord
100
AcDbLinetypeTableRecord
  2
ByBlock
 70
     0
  3

 72
    65
 73
     0
 40
0.0
  0
LTYPE
  5
793
330
784
100
AcDbSymbolTableRecord
100
AcDbLinetypeTableRecord
  2
ByLayer
 70
     0
  3

 72
    65
 73
     0
 40
0.0
  0
LTYPE
  5
794
330
784
100
AcDbSymbolTableRecord
100
AcDbLinetypeTableRecord
  2
CONTINUOUS
 70
     0
  3
Solid Line
 72
    65
 73
     0
 40
0.0
  0
LTYPE
  5
7A2
330
784
100
AcDbSymbolTableRecord
100
AcDbLinetypeTableRecord
  2
CENTER
 70
     0
  3
____ _ ____ _ ____ _ ____ _ ____ _ ____ _ ____
 72
    65
 73
     4
 40
2.0
 49
1.25
 74
     0
 49
-0.25
 74
     0
 49
0.25
 74
     0
 49
-0.25
 74
     0
  0
LTYPE
  5
7A3
330
784
100
AcDbSymbolTableRecord
100
AcDbLinetypeTableRecord
  2
HIDDEN
 70
     0
  3
_ _ _ _ _ _ _ _ _ _ _ _ _ _ _ _ _ _ _ _ _ _ _
 72
    65
 73
     2
 40
0.375
 49
0.25
 74
     0
 49
-0.125
 74
     0
  0
LTYPE
  5
848
330
784
100
AcDbSymbolTableRecord
100
AcDbLinetypeTableRecord
  2
PHANTOM2
 70
     0
  3
Phantom (.5x) ___ _ _ ___ _ _ ___ _ _ ___ _ _
 72
    65
 73
     6
 40
1.25
 49
0.625
 74
     0
 49
-0.125
 74
     0
 49
0.125
 74
     0
 49
-0.125
 74
     0
 49
0.125
 74
     0
 49
-0.125
 74
     0
  0
LTYPE
  5
8AA
330
784
100
AcDbSymbolTableRecord
100
AcDbLinetypeTableRecord
  2
ASULTYPE
 70
     0
  3
実線
 72
    65
 73
     2
 40
3.0
 49
2.5
 74
     0
 49
0.5
 74
     0
  0
LTYPE
  5
8AB
330
784
100
AcDbSymbolTableRecord
100
AcDbLinetypeTableRecord
  2
ASVLTYPE
 70
     0
  3
__ __ __ __ __ __ __ __ __ __ __ __ __ __ __ __ __ __ __ __ __
 72
    65
 73
     2
 40
0.75
 49
0.5
 74
     0
 49
-0.25
 74
     0
  0
LTYPE
  5
8EC
330
784
100
AcDbSymbolTableRecord
100
AcDbLinetypeTableRecord
  2
AM_ISO02W050
 70
     0
  3
__ __ __ __ __ __ __ __ __ __ __ __ __ __ __
 72
    65
 73
     2
 40
7.5
 49
6.0
 74
     0
 49
-1.5
 74
     0
  0
LTYPE
  5
8ED
330
784
100
AcDbSymbolTableRecord
100
AcDbLinetypeTableRecord
  2
AM_ISO08W050
 70
     0
  3
____ . ____ . ____ . ____ . ____ . ____ . ____
 72
    65
 73
     4
 40
18.0
 49
12.0
 74
     0
 49
-1.5
 74
     0
 49
3.0
 74
     0
 49
-1.5
 74
     0
  0
LTYPE
  5
8EE
330
784
100
AcDbSymbolTableRecord
100
AcDbLinetypeTableRecord
  2
AM_ISO09W050
 70
     0
  3
_____ . . _____ . . _____ . . ____ .. ____
 72
    65
 73
     6
 40
22.5
 49
12.0
 74
     0
 49
-1.5
 74
     0
 49
3.0
 74
     0
 49
-1.5
 74
     0
 49
3.0
 74
     0
 49
-1.5
 74
     0
  0
LTYPE
  5
8EF
330
784
100
AcDbSymbolTableRecord
100
AcDbLinetypeTableRecord
  2
Amconstr
 70
     0
  3
_______________________
 72
    65
 73
     2
 40
9999.0
 49
9999.0
 74
     0
 49
0.0
 74
     0
  0
LTYPE
  5
8F0
330
784
100
AcDbSymbolTableRecord
100
AcDbLinetypeTableRecord
  2
AM_ISO08W050x2
 70
     0
  3
__ . __ . __ . __ . __ . __
 72
    65
 73
     4
 40
9.0
 49
6.0
 74
     0
 49
-0.75
 74
     0
 49
1.5
 74
     0
 49
-0.75
 74
     0
  0
LTYPE
  5
8F1
330
784
100
AcDbSymbolTableRecord
100
AcDbLinetypeTableRecord
  2
AM_ISO02W050x2
 70
     0
  3
 _ _ _ _ _ _ _ _ _ _ _ _
 72
    65
 73
     2
 40
3.75
 49
3.0
 74
     0
 49
-0.75
 74
     0
  0
LTYPE
  5
8F4
330
784
100
AcDbSymbolTableRecord
100
AcDbLinetypeTableRecord
  2
Amzigzag
 70
     0
  3
/\/-/\/-/\/-/\/-/\/-/\/
 72
    65
 73
     2
 40
11.00009999999999
 49
0.0001
 74
     4
 75
   135
340
8F3
 46
0.04
 50
0.0
 44
0.0
 45
0.0
 49
-11.0
 74
     0
  0
LTYPE
  5
8F5
330
784
100
AcDbSymbolTableRecord
100
AcDbLinetypeTableRecord
  2
CENTER2
 70
     0
  3
Center (.5x) ___ _ ___ _ ___ _ ___ _ ___ _ ___
 72
    65
 73
     4
 40
1.125
 49
0.75
 74
     0
 49
-0.125
 74
     0
 49
0.125
 74
     0
 49
-0.125
 74
     0
  0
LTYPE
  5
8F6
330
784
100
AcDbSymbolTableRecord
100
AcDbLinetypeTableRecord
  2
HIDDEN2
 70
     0
  3
Hidden (.5x) _ _ _ _ _ _ _ _ _ _ _ _ _ _ _ _ _
 72
    65
 73
     2
 40
0.1875
 49
0.125
 74
     0
 49
-0.0625
 74
     0
  0
LTYPE
  5
8F7
330
784
100
AcDbSymbolTableRecord
100
AcDbLinetypeTableRecord
  2
Amzigzag2
 70
     0
  3
/\/-/\/-/\/-/\/-/\/-/\/
 72
    65
 73
     2
 40
0.4401
 49
0.0001
 74
     4
 75
   135
340
8F3
 46
0.0016
 50
0.0
 44
0.0
 45
0.0
 49
-0.4400000000000001
 74
     0
  0
ENDTAB
  0
TABLE
  2
LAYER
  5
781
330
0
100
AcDbSymbolTable
 70
     4
  0
LAYER
  5
78F
330
781
100
AcDbSymbolTableRecord
100
AcDbLayerTableRecord
  2
0
 70
     0
 62
     7
  6
CONTINUOUS
370
    -3
390
78E
  0
LAYER
  5
7A4
330
781
100
AcDbSymbolTableRecord
100
AcDbLayerTableRecord
  2
1
 70
     0
 62
     1
  6
CENTER
370
    -3
390
78E
  0
LAYER
  5
7A5
330
781
100
AcDbSymbolTableRecord
100
AcDbLayerTableRecord
  2
2
 70
     0
 62
     7
  6
HIDDEN
370
    35
390
78E
  0
LAYER
  5
7A6
330
781
100
AcDbSymbolTableRecord
100
AcDbLayerTableRecord
  2
DEFPOINTS
 70
     0
 62
     5
  6
CONTINUOUS
290
     0
370
    50
390
78E
  0
ENDTAB
  0
TABLE
  2
STYLE
  5
782
330
0
100
AcDbSymbolTable
 70
     2
  0
STYLE
  5
790
330
782
100
AcDbSymbolTableRecord
100
AcDbTextStyleTableRecord
  2
STANDARD
 70
     0
 40
0.0
 41
1.0
 50
0.0
 71
     0
 42
0.2
  3
TXT
  4
BIGFONT
  0
STYLE
  5
8F3
330
782
100
AcDbSymbolTableRecord
100
AcDbTextStyleTableRecord
  2

 70
     1
 40
0.0
 41
1.0
 50
0.0
 71
     0
 42
0.2
  3
ltypeshp.shx
  4

  0
ENDTAB
  0
TABLE
  2
VIEW
  5
785
330
0
100
AcDbSymbolTable
 70
     1
  0
VIEW
  5
7A7
330
785
100
AcDbSymbolTableRecord
100
AcDbViewTableRecord
  2
ALL
 70
     0
 40
179.5384664489153
 10
135.0
 20
89.76923322445767
 41
0.0
 11
0.0
 21
0.0
 31
1.0
 12
0.0
 22
0.0
 32
0.0
 42
0.0
 43
0.0
 44
0.0
 50
0.0
 71
     0
281
     0
 72
     0
  0
ENDTAB
  0
TABLE
  2
UCS
  5
786
330
0
100
AcDbSymbolTable
 70
     0
  0
ENDTAB
  0
TABLE
  2
APPID
  5
788
330
0
100
AcDbSymbolTable
 70
    14
  0
APPID
  5
791
330
788
100
AcDbSymbolTableRecord
100
AcDbRegAppTableRecord
  2
ACAD
 70
     0
  0
APPID
  5
7A8
330
788
100
AcDbSymbolTableRecord
100
AcDbRegAppTableRecord
  2
ACAD_EXEMPT_FROM_CAD_STANDARDS
 70
     0
  0
APPID
  5
7A9
330
788
100
AcDbSymbolTableRecord
100
AcDbRegAppTableRecord
  2
ACAD_MLEADERVER
 70
     0
  0
APPID
  5
827
330
788
100
AcDbSymbolTableRecord
100
AcDbRegAppTableRecord
  2
GENIUS_GENDIM_13
 70
     0
  0
APPID
  5
828
330
788
100
AcDbSymbolTableRecord
100
AcDbRegAppTableRecord
  2
GENIUS_GENDTOL_13
 70
     0
  0
APPID
  5
829
330
788
100
AcDbSymbolTableRecord
100
AcDbRegAppTableRecord
  2
GENIUS_GE3DTOL_13
 70
     0
  0
APPID
  5
82B
330
788
100
AcDbSymbolTableRecord
100
AcDbRegAppTableRecord
  2
MCAD_NO_VIS
 70
     0
  0
APPID
  5
82C
330
788
100
AcDbSymbolTableRecord
100
AcDbRegAppTableRecord
  2
ACAD_TEMP_GRAPHIC
 70
     0
  0
APPID
  5
85D
330
788
100
AcDbSymbolTableRecord
100
AcDbRegAppTableRecord
  2
AD_DRAW
 70
     0
  0
APPID
  5
860
330
788
100
AcDbSymbolTableRecord
100
AcDbRegAppTableRecord
  2
ACATTRIBSERVICES
 70
     0
  0
APPID
  5
8AC
330
788
100
AcDbSymbolTableRecord
100
AcDbRegAppTableRecord
  2
ASURF_PCURVE_APPNAME
 70
     0
  0
APPID
  5
8DB
330
788
100
AcDbSymbolTableRecord
100
AcDbRegAppTableRecord
  2
DESIGNERASSEMBLIES
 70
     0
  0
APPID
  5
8E3
330
788
100
AcDbSymbolTableRecord
100
AcDbRegAppTableRecord
  2
ACADM_DIM_EDIT
 70
     0
  0
APPID
  5
8E4
330
788
100
AcDbSymbolTableRecord
100
AcDbRegAppTableRecord
  2
AMDT_DM_ADJ
 70
     0
  0
ENDTAB
  0
TABLE
  2
DIMSTYLE
  5
789
330
0
100
AcDbSymbolTable
 70
     1
100
AcDbDimStyleTable
 71
     0
  0
DIMSTYLE
105
7AA
330
789
100
AcDbSymbolTableRecord
100
AcDbDimStyleTableRecord
  2
STANDARD
 70
     0
279
     2
340
790
  0
ENDTAB
  0
TABLE
  2
BLOCK_RECORD
  5
780
330
0
100
AcDbSymbolTable
 70
     3
  0
BLOCK_RECORD
  5
79D
102
{ACAD_XDICTIONARY
360
8F9
102
}
330
780
100
AcDbSymbolTableRecord
100
AcDbBlockTableRecord
  2
*Model_Space
340
7A0
  0
BLOCK_RECORD
  5
799
330
780
100
AcDbSymbolTableRecord
100
AcDbBlockTableRecord
  2
*Paper_Space
340
79C
  0
BLOCK_RECORD
  5
7AD
330
780
100
AcDbSymbolTableRecord
100
AcDbBlockTableRecord
  2
$MODEL_SPACE
340
0
  0
BLOCK_RECORD
  5
7B0
330
780
100
AcDbSymbolTableRecord
100
AcDbBlockTableRecord
  2
$PAPER_SPACE
340
0
  0
BLOCK_RECORD
  5
8D2
330
780
100
AcDbSymbolTableRecord
100
AcDbBlockTableRecord
  2
*U2
340
0
  0
ENDTAB
  0
ENDSEC
  0
SECTION
  2
BLOCKS
  0
BLOCK
  5
79E
330
79D
100
AcDbEntity
  8
0
100
AcDbBlockBegin
  2
*Model_Space
 70
     0
 10
0.0
 20
0.0
 30
0.0
  3
*Model_Space
  1

  0
ENDBLK
  5
79F
330
79D
100
AcDbEntity
  8
0
100
AcDbBlockEnd
  0
BLOCK
  5
79A
330
799
100
AcDbEntity
 67
     1
  8
0
100
AcDbBlockBegin
  2
*Paper_Space
 70
     0
 10
0.0
 20
0.0
 30
0.0
  3
*Paper_Space
  1

  0
ENDBLK
  5
79B
330
799
100
AcDbEntity
 67
     1
  8
0
100
AcDbBlockEnd
  0
BLOCK
  5
7AE
330
7AD
100
AcDbEntity
  8
0
100
AcDbBlockBegin
  2
$MODEL_SPACE
 70
     0
 10
0.0
 20
0.0
 30
0.0
  3
$MODEL_SPACE
  1

  0
ENDBLK
  5
7AF
330
7AD
100
AcDbEntity
  8
0
100
AcDbBlockEnd
  0
BLOCK
  5
7B1
330
7B0
100
AcDbEntity
  8
0
100
AcDbBlockBegin
  2
$PAPER_SPACE
 70
     0
 10
0.0
 20
0.0
 30
0.0
  3
$PAPER_SPACE
  1

  0
ENDBLK
  5
7B2
330
7B0
100
AcDbEntity
  8
0
100
AcDbBlockEnd
  0
BLOCK
  5
8D3
330
8D2
100
AcDbEntity
  8
0
100
AcDbBlockBegin
  2
*U2
 70
     1
 10
0.0
 20
0.0
 30
0.0
  3
*U2
  1

  0
ENDBLK
  5
8D4
330
8D2
100
AcDbEntity
  8
0
100
AcDbBlockEnd
  0
ENDSEC
  0
SECTION
  2
ENTITIES
  0
LINE
  5
7B3
330
79D
100
AcDbEntity
  8
0
100
AcDbLine
 10
101.0101052832716
 20
90.88970669847583
 30
0.0
 11
123.5101052832716
 21
90.88970669847583
 31
0.0
  0
LINE
  5
7B4
330
79D
100
AcDbEntity
  8
0
100
AcDbLine
 10
297.0101052832716
 20
90.88970669847583
 30
0.0
 11
297.0101052832716
 21
107.8897066984759
 31
0.0
  0
LINE
  5
7B5
330
79D
100
AcDbEntity
  8
0
100
AcDbLine
 10
101.0101052832716
 20
107.8897066984758
 30
0.0
 11
101.0101052832716
 21
90.88970669847583
 31
0.0
  0
LINE
  5
7B6
330
79D
100
AcDbEntity
  8
0
100
AcDbLine
 10
123.5101052832716
 20
90.88970669847583
 30
0.0
 11
123.5101052832716
 21
128.8897066984758
 31
0.0
  0
LINE
  5
7B7
330
79D
100
AcDbEntity
  8
0
100
AcDbLine
 10
128.0101052832716
 20
133.3897066984758
 30
0.0
 11
270.0101052832716
 21
133.3897066984758
 31
0.0
  0
LINE
  5
7B8
330
79D
100
AcDbEntity
  8
0
100
AcDbLine
 10
274.5101052832716
 20
128.8897066984758
 30
0.0
 11
274.5101052832716
 21
90.88970669847583
 31
0.0
  0
LINE
  5
7B9
330
79D
100
AcDbEntity
  8
0
100
AcDbLine
 10
297.0101052832716
 20
107.8897066984758
 30
0.0
 11
281.7841708325005
 21
135.7987442346274
 31
0.0
  0
LINE
  5
7BA
330
79D
100
AcDbEntity
  8
0
100
AcDbLine
 10
116.2360397340427
 20
135.7987442346274
 30
0.0
 11
101.0101052832716
 21
107.8897066984758
 31
0.0
  0
LINE
  5
7BB
330
79D
100
AcDbEntity
  8
2
100
AcDbLine
 10
280.5101052832715
 20
107.8897066984758
 30
0.0
 11
297.0101052832716
 21
107.8897066984758
 31
0.0
  0
LINE
  5
7BC
330
79D
100
AcDbEntity
  8
0
100
AcDbLine
 10
274.5101052832716
 20
90.88970669847583
 30
0.0
 11
297.0101052832716
 21
90.88970669847583
 31
0.0
  0
ARC
  5
7BD
330
79D
100
AcDbEntity
  8
0
100
AcDbCircle
 10
273.0720327212985
 20
130.8897066984759
 30
0.0
 40
10.0
100
AcDbArc
 50
29.40000000000102
 51
90.0
  0
ARC
  5
7BE
330
79D
100
AcDbEntity
  8
0
100
AcDbCircle
 10
124.9481778452446
 20
130.8897066984759
 30
0.0
 40
10.0
100
AcDbArc
 50
90.0
 51
150.599999999999
  0
ARC
  5
7BF
330
79D
100
AcDbEntity
  8
0
100
AcDbCircle
 10
128.0101052832716
 20
128.8897066984758
 30
0.0
 40
4.5
100
AcDbArc
 50
90.0
 51
180.0
  0
ARC
  5
7C0
330
79D
100
AcDbEntity
  8
0
100
AcDbCircle
 10
270.0101052832716
 20
128.8897066984758
 30
0.0
 40
4.5
100
AcDbArc
 50
0.0
 51
90.0
  0
LINE
  5
7C1
330
79D
100
AcDbEntity
  8
1
100
AcDbLine
 10
199.0101052832716
 20
145.8897066984759
 30
0.0
 11
199.0101052832716
 21
128.3897066984758
 31
0.0
  0
LINE
  5
7C2
330
79D
100
AcDbEntity
  8
1
100
AcDbLine
 10
288.5101052832715
 20
85.88970669847595
 30
0.0
 11
288.5101052832715
 21
128.470150698435
 31
0.0
  0
LINE
  5
7C3
330
79D
100
AcDbEntity
  8
1
100
AcDbLine
 10
109.5101052832716
 20
85.88970669847583
 30
0.0
 11
109.5101052832716
 21
128.470150698435
 31
0.0
  0
LINE
  5
7C4
330
79D
100
AcDbEntity
  8
2
100
AcDbLine
 10
280.5101052832716
 20
107.8897066984758
 30
0.0
 11
280.5101052832715
 21
135.5391937261582
 31
0.0
  0
ARC
  5
7C5
330
79D
100
AcDbEntity
  8
2
100
AcDbCircle
 10
276.0101052832715
 20
135.5391937261582
 30
0.0
 40
4.5
100
AcDbArc
 50
0.0
 51
57.71066448253762
  0
LINE
  5
7C6
330
79D
100
AcDbEntity
  8
2
100
AcDbLine
 10
292.7601052832715
 20
90.88970669847583
 30
0.0
 11
292.7601052832715
 21
99.38970669847584
 31
0.0
  0
LINE
  5
7C7
330
79D
100
AcDbEntity
  8
2
100
AcDbLine
 10
295.2601052832716
 20
99.38970669847584
 30
0.0
 11
295.2601052832716
 21
107.8897066984758
 31
0.0
  0
LINE
  5
7C8
330
79D
100
AcDbEntity
  8
2
100
AcDbLine
 10
281.7601052832715
 20
107.8897066984758
 30
0.0
 11
281.7601052832715
 21
99.38970669847584
 31
0.0
  0
LINE
  5
7C9
330
79D
100
AcDbEntity
  8
2
100
AcDbLine
 10
284.2601052832715
 20
99.38970669847584
 30
0.0
 11
284.2601052832715
 21
90.88970669847583
 31
0.0
  0
LINE
  5
7CA
330
79D
100
AcDbEntity
  8
2
100
AcDbLine
 10
281.7601052832715
 20
99.38970669847584
 30
0.0
 11
295.2601052832716
 21
99.38970669847584
 31
0.0
  0
LINE
  5
7CB
330
79D
100
AcDbEntity
  8
0
100
AcDbLine
 10
273.0720289066013
 20
140.8897066984759
 30
0.0
 11
124.9481778452446
 21
140.8897066984759
 31
0.0
  0
LINE
  5
7CC
330
79D
100
AcDbEntity
  8
0
100
AcDbLine
 10
128.0101052832716
 20
134.1897066984758
 30
0.0
 11
270.0101052832716
 21
134.1897066984758
 31
0.0
  0
ARC
  5
7CD
330
79D
100
AcDbEntity
  8
0
100
AcDbCircle
 10
128.0101052832716
 20
128.3897066984758
 30
0.0
 40
5.799999999999998
100
AcDbArc
 50
90.0
 51
180.0
  0
LINE
  5
7CE
330
79D
100
AcDbEntity
  8
0
100
AcDbLine
 10
122.2101052832715
 20
90.88970669847583
 30
0.0
 11
122.2101052832715
 21
128.3897066984758
 31
0.0
  0
ARC
  5
7CF
330
79D
100
AcDbEntity
  8
0
100
AcDbCircle
 10
270.0101052832716
 20
128.3897066984758
 30
0.0
 40
5.799999999999998
100
AcDbArc
 50
0.0
 51
90.0
  0
LINE
  5
7D0
330
79D
100
AcDbEntity
  8
0
100
AcDbLine
 10
275.8101052832716
 20
90.88970669847583
 30
0.0
 11
275.8101052832716
 21
128.3897066984758
 31
0.0
  0
ARC
  5
7D1
330
79D
100
AcDbEntity
  8
2
100
AcDbCircle
 10
122.0101052832716
 20
135.5391937261582
 30
0.0
 40
4.5
100
AcDbArc
 50
122.2893355174622
 51
180.0
  0
LINE
  5
7D2
330
79D
100
AcDbEntity
  8
2
100
AcDbLine
 10
117.5101052832716
 20
107.8897066984758
 30
0.0
 11
117.5101052832717
 21
135.5391937261582
 31
0.0
  0
LINE
  5
7D3
330
79D
100
AcDbEntity
  8
2
100
AcDbLine
 10
116.2601052832716
 20
99.38970669847595
 30
0.0
 11
102.7601052832716
 21
99.38970669847584
 31
0.0
  0
LINE
  5
7D4
330
79D
100
AcDbEntity
  8
2
100
AcDbLine
 10
113.7601052832716
 20
99.38970669847584
 30
0.0
 11
113.7601052832716
 21
90.88970669847583
 31
0.0
  0
LINE
  5
7D5
330
79D
100
AcDbEntity
  8
2
100
AcDbLine
 10
116.2601052832716
 20
107.8897066984758
 30
0.0
 11
116.2601052832716
 21
99.38970669847584
 31
0.0
  0
LINE
  5
7D6
330
79D
100
AcDbEntity
  8
2
100
AcDbLine
 10
117.5101052832717
 20
107.8897066984758
 30
0.0
 11
101.0101052832716
 21
107.8897066984758
 31
0.0
  0
LINE
  5
7D7
330
79D
100
AcDbEntity
  8
2
100
AcDbLine
 10
102.7601052832716
 20
99.38970669847584
 30
0.0
 11
102.7601052832716
 21
107.8897066984758
 31
0.0
  0
LINE
  5
7D8
330
79D
100
AcDbEntity
  8
2
100
AcDbLine
 10
105.2601052832716
 20
90.88970669847583
 30
0.0
 11
105.2601052832716
 21
99.38970669847584
 31
0.0
  0
LINE
  5
7D9
330
79D
100
AcDbEntity
  8
1
100
AcDbLine
 10
96.01010528327146
 20
219.9130565514098
 30
0.0
 11
302.0101052832716
 21
219.9130565514098
 31
0.0
  0
LINE
  5
7DA
330
79D
100
AcDbEntity
  8
1
100
AcDbLine
 10
199.0101052832716
 20
238.1630565514098
 30
0.0
 11
199.0101052832716
 21
201.6630565514097
 31
0.0
  0
CIRCLE
  5
7DB
330
79D
100
AcDbEntity
  8
0
100
AcDbCircle
 10
109.5101052832716
 20
219.9130565514098
 30
0.0
 40
4.25
  0
LINE
  5
7DC
330
79D
100
AcDbEntity
  8
1
100
AcDbLine
 10
109.5101052832716
 20
229.1630565514098
 30
0.0
 11
109.5101052832716
 21
210.6630565514097
 31
0.0
  0
LINE
  5
7DD
330
79D
100
AcDbEntity
  8
0
100
AcDbLine
 10
101.0101052832717
 20
219.9130565514098
 30
0.0
 11
102.0172281662929
 21
208.4015893231668
 31
0.0
  0
LINE
  5
7DE
330
79D
100
AcDbEntity
  8
0
100
AcDbLine
 10
101.0101052832714
 20
219.9130565514098
 30
0.0
 11
102.017228400492
 21
231.4245264565613
 31
0.0
  0
LINE
  5
7DF
330
79D
100
AcDbEntity
  8
0
100
AcDbLine
 10
104.5058139123807
 20
233.9130565514098
 30
0.0
 11
123.5101052832716
 21
233.9130565514098
 31
0.0
  0
LINE
  5
7E0
330
79D
100
AcDbEntity
  8
0
100
AcDbLine
 10
104.5058122605684
 20
205.9130565514097
 30
0.0
 11
123.5101052832716
 21
205.9130565514097
 31
0.0
  0
LINE
  5
7E1
330
79D
100
AcDbEntity
  8
0
100
AcDbLine
 10
123.5101052832716
 20
205.9130565514097
 30
0.0
 11
123.5101052832716
 21
206.6630565514098
 31
0.0
  0
LINE
  5
7E2
330
79D
100
AcDbEntity
  8
0
100
AcDbLine
 10
122.5101052832716
 20
233.1630565514098
 30
0.0
 11
275.5101052832715
 21
233.1630565514098
 31
0.0
  0
LINE
  5
7E3
330
79D
100
AcDbEntity
  8
0
100
AcDbLine
 10
122.5101052832716
 20
206.6630565514098
 30
0.0
 11
275.5101052832715
 21
206.6630565514098
 31
0.0
  0
ARC
  5
7E4
330
79D
100
AcDbEntity
  8
0
100
AcDbCircle
 10
104.5728371789349
 20
231.3574463242984
 30
0.0
 40
2.556488993248108
100
AcDbArc
 50
91.50232800917107
 51
178.4964341165636
  0
ARC
  5
7E5
330
79D
100
AcDbEntity
  8
0
100
AcDbCircle
 10
104.572837321881
 20
208.4686670898254
 30
0.0
 40
2.556489308193001
100
AcDbArc
 50
181.5035126622188
 51
268.4976689711572
  0
LINE
  5
7E6
330
79D
100
AcDbEntity
  8
0
100
AcDbLine
 10
106.9451403747037
 20
233.9130565514098
 30
0.0
 11
122.5101052832715
 21
233.1630565514098
 31
0.0
  0
LINE
  5
7E7
330
79D
100
AcDbEntity
  8
0
100
AcDbLine
 10
123.5101052832716
 20
233.1630565514098
 30
0.0
 11
123.5101052832716
 21
233.9130565514098
 31
0.0
  0
LINE
  5
7E8
330
79D
100
AcDbEntity
  8
0
100
AcDbLine
 10
106.9451403747044
 20
205.9130565514097
 30
0.0
 11
122.5101052832716
 21
206.6630565514098
 31
0.0
  0
LINE
  5
7E9
330
79D
100
AcDbEntity
  8
0
100
AcDbLine
 10
117.5101052832717
 20
216.4130565514097
 30
0.0
 11
117.5101052832717
 21
223.4130565514098
 31
0.0
  0
LINE
  5
7EA
330
79D
100
AcDbEntity
  8
0
100
AcDbLine
 10
103.3926315936175
 20
227.9130565514098
 30
0.0
 11
113.0101052832717
 21
227.9130565514098
 31
0.0
  0
LINE
  5
7EB
330
79D
100
AcDbEntity
  8
0
100
AcDbLine
 10
103.3926315936176
 20
211.9130565514097
 30
0.0
 11
113.0101052832717
 21
211.9130565514097
 31
0.0
  0
ARC
  5
7EC
330
79D
100
AcDbEntity
  8
0
100
AcDbCircle
 10
113.0101052832717
 20
223.4130565514098
 30
0.0
 40
4.5
100
AcDbArc
 50
0.0
 51
90.0
  0
ARC
  5
7ED
330
79D
100
AcDbEntity
  8
0
100
AcDbCircle
 10
113.0101052832717
 20
216.4130565514097
 30
0.0
 40
4.5
100
AcDbArc
 50
270.0
 51
0.0
  0
ARC
  5
7EE
330
79D
100
AcDbEntity
  8
0
100
AcDbCircle
 10
103.4836882422647
 20
210.2512338209058
 30
0.0
 40
1.664315505210071
100
AcDbArc
 50
93.13628511267891
 51
172.0656149155275
  0
ARC
  5
7EF
330
79D
100
AcDbEntity
  8
0
100
AcDbCircle
 10
103.4836882422646
 20
229.5748792819138
 30
0.0
 40
1.664315505210091
100
AcDbArc
 50
187.9343850844659
 51
266.8637148873211
  0
ARC
  5
7F0
330
79D
100
AcDbEntity
  8
0
100
AcDbCircle
 10
294.5365223242785
 20
229.5748792819138
 30
0.0
 40
1.664315505210157
100
AcDbArc
 50
273.1362851126788
 51
352.0656149155341
  0
ARC
  5
7F1
330
79D
100
AcDbEntity
  8
0
100
AcDbCircle
 10
294.5365223242785
 20
210.2512338209055
 30
0.0
 40
1.664315505210101
100
AcDbArc
 50
7.934385084472468
 51
86.86371488732106
  0
ARC
  5
7F2
330
79D
100
AcDbEntity
  8
0
100
AcDbCircle
 10
285.0101052832714
 20
216.4130565514097
 30
0.0
 40
4.5
100
AcDbArc
 50
180.0
 51
270.0
  0
ARC
  5
7F3
330
79D
100
AcDbEntity
  8
0
100
AcDbCircle
 10
285.0101052832714
 20
223.4130565514098
 30
0.0
 40
4.5
100
AcDbArc
 50
90.0
 51
180.0
  0
LINE
  5
7F4
330
79D
100
AcDbEntity
  8
0
100
AcDbLine
 10
294.6275789729256
 20
211.9130565514097
 30
0.0
 11
285.0101052832714
 21
211.9130565514097
 31
0.0
  0
LINE
  5
7F5
330
79D
100
AcDbEntity
  8
0
100
AcDbLine
 10
294.6275789729256
 20
227.9130565514098
 30
0.0
 11
285.0101052832714
 21
227.9130565514098
 31
0.0
  0
LINE
  5
7F6
330
79D
100
AcDbEntity
  8
0
100
AcDbLine
 10
280.5101052832715
 20
216.4130565514097
 30
0.0
 11
280.5101052832715
 21
223.4130565514098
 31
0.0
  0
LINE
  5
7F7
330
79D
100
AcDbEntity
  8
0
100
AcDbLine
 10
291.0750701918385
 20
205.9130565514097
 30
0.0
 11
275.5101052832715
 21
206.6630565514098
 31
0.0
  0
LINE
  5
7F8
330
79D
100
AcDbEntity
  8
0
100
AcDbLine
 10
274.5101052832716
 20
233.1630565514098
 30
0.0
 11
274.5101052832716
 21
233.9130565514098
 31
0.0
  0
LINE
  5
7F9
330
79D
100
AcDbEntity
  8
0
100
AcDbLine
 10
291.0750701918393
 20
233.9130565514098
 30
0.0
 11
275.5101052832715
 21
233.1630565514098
 31
0.0
  0
ARC
  5
7FA
330
79D
100
AcDbEntity
  8
0
100
AcDbCircle
 10
293.4432065633013
 20
208.4777411807228
 30
0.0
 40
2.565672526270478
100
AcDbArc
 50
271.5900353455384
 51
359.8005771726052
  0
ARC
  5
7FB
330
79D
100
AcDbEntity
  8
0
100
AcDbCircle
 10
293.4432065633013
 20
231.3483719220968
 30
0.0
 40
2.565672526270407
100
AcDbArc
 50
0.1994228273979712
 51
88.40996465446478
  0
LINE
  5
7FC
330
79D
100
AcDbEntity
  8
0
100
AcDbLine
 10
274.5101052832716
 20
205.9130565514097
 30
0.0
 11
274.5101052832716
 21
206.6630565514098
 31
0.0
  0
LINE
  5
7FD
330
79D
100
AcDbEntity
  8
0
100
AcDbLine
 10
293.5143983059748
 20
205.9130565514097
 30
0.0
 11
274.5101052832716
 21
205.9130565514097
 31
0.0
  0
LINE
  5
7FE
330
79D
100
AcDbEntity
  8
0
100
AcDbLine
 10
293.5143966541624
 20
233.9130565514098
 30
0.0
 11
274.5101052832716
 21
233.9130565514098
 31
0.0
  0
LINE
  5
7FF
330
79D
100
AcDbEntity
  8
0
100
AcDbLine
 10
297.0101052832718
 20
219.9130565514098
 30
0.0
 11
296.008863548704
 21
231.3573019452268
 31
0.0
  0
LINE
  5
800
330
79D
100
AcDbEntity
  8
0
100
AcDbLine
 10
297.0101052832716
 20
219.9130565514098
 30
0.0
 11
296.008863548704
 21
208.468811157593
 31
0.0
  0
LINE
  5
801
330
79D
100
AcDbEntity
  8
1
100
AcDbLine
 10
288.5101052832715
 20
229.1630565514098
 30
0.0
 11
288.5101052832715
 21
210.6630565514097
 31
0.0
  0
CIRCLE
  5
802
330
79D
100
AcDbEntity
  8
0
100
AcDbCircle
 10
288.5101052832715
 20
219.9130565514098
 30
0.0
 40
4.25
  0
POLYLINE
  5
803
330
79D
100
AcDbEntity
  8
0
100
AcDb2dPolyline
 66
     1
 10
0.0
 20
0.0
 30
0.0
  0
VERTEX
  5
804
330
803
100
AcDbEntity
  8
0
100
AcDbVertex
100
AcDb2dVertex
 10
345.5870561601006
 20
135.5391937261582
 30
0.0
 42
0.1170596688884094
  0
VERTEX
  5
805
330
803
100
AcDbEntity
  8
0
100
AcDbVertex
100
AcDb2dVertex
 10
343.9108899179381
 20
135.1413187279345
 30
0.0
 42
0.1043435021664291
  0
VERTEX
  5
806
330
803
100
AcDbEntity
  8
0
100
AcDbVertex
100
AcDb2dVertex
 10
342.4050756447611
 20
133.9383680212267
 30
0.0
 42
0.0902795071944896
  0
VERTEX
  5
807
330
803
100
AcDbEntity
  8
0
100
AcDbVertex
100
AcDb2dVertex
 10
341.4414016696182
 20
132.2104383054112
 30
0.0
 42
0.08235245987519
  0
VERTEX
  5
808
330
803
100
AcDbEntity
  8
0
100
AcDbVertex
100
AcDb2dVertex
 10
341.0870561601005
 20
130.0736328933857
 30
0.0
 42
0.0823524598751922
  0
SEQEND
  5
809
330
803
100
AcDbEntity
  8
0
  0
POLYLINE
  5
80A
330
79D
100
AcDbEntity
  8
0
100
AcDb2dPolyline
 66
     1
 10
0.0
 20
0.0
 30
0.0
  0
VERTEX
  5
80B
330
80A
100
AcDbEntity
  8
0
100
AcDbVertex
100
AcDb2dVertex
 10
352.5870561601005
 20
135.5391937261582
 30
0.0
 42
-0.1170596688884094
  0
VERTEX
  5
80C
330
80A
100
AcDbEntity
  8
0
100
AcDbVertex
100
AcDb2dVertex
 10
354.263222402263
 20
135.1413187279345
 30
0.0
 42
-0.1043435021664291
  0
VERTEX
  5
80D
330
80A
100
AcDbEntity
  8
0
100
AcDbVertex
100
AcDb2dVertex
 10
355.76903667544
 20
133.9383680212267
 30
0.0
 42
-0.0902795071944896
  0
VERTEX
  5
80E
330
80A
100
AcDbEntity
  8
0
100
AcDbVertex
100
AcDb2dVertex
 10
356.732710650583
 20
132.2104383054112
 30
0.0
 42
-0.08235245987519
  0
VERTEX
  5
80F
330
80A
100
AcDbEntity
  8
0
100
AcDbVertex
100
AcDb2dVertex
 10
357.0870561601005
 20
130.0736328933857
 30
0.0
 42
-0.0823524598751922
  0
SEQEND
  5
810
330
80A
100
AcDbEntity
  8
0
  0
LINE
  5
811
330
79D
100
AcDbEntity
  8
0
100
AcDbLine
 10
349.0870561601006
 20
107.8897066984758
 30
0.0
 11
349.0870561601007
 21
90.88970669847595
 31
0.0
  0
LINE
  5
812
330
79D
100
AcDbEntity
  8
0
100
AcDbLine
 10
341.0870561601005
 20
107.8897066984758
 30
0.0
 11
341.0870561601005
 21
130.0736348007343
 31
0.0
  0
LINE
  5
813
330
79D
100
AcDbEntity
  8
0
100
AcDbLine
 10
357.0870561601006
 20
107.8897066984758
 30
0.0
 11
357.0870561601005
 21
130.0736328933857
 31
0.0
  0
LINE
  5
814
330
79D
100
AcDbEntity
  8
0
100
AcDbLine
 10
357.0870561601006
 20
107.8897066984758
 30
0.0
 11
341.0870561601006
 21
107.8897066984758
 31
0.0
  0
LINE
  5
815
330
79D
100
AcDbEntity
  8
2
100
AcDbLine
 10
349.0870561601005
 20
133.3897066984758
 30
0.0
 11
338.5777266253657
 21
134.3091538940233
 31
0.0
  0
LINE
  5
816
330
79D
100
AcDbEntity
  8
2
100
AcDbLine
 10
349.0870561601005
 20
133.3897066984758
 30
0.0
 11
359.5963856948354
 21
134.3091538940233
 31
0.0
  0
ARC
  5
817
330
79D
100
AcDbEntity
  8
2
100
AcDbCircle
 10
359.0077944322077
 20
137.3312959711548
 30
0.0
 40
3.078925528298837
100
AcDbArc
 50
281.0209405365907
 51
356.4324069787945
  0
ARC
  5
818
330
79D
100
AcDbEntity
  8
2
100
AcDbCircle
 10
339.1663178879933
 20
137.3312959711548
 30
0.0
 40
3.078925528298829
100
AcDbArc
 50
183.5675930212054
 51
258.9790594634092
  0
ARC
  5
819
330
79D
100
AcDbEntity
  8
0
100
AcDbCircle
 10
339.1637563947148
 20
136.9512720563535
 30
0.0
 40
3.075339996348362
100
AcDbArc
 50
100.9853337186926
 51
178.219207844205
  0
ARC
  5
81A
330
79D
100
AcDbEntity
  8
0
100
AcDbCircle
 10
359.0103559254863
 20
136.9512720563535
 30
0.0
 40
3.075339996348379
100
AcDbArc
 50
1.780792155795007
 51
79.01466628130731
  0
LINE
  5
81B
330
79D
100
AcDbEntity
  8
0
100
AcDbLine
 10
336.0899016819558
 20
137.0468403460179
 30
0.0
 11
335.0870561601006
 21
90.88970669847595
 31
0.0
  0
LINE
  5
81C
330
79D
100
AcDbEntity
  8
0
100
AcDbLine
 10
362.0842106382453
 20
137.0468403460179
 30
0.0
 11
363.0870561601007
 21
90.88970669847595
 31
0.0
  0
LINE
  5
81D
330
79D
100
AcDbEntity
  8
0
100
AcDbLine
 10
349.0870561601005
 20
140.8897066984758
 30
0.0
 11
359.5963856948354
 21
139.9702595029284
 31
0.0
  0
LINE
  5
81E
330
79D
100
AcDbEntity
  8
0
100
AcDbLine
 10
349.0870561601005
 20
140.8897066984758
 30
0.0
 11
338.5777266253657
 21
139.9702595029283
 31
0.0
  0
LINE
  5
81F
330
79D
100
AcDbEntity
  8
1
100
AcDbLine
 10
349.0870561601007
 20
85.88970669847583
 30
0.0
 11
349.0870561601005
 21
145.8897066984759
 31
0.0
  0
LINE
  5
820
330
79D
100
AcDbEntity
  8
0
100
AcDbLine
 10
363.0870561601007
 20
90.88970669847583
 30
0.0
 11
335.0868202451527
 21
90.88970669847583
 31
0.0
  0
CIRCLE
  5
821
330
79D
100
AcDbEntity
  8
0
100
AcDbCircle
 10
109.5101052832716
 20
219.9130565514098
 30
0.0
 40
6.750000000000028
  0
CIRCLE
  5
822
330
79D
100
AcDbEntity
  8
0
100
AcDbCircle
 10
288.5101052832717
 20
219.9130565514098
 30
0.0
 40
6.750000000000028
  0
ENDSEC
  0
SECTION
  2
OBJECTS
  0
DICTIONARY
  5
78B
330
0
100
AcDbDictionary
281
     1
  3
ACAD_GROUP
350
78C
  3
ACAD_LAYOUT
350
798
  3
ACAD_MLINESTYLE
350
795
  3
ACAD_PLOTSETTINGS
350
797
  3
ACAD_PLOTSTYLENAME
350
78D
  3
AcDbVariableDictionary
350
900
  3
AcmDictionary
350
8DC
  3
AMG
350
824
  3
AMGSNAPSETTINGS
350
904
  3
DWGPROPS
350
8DF
  3
MAPISURF_MODULE
350
8AF
  0
DICTIONARY
  5
8F9
330
79D
100
AcDbDictionary
280
     1
281
     1
  3
ACAD_INDEX
360
8FA
  0
DICTIONARY
  5
78C
102
{ACAD_REACTORS
330
78B
102
}
330
78B
100
AcDbDictionary
281
     1
  0
DICTIONARY
  5
798
102
{ACAD_REACTORS
330
78B
102
}
330
78B
100
AcDbDictionary
281
     1
  3
Model
350
7A0
  3
ﾚｲｱｳﾄ1
350
79C
  0
DICTIONARY
  5
795
102
{ACAD_REACTORS
330
78B
102
}
330
78B
100
AcDbDictionary
281
     1
  3
Standard
350
796
  0
DICTIONARY
  5
797
102
{ACAD_REACTORS
330
78B
102
}
330
78B
100
AcDbDictionary
281
     1
  0
ACDBDICTIONARYWDFLT
  5
78D
102
{ACAD_REACTORS
330
78B
102
}
330
78B
100
AcDbDictionary
281
     1
  3
Normal
350
78E
100
AcDbDictionaryWithDefault
340
78E
  0
DICTIONARY
  5
900
102
{ACAD_REACTORS
330
78B
102
}
330
78B
100
AcDbDictionary
281
     1
  3
DIMASSOC
350
902
  3
INDEXCTL
350
901
  0
DICTIONARY
  5
8DC
102
{ACAD_REACTORS
330
78B
102
}
330
78B
100
AcDbDictionary
281
     1
  3
AcmBOMDATA
350
8DD
  0
DICTIONARY
  5
824
102
{ACAD_REACTORS
330
78B
102
}
330
78B
100
AcDbDictionary
281
     1
  3
AcMgSettings
350
825
  3
AMGLAYCFG
350
8E9
  0
DICTIONARY
  5
904
102
{ACAD_REACTORS
330
78B
102
}
330
78B
100
AcDbDictionary
281
     1
  3
DIMENSION
350
909
  3
FEA
350
908
  3
HATCH (1)
350
905
  3
HATCH (2)
350
906
  3
SIMPLE WELD
350
90A
  3
SYMBOLS
350
907
  0
XRECORD
  5
8DF
102
{ACAD_REACTORS
330
78B
102
}
330
78B
100
AcDbXrecord
280
     1
  1
DWGPROPS COOKIE
  2

  3

  4

  6

  7

  8

  9

300
AmdtFileType=84
301
=
302
=
303
=
304
=
305
=
306
=
307
=
308
=
309
=
 40
0.1757654050925926
 41
2447977.54395706
 42
2456115.414618588
  1

 90
        1
  0
DICTIONARY
  5
8FA
102
{ACAD_REACTORS
330
8F9
102
}
330
8F9
100
AcDbDictionary
281
     1
  3
*A1
350
8FB
  0
LAYOUT
  5
7A0
102
{ACAD_REACTORS
330
798
102
}
330
798
100
AcDbPlotSettings
  1

  2
\\KONISHIDENXP\SHARP MX-2700FG
  4

  6

 40
0.0
 41
0.0
 42
0.0
 43
0.0
 44
0.0
 45
0.0
 46
0.0
 47
0.0
 48
0.0
 49
0.0
140
0.0
141
0.0
142
1.0
143
1.0
 70
  1712
 72
     0
 73
     0
 74
     0
  7

 75
     0
147
1.0
148
0.0
149
0.0
100
AcDbLayout
  1
Model
 70
     1
 71
     0
 10
0.0
 20
0.0
 11
12.0
 21
9.0
 12
0.0
 22
0.0
 32
0.0
 14
0.0
 24
0.0
 34
0.0
 15
0.0
 25
0.0
 35
0.0
146
0.0
 13
0.0
 23
0.0
 33
0.0
 16
1.0
 26
0.0
 36
0.0
 17
0.0
 27
1.0
 37
0.0
 76
     0
330
79D
  0
LAYOUT
  5
79C
102
{ACAD_REACTORS
330
798
102
}
330
798
100
AcDbPlotSettings
  1

  2
\\KONISHIDENXP\SHARP MX-2700FG
  4

  6

 40
0.0
 41
0.0
 42
0.0
 43
0.0
 44
0.0
 45
0.0
 46
0.0
 47
0.0
 48
0.0
 49
0.0
140
0.0
141
0.0
142
1.0
143
1.0
 70
   688
 72
     0
 73
     0
 74
     5
  7

 75
    16
147
1.0
148
0.0
149
0.0
100
AcDbLayout
  1
ﾚｲｱｳﾄ1
 70
     0
 71
     1
 10
0.0
 20
0.0
 11
12.0
 21
9.0
 12
0.0
 22
0.0
 32
0.0
 14
1.000000000000000E+20
 24
1.000000000000000E+20
 34
1.000000000000000E+20
 15
-1.000000000000000E+20
 25
-1.000000000000000E+20
 35
-1.000000000000000E+20
146
0.0
 13
0.0
 23
0.0
 33
0.0
 16
1.0
 26
0.0
 36
0.0
 17
0.0
 27
1.0
 37
0.0
 76
     0
330
799
  0
MLINESTYLE
  5
796
102
{ACAD_REACTORS
330
795
102
}
330
795
100
AcDbMlineStyle
  2
STANDARD
 70
     0
  3

 62
   256
 51
90.0
 52
90.0
 71
     2
 49
0.5
 62
   256
  6
BYLAYER
 49
-0.5
 62
   256
  6
BYLAYER
  0
ACDBPLACEHOLDER
  5
78E
102
{ACAD_REACTORS
330
78D
102
}
330
78D
  0
DICTIONARYVAR
  5
902
102
{ACAD_REACTORS
330
900
102
}
330
900
100
DictionaryVariables
280
     0
  1
1
  0
DICTIONARYVAR
  5
901
102
{ACAD_REACTORS
330
900
102
}
330
900
100
DictionaryVariables
280
     0
  1
1
  0
ACMDATADICTIONARY
  5
8DD
102
{ACAD_REACTORS
330
8DC
102
}
330
8DC
100
AcDbDictionary
281
     1
  3
*A1
350
8DE
100
AcmDataDictionary
  0
DICTIONARY
  5
825
102
{ACAD_REACTORS
330
824
102
}
330
824
100
AcDbDictionary
281
     1
  3
DWGSETTINGS
350
826
  0
ACAMGFILTERDAT
  5
909
102
{ACAD_REACTORS
330
904
102
}
330
904
100
AcAmgFilterDat
 70
    15
  1
DIMENSION,AMDT_*_DIM
  2
*
  3
*
  4
*
  5
*
290
     1
  0
ACAMGFILTERDAT
  5
908
102
{ACAD_REACTORS
330
904
102
}
330
904
100
AcAmgFilterDat
 70
    15
  1
*
  2
AM_FEA-AM_*
  3
*
  4
*
  5
*
290
     1
  0
ACAMGFILTERDAT
  5
905
102
{ACAD_REACTORS
330
904
102
}
330
904
100
AcAmgFilterDat
 70
    15
  1
HATCH
  2
*
  3
*
  4
*
  5
*
290
     1
  0
ACAMGFILTERDAT
  5
906
102
{ACAD_REACTORS
330
904
102
}
330
904
100
AcAmgFilterDat
 70
    15
  1
LINE
  2
8,8N,*-8,*-8N,AM_8,AM_8N,*-AM_8,*-AM_8N
  3
*
  4
*
  5
INSERT,STDPART2D
290
     1
  0
ACAMGFILTERDAT
  5
90A
102
{ACAD_REACTORS
330
904
102
}
330
904
100
AcAmgFilterDat
 70
    15
  1
ARC
  2
AM_5
  3
*
  4
2
  5
INSERT
290
     0
  0
ACAMGFILTERDAT
  5
907
102
{ACAD_REACTORS
330
904
102
}
330
904
100
AcAmgFilterDat
 70
    15
  1
ACMFCFRAME,ACMDATUMTARGET,ACMDATUMID,ACMWELDSYM,ACMSURFSYM,ACMFEATID,ACMPARTREF,ACMBALLOON,AMDTEDGESYM,AMGSCREWCALCTABLE
  2
*
  3
*
  4
*
  5
*
290
     1
  0
LAYER_INDEX
  5
8FB
102
{ACAD_REACTORS
330
8FA
102
}
330
8FA
100
AcDbIndex
 40
2456447.696701747
100
AcDbLayerIndex
  8
0
360
8FC
 90
       72
  8
1
360
8FD
 90
        8
  8
2
360
8FE
 90
       20
  8
DEFPOINTS
360
8FF
 90
        0
  0
ACMDATAENTRYBLOCK
  5
8DE
102
{ACAD_REACTORS
330
8DD
102
}
330
8DD
100
AcmDataEntry
100
AcmDataEntryBlock
  0
IDBUFFER
  5
8FC
330
0
100
AcDbIdBuffer
330
7B3
330
7B4
330
7B5
330
7B6
330
7B7
330
7B8
330
7B9
330
7BA
330
7BC
330
7BD
330
7BE
330
7BF
330
7C0
330
7CB
330
7CC
330
7CD
330
7CE
330
7CF
330
7D0
330
7DB
330
7DD
330
7DE
330
7DF
330
7E0
330
7E1
330
7E2
330
7E3
330
7E4
330
7E5
330
7E6
330
7E7
330
7E8
330
7E9
330
7EA
330
7EB
330
7EC
330
7ED
330
7EE
330
7EF
330
7F0
330
7F1
330
7F2
330
7F3
330
7F4
330
7F5
330
7F6
330
7F7
330
7F8
330
7F9
330
7FA
330
7FB
330
7FC
330
7FD
330
7FE
330
7FF
330
800
330
802
330
803
330
80A
330
811
330
812
330
813
330
814
330
819
330
81A
330
81B
330
81C
330
81D
330
81E
330
820
330
821
330
822
  0
IDBUFFER
  5
8FD
330
0
100
AcDbIdBuffer
330
7C1
330
7C2
330
7C3
330
7D9
330
7DA
330
7DC
330
801
330
81F
  0
IDBUFFER
  5
8FE
330
0
100
AcDbIdBuffer
330
7BB
330
7C4
330
7C5
330
7C6
330
7C7
330
7C8
330
7C9
330
7CA
330
7D1
330
7D2
330
7D3
330
7D4
330
7D5
330
7D6
330
7D7
330
7D8
330
815
330
816
330
817
330
818
  0
IDBUFFER
  5
8FF
330
0
100
AcDbIdBuffer
  0
ENDSEC
  0
EOF
