  0
SECTION
  2
HEADER
  9
$ACADVER
  1
AC1009
  9
$INSBASE
 10
0.0
 20
0.0
 30
0.0
  9
$EXTMIN
 10
61.965638175566831
 20
90.175781983621164
 30
-0.0015258207003583
  9
$EXTMAX
 10
331.40571677638889
 20
226.46118221858191
 30
0.0000000349246037
  9
$LIMMIN
 10
0.0
 20
0.0
  9
$LIMMAX
 10
385.0
 20
270.0
  9
$ORTHOMODE
 70
     1
  9
$REGENMODE
 70
     1
  9
$FILLMODE
 70
     1
  9
$QTEXTMODE
 70
     0
  9
$MIRRTEXT
 70
     0
  9
$DRAGMODE
 70
     2
  9
$LTSCALE
 40
10.0
  9
$OSMODE
 70
   231
  9
$ATTMODE
 70
     1
  9
$TEXTSIZE
 40
4.0
  9
$TRACEWID
 40
0.05
  9
$TEXTSTYLE
  7
STANDARD
  9
$CLAYER
  8
0
  9
$CELTYPE
  6
BYLAYER
  9
$CECOLOR
 62
   256
  9
$DIMSCALE
 40
1.0
  9
$DIMASZ
 40
3.0
  9
$DIMEXO
 40
1.0
  9
$DIMDLI
 40
6.0
  9
$DIMRND
 40
0.0
  9
$DIMDLE
 40
0.0
  9
$DIMEXE
 40
1.0
  9
$DIMTP
 40
495.0
  9
$DIMTM
 40
0.0
  9
$DIMTXT
 40
3.0
  9
$DIMCEN
 40
0.0
  9
$DIMTSZ
 40
0.0
  9
$DIMTOL
 70
     0
  9
$DIMLIM
 70
     0
  9
$DIMTIH
 70
     0
  9
$DIMTOH
 70
     0
  9
$DIMSE1
 70
     0
  9
$DIMSE2
 70
     0
  9
$DIMTAD
 70
     1
  9
$DIMZIN
 70
     0
  9
$DIMBLK
  1

  9
$DIMASO
 70
     1
  9
$DIMSHO
 70
     0
  9
$DIMPOST
  1

  9
$DIMAPOST
  1

  9
$DIMALT
 70
     0
  9
$DIMALTD
 70
     2
  9
$DIMALTF
 40
25.399999999999999
  9
$DIMLFAC
 40
1.0
  9
$DIMTOFL
 70
     1
  9
$DIMTVP
 40
0.0
  9
$DIMTIX
 70
     1
  9
$DIMSOXD
 70
     0
  9
$DIMSAH
 70
     0
  9
$DIMBLK1
  1

  9
$DIMBLK2
  1

  9
$DIMSTYLE
  2
STANDARD
  9
$DIMCLRD
 70
     0
  9
$DIMCLRE
 70
     0
  9
$DIMCLRT
 70
     4
  9
$DIMTFAC
 40
1.0
  9
$DIMGAP
 40
1.0
  9
$LUNITS
 70
     2
  9
$LUPREC
 70
     4
  9
$SKETCHINC
 40
0.1
  9
$FILLETRAD
 40
0.0
  9
$AUNITS
 70
     0
  9
$AUPREC
 70
     0
  9
$MENU
  1
E:\r13\win\SUPPORT\ACAD
  9
$ELEVATION
 40
0.0
  9
$PELEVATION
 40
0.0
  9
$THICKNESS
 40
0.0
  9
$LIMCHECK
 70
     0
  9
$BLIPMODE
 70
     1
  9
$CHAMFERA
 40
0.0
  9
$CHAMFERB
 40
0.0
  9
$SKPOLY
 70
     0
  9
$TDCREATE
 40
2450541.3939600689
  9
$TDUPDATE
 40
2453236.8373138998
  9
$TDINDWG
 40
0.0227408796
  9
$TDUSRTIMER
 40
0.0227408796
  9
$USRTIMER
 70
     1
  9
$ANGBASE
 50
0.0
  9
$ANGDIR
 70
     0
  9
$PDMODE
 70
     0
  9
$PDSIZE
 40
0.0
  9
$PLINEWID
 40
0.0
  9
$COORDS
 70
     0
  9
$SPLFRAME
 70
     0
  9
$SPLINETYPE
 70
     6
  9
$SPLINESEGS
 70
     8
  9
$ATTDIA
 70
     0
  9
$ATTREQ
 70
     1
  9
$HANDLING
 70
-16383
  9
$HANDSEED
  5
CFB
  9
$SURFTAB1
 70
     6
  9
$SURFTAB2
 70
     6
  9
$SURFTYPE
 70
     6
  9
$SURFU
 70
     6
  9
$SURFV
 70
     6
  9
$UCSNAME
  2

  9
$UCSORG
 10
0.0
 20
0.0
 30
0.0
  9
$UCSXDIR
 10
1.0
 20
0.0
 30
0.0
  9
$UCSYDIR
 10
0.0
 20
1.0
 30
0.0
  9
$PUCSNAME
  2

  9
$PUCSORG
 10
0.0
 20
0.0
 30
0.0
  9
$PUCSXDIR
 10
1.0
 20
0.0
 30
0.0
  9
$PUCSYDIR
 10
0.0
 20
1.0
 30
0.0
  9
$USERI1
 70
     3
  9
$USERI2
 70
     1
  9
$USERI3
 70
     1
  9
$USERI4
 70
     0
  9
$USERI5
 70
     0
  9
$USERR1
 40
1.0
  9
$USERR2
 40
3.0
  9
$USERR3
 40
3.0
  9
$USERR4
 40
3.0
  9
$USERR5
 40
10.0
  9
$WORLDVIEW
 70
     1
  9
$SHADEDGE
 70
     3
  9
$SHADEDIF
 70
    70
  9
$TILEMODE
 70
     1
  9
$MAXACTVP
 70
    16
  9
$PLIMCHECK
 70
     0
  9
$PEXTMIN
 10
1.0000000000000000E+020
 20
1.0000000000000000E+020
 30
1.0000000000000000E+020
  9
$PEXTMAX
 10
-1.0000000000000000E+020
 20
-1.0000000000000000E+020
 30
-1.0000000000000000E+020
  9
$PLIMMIN
 10
0.0
 20
0.0
  9
$PLIMMAX
 10
12.0
 20
9.0
  9
$UNITMODE
 70
     0
  9
$VISRETAIN
 70
     0
  9
$PLINEGEN
 70
     0
  9
$PSLTSCALE
 70
     0
  0
ENDSEC
  0
SECTION
  2
TABLES
  0
TABLE
  2
VPORT
 70
     3
  0
VPORT
  2
*ACTIVE
 70
     0
 10
0.0
 20
0.0
 11
1.0
 21
1.0
 12
196.68567747597791
 22
158.31848210110149
 13
0.0
 23
0.0
 14
5.0
 24
5.0
 15
10.0
 25
10.0
 16
0.0
 26
0.0
 36
1.0
 17
0.0
 27
0.0
 37
0.0
 40
320.91703705548491
 41
0.9407114624505927
 42
50.0
 43
0.0
 44
0.0
 50
0.0
 51
0.0
 71
     0
 72
   100
 73
     1
 74
     0
 75
     0
 76
     0
 77
     0
 78
     0
  0
ENDTAB
  0
TABLE
  2
LTYPE
 70
     3
  0
LTYPE
  2
CONTINUOUS
 70
     0
  3
Solid Line
 72
    65
 73
     0
 40
0.0
  0
LTYPE
  2
CENTER
 70
     0
  3
____ _ ____ _ ____ _ ____ _ ____ _ ____ _ ____
 72
    65
 73
     4
 40
2.0
 49
1.25
 49
-0.25
 49
0.25
 49
-0.25
  0
LTYPE
  2
HIDDEN
 70
     0
  3
_ _ _ _ _ _ _ _ _ _ _ _ _ _ _ _ _ _ _ _ _ _ _
 72
    65
 73
     2
 40
0.375
 49
0.25
 49
-0.125
  0
ENDTAB
  0
TABLE
  2
LAYER
 70
     1
  0
LAYER
  2
0
 70
     0
 62
     7
  6
CONTINUOUS
  0
ENDTAB
  0
TABLE
  2
STYLE
 70
     1
  0
STYLE
  2
STANDARD
 70
     0
 40
0.0
 41
1.0
 50
0.0
 71
     0
 42
4.0
  3
SIMPLEX
  4
BIGFONT
  0
ENDTAB
  0
TABLE
  2
VIEW
 70
     0
  0
ENDTAB
  0
TABLE
  2
UCS
 70
     0
  0
ENDTAB
  0
TABLE
  2
APPID
 70
    10
  0
APPID
  2
ACAD
 70
     0
  0
APPID
  2
ASM_BASE
 70
     0
  0
APPID
  2
ASM_EXPLO_VER_2_00
 70
     0
  0
APPID
  2
ASM_CADM_VER_12_00
 70
     0
  0
APPID
  2
ASM_BASEFORO
 70
     0
  0
APPID
  2
ASM_BASETRAVI
 70
     0
  0
APPID
  2
ASM_BASETRAVI1
 70
     0
  0
APPID
  2
ASM_GRUPPI
 70
     0
  0
APPID
  2
ASM_CADM_ALBERO
 70
     0
  0
APPID
  2
ASM_GOLE
 70
     0
  0
ENDTAB
  0
TABLE
  2
DIMSTYLE
 70
     1
  0
DIMSTYLE
  2
STANDARD
 70
     0
  3

  4

  5

  6

  7

 40
1.0
 41
0.18
 42
0.0625
 43
0.38
 44
0.18
 45
0.0
 46
0.0
 47
0.0
 48
0.0
140
0.18
141
0.09
142
0.0
143
25.399999999999999
144
1.0
145
0.0
146
1.0
147
0.09
 71
     0
 72
     0
 73
     1
 74
     1
 75
     0
 76
     0
 77
     0
 78
     0
170
     0
171
     2
172
     0
173
     0
174
     0
175
     0
176
     0
177
     0
178
     0
  0
ENDTAB
  0
ENDSEC
  0
SECTION
  2
BLOCKS
  0
BLOCK
  8
0
  2
$MODEL_SPACE
 70
     0
 10
0.0
 20
0.0
 30
0.0
  3
$MODEL_SPACE
  1

  0
ENDBLK
  5
CAA
  8
0
  0
BLOCK
 67
     1
  8
0
  2
$PAPER_SPACE
 70
     0
 10
0.0
 20
0.0
 30
0.0
  3
$PAPER_SPACE
  1

  0
ENDBLK
  5
CA8
 67
     1
  8
0
  0
BLOCK
  8
0
  2
STDGX5
 70
     0
 10
0.0
 20
0.0
 30
0.0
  3
STDGX5
  1

  0
ENDBLK
  5
4F
  8
0
  0
ENDSEC
  0
SECTION
  2
ENTITIES
  0
INSERT
  5
DE
  8
0
  6
CONTINUOUS
 62
     7
  2
STDGX5
 10
0.0
 20
0.0
 30
0.0
  0
INSERT
  5
DF
  8
0
  6
CONTINUOUS
 62
     7
  2
STDGX5
 10
0.0
 20
0.0
 30
0.0
  0
INSERT
  5
15C
  8
0
  6
CONTINUOUS
 62
     7
  2
STDGX5
 10
275.0
 20
0.0
 30
0.0
  0
INSERT
  5
15D
  8
0
  6
CONTINUOUS
 62
     7
  2
STDGX5
 10
275.0
 20
0.0
 30
0.0
  0
INSERT
  5
42F
  8
0
  6
CONTINUOUS
 62
     7
  2
STDGX5
 10
30.608621050749768
 20
53.173469491929943
 30
0.0
  0
INSERT
  5
430
  8
0
  6
CONTINUOUS
 62
     7
  2
STDGX5
 10
30.608621050749768
 20
53.173469491929943
 30
0.0
  0
INSERT
  5
431
  8
0
  6
CONTINUOUS
 62
     7
  2
STDGX5
 10
305.60862105074972
 20
53.173469491929943
 30
0.0
  0
INSERT
  5
432
  8
0
  6
CONTINUOUS
 62
     7
  2
STDGX5
 10
305.60862105074972
 20
53.173469491929943
 30
0.0
  0
INSERT
  5
520
  8
0
  6
CONTINUOUS
 62
     7
  2
STDGX5
 10
45.499302106388193
 20
44.35714295772538
 30
0.0
  0
INSERT
  5
521
  8
0
  6
CONTINUOUS
 62
     7
  2
STDGX5
 10
45.499302106388193
 20
44.35714295772538
 30
0.0
  0
INSERT
  5
522
  8
0
  6
CONTINUOUS
 62
     7
  2
STDGX5
 10
320.4993021063882
 20
44.35714295772538
 30
0.0
  0
INSERT
  5
523
  8
0
  6
CONTINUOUS
 62
     7
  2
STDGX5
 10
320.4993021063882
 20
44.35714295772538
 30
0.0
  0
INSERT
  5
663
  8
0
  6
CONTINUOUS
 62
     7
  2
STDGX5
 10
65.905050506637735
 20
54.82653020632096
 30
0.0
  0
INSERT
  5
664
  8
0
  6
CONTINUOUS
 62
     7
  2
STDGX5
 10
65.905050506637735
 20
54.82653020632096
 30
0.0
  0
INSERT
  5
665
  8
0
  6
CONTINUOUS
 62
     7
  2
STDGX5
 10
340.90505050663768
 20
54.82653020632096
 30
0.0
  0
INSERT
  5
666
  8
0
  6
CONTINUOUS
 62
     7
  2
STDGX5
 10
340.90505050663768
 20
54.82653020632096
 30
0.0
  0
INSERT
  5
835
  8
0
  6
CONTINUOUS
 62
     7
  2
STDGX5
 10
68.111077001732497
 20
42.153061167013561
 30
0.0
  0
INSERT
  5
836
  8
0
  6
CONTINUOUS
 62
     7
  2
STDGX5
 10
68.111077001732497
 20
42.153061167013561
 30
0.0
  0
INSERT
  5
837
  8
0
  6
CONTINUOUS
 62
     7
  2
STDGX5
 10
343.11107700173238
 20
42.153061167013561
 30
0.0
  0
INSERT
  5
838
  8
0
  6
CONTINUOUS
 62
     7
  2
STDGX5
 10
343.11107700173238
 20
42.153061167013561
 30
0.0
  0
INSERT
  5
A24
  8
0
  6
CONTINUOUS
 62
     7
  2
STDGX5
 10
83.001758057370921
 20
42.704081614691511
 30
0.0
  0
INSERT
  5
A25
  8
0
  6
CONTINUOUS
 62
     7
  2
STDGX5
 10
83.001758057370921
 20
42.704081614691511
 30
0.0
  0
INSERT
  5
A26
  8
0
  6
CONTINUOUS
 62
     7
  2
STDGX5
 10
358.00175805737092
 20
42.704081614691511
 30
0.0
  0
INSERT
  5
A27
  8
0
  6
CONTINUOUS
 62
     7
  2
STDGX5
 10
358.00175805737092
 20
42.704081614691511
 30
0.0
  0
LINE
  5
B03
  8
0
  6
CONTINUOUS
 62
     7
 10
153.83431130468151
 20
207.45680198964089
 30
0.0
 11
301.95816236603821
 21
207.45680198964089
 31
0.0
  0
LINE
  5
B04
  8
0
  6
CONTINUOUS
 62
     7
 10
151.39623874270839
 20
194.20680198964089
 30
0.0
 11
304.39623874270848
 21
194.20680198964089
 31
0.0
  0
LINE
  5
B05
  8
0
  6
CONTINUOUS
 62
     7
 10
151.39623874270839
 20
220.70680198964081
 30
0.0
 11
304.39623874270848
 21
220.70680198964081
 31
0.0
  0
LINE
  5
B06
  8
0
  6
CENTER
 62
     1
 10
124.3962387427085
 20
207.45680198964089
 30
0.0
 11
331.39623874270859
 21
207.45680198964089
 31
0.0
  0
CIRCLE
  5
B07
  8
0
  6
CONTINUOUS
 62
     7
 10
138.3962387427085
 20
207.45680198964089
 30
0.0
 40
6.0
  0
CIRCLE
  5
B08
  8
0
  6
CONTINUOUS
 62
     7
 10
138.3962387427085
 20
207.45680198964089
 30
0.0
 40
3.25
  0
LINE
  5
B09
  8
0
  6
CONTINUOUS
 62
     7
 10
132.27876505305451
 20
199.45680198964089
 30
0.0
 11
141.89623874270859
 21
199.45680198964089
 31
0.0
  0
LINE
  5
B0A
  8
0
  6
CONTINUOUS
 62
     7
 10
132.2787650530544
 20
215.45680198964081
 30
0.0
 11
141.89623874270859
 21
215.45680198964081
 31
0.0
  0
LINE
  5
B0B
  8
0
  6
CONTINUOUS
 62
     7
 10
134.6384954609089
 20
193.3993277977504
 30
0.0
 11
151.39623874270839
 21
194.20680198964089
 31
0.0
  0
LINE
  5
B0C
  8
0
  6
CONTINUOUS
 62
     7
 10
134.6384954609089
 20
221.51427618153139
 30
0.0
 11
151.39623874270839
 21
220.70680198964081
 31
0.0
  0
LINE
  5
B0D
  8
0
  6
CONTINUOUS
 62
     7
 10
133.39194572000531
 20
193.20680198964089
 30
0.0
 11
151.3962387427085
 21
193.20680198964089
 31
0.0
  0
LINE
  5
B0E
  8
0
  6
CONTINUOUS
 62
     7
 10
133.39194737181759
 20
221.70680198964081
 30
0.0
 11
151.3962387427085
 21
221.70680198964081
 31
0.0
  0
ARC
  5
B0F
  8
0
  6
CONTINUOUS
 62
     7
 10
132.27876505305451
 20
197.45680198964089
 30
0.0
 40
2.0
 50
90.0
 51
185.00000000000011
  0
LINE
  5
B10
  8
0
  6
CONTINUOUS
 62
     7
 10
129.3962387427087
 20
207.45680198964089
 30
0.0
 11
130.40336162573001
 21
195.9453347613979
 31
0.0
  0
ARC
  5
B11
  8
0
  6
CONTINUOUS
 62
     7
 10
133.39194572000531
 20
196.20680198964081
 30
0.0
 40
3.0
 50
185.00000000000011
 51
269.99999999999989
  0
ARC
  5
B12
  8
0
  6
CONTINUOUS
 62
     7
 10
133.3919457200052
 20
218.70680198964081
 30
0.0
 40
3.0
 50
90.0
 51
175.00000000000011
  0
LINE
  5
B13
  8
0
  6
CONTINUOUS
 62
     7
 10
129.3962387427085
 20
207.45680198964089
 30
0.0
 11
130.40336185992911
 21
218.96827189479239
 31
0.0
  0
LINE
  5
B14
  8
0
  6
CENTER
 62
     1
 10
138.3962387427085
 20
216.70680198964081
 30
0.0
 11
138.3962387427085
 21
198.20680198964081
 31
0.0
  0
ARC
  5
B15
  8
0
  6
CONTINUOUS
 62
     7
 10
132.2787650530544
 20
217.45680198964081
 30
0.0
 40
2.0
 50
175.0
 51
269.99999999999989
  0
LINE
  5
B16
  8
0
  6
CONTINUOUS
 62
     7
 10
151.3962387427085
 20
193.20680198964089
 30
0.0
 11
151.3962387427085
 21
194.20680198964089
 31
0.0
  0
LINE
  5
B17
  8
0
  6
CONTINUOUS
 62
     7
 10
146.39623874270859
 20
203.95680198964089
 30
0.0
 11
146.3962387427085
 21
210.95680198964081
 31
0.0
  0
ARC
  5
B18
  8
0
  6
CONTINUOUS
 62
     7
 10
141.89623874270859
 20
203.95680198964089
 30
0.0
 40
4.5
 50
270.0
 51
0.0000000000000636
  0
ARC
  5
B19
  8
0
  6
CONTINUOUS
 62
     7
 10
141.89623874270859
 20
210.95680198964081
 30
0.0
 40
4.5
 50
0.0000000000000509
 51
90.0
  0
LINE
  5
B1A
  8
0
  6
CONTINUOUS
 62
     7
 10
151.39623874270839
 20
220.70680198964081
 30
0.0
 11
151.39623874270839
 21
221.70680198964081
 31
0.0
  0
LINE
  5
B1B
  8
0
  6
CENTER
 62
     1
 10
227.8962387427085
 20
226.45680198964089
 30
0.0
 11
227.8962387427085
 21
188.45680198964081
 31
0.0
  0
LINE
  5
B1C
  8
0
  6
CONTINUOUS
 62
     7
 10
326.39623874270842
 20
207.45680198964089
 30
0.0
 11
325.38911585968708
 21
195.9453347613979
 31
0.0
  0
ARC
  5
B1D
  8
0
  6
CONTINUOUS
 62
     7
 10
323.51371243236252
 20
197.45680198964089
 30
0.0
 40
2.0
 50
354.99999999999977
 51
90.000000000000028
  0
LINE
  5
B1E
  8
0
  6
CONTINUOUS
 62
     7
 10
322.40053176541181
 20
193.20680198964089
 30
0.0
 11
304.39623874270848
 21
193.20680198964089
 31
0.0
  0
LINE
  5
B1F
  8
0
  6
CONTINUOUS
 62
     7
 10
321.1539820245082
 20
193.3993277977504
 30
0.0
 11
304.39623874270859
 21
194.20680198964089
 31
0.0
  0
LINE
  5
B20
  8
0
  6
CONTINUOUS
 62
     7
 10
304.39623874270848
 20
193.20680198964089
 30
0.0
 11
304.39623874270848
 21
194.20680198964089
 31
0.0
  0
ARC
  5
B21
  8
0
  6
CONTINUOUS
 62
     7
 10
322.40053176541181
 20
196.20680198964081
 30
0.0
 40
3.0
 50
270.00000000000011
 51
354.99999999999977
  0
ARC
  5
B22
  8
0
  6
CONTINUOUS
 62
     7
 10
322.40053176541181
 20
218.70680198964081
 30
0.0
 40
3.0
 50
4.999999999999841
 51
90.000000000000028
  0
CIRCLE
  5
B23
  8
0
  6
CONTINUOUS
 62
     7
 10
317.39623874270848
 20
207.45680198964089
 30
0.0
 40
6.0
  0
LINE
  5
B24
  8
0
  6
CONTINUOUS
 62
     7
 10
322.40053011359942
 20
221.70680198964081
 30
0.0
 11
304.39623874270848
 21
221.70680198964081
 31
0.0
  0
LINE
  5
B25
  8
0
  6
CONTINUOUS
 62
     7
 10
321.1539820245082
 20
221.51427618153139
 30
0.0
 11
304.39623874270859
 21
220.70680198964081
 31
0.0
  0
LINE
  5
B26
  8
0
  6
CONTINUOUS
 62
     7
 10
323.51371243236252
 20
215.45680198964081
 30
0.0
 11
313.89623874270842
 21
215.45680198964081
 31
0.0
  0
LINE
  5
B27
  8
0
  6
CONTINUOUS
 62
     7
 10
323.51371243236252
 20
199.45680198964089
 30
0.0
 11
313.89623874270842
 21
199.45680198964089
 31
0.0
  0
CIRCLE
  5
B28
  8
0
  6
CONTINUOUS
 62
     7
 10
317.39623874270848
 20
207.45680198964089
 30
0.0
 40
3.25
  0
LINE
  5
B29
  8
0
  6
CENTER
 62
     1
 10
317.39623874270859
 20
216.70680198964081
 30
0.0
 11
317.39623874270859
 21
198.20680198964081
 31
0.0
  0
LINE
  5
B2A
  8
0
  6
CONTINUOUS
 62
     7
 10
309.39623874270842
 20
203.95680198964089
 30
0.0
 11
309.39623874270842
 21
210.95680198964081
 31
0.0
  0
ARC
  5
B2B
  8
0
  6
CONTINUOUS
 62
     7
 10
313.89623874270842
 20
203.95680198964089
 30
0.0
 40
4.5
 50
179.99999999999989
 51
270.0
  0
ARC
  5
B2C
  8
0
  6
CONTINUOUS
 62
     7
 10
313.89623874270842
 20
210.95680198964081
 30
0.0
 40
4.5
 50
90.000000000000028
 51
179.99999999999989
  0
LINE
  5
B2D
  8
0
  6
CONTINUOUS
 62
     7
 10
304.39623874270859
 20
220.70680198964081
 30
0.0
 11
304.39623874270859
 21
221.70680198964081
 31
0.0
  0
LINE
  5
B2E
  8
0
  6
CONTINUOUS
 62
     7
 10
326.39623874270859
 20
207.45680198964089
 30
0.0
 11
325.38911562548782
 21
218.96827189479239
 31
0.0
  0
ARC
  5
B2F
  8
0
  6
CONTINUOUS
 62
     7
 10
323.51371243236252
 20
217.45680198964081
 30
0.0
 40
2.0
 50
270.00000000000011
 51
4.9999999999999432
  0
LINE
  5
B30
  8
0
  6
CONTINUOUS
 62
     7
 10
155.8962387427085
 20
138.47583711895709
 30
0.0
 11
299.89623604531022
 21
138.47583711895709
 31
0.0
  0
LINE
  5
B31
  8
0
  6
CONTINUOUS
 62
     7
 10
301.95816236603821
 20
145.17583711895711
 30
0.0
 11
153.83431130468151
 21
145.17583711895711
 31
0.0
  0
LINE
  5
B32
  8
0
  6
CONTINUOUS
 62
     7
 10
155.8962387427085
 20
137.17583711895699
 30
0.0
 11
299.89623874270848
 21
137.17583711895699
 31
0.0
  0
LINE
  5
B33
  8
0
  6
CENTER
 62
     1
 10
75.979057217869013
 20
90.175837118957006
 30
0.0
 11
75.979057217868899
 21
150.1949363066737
 31
0.0
  0
LINE
  5
B34
  8
0
  6
CONTINUOUS
 62
     7
 10
88.976211696013635
 20
141.3329707664991
 30
0.0
 11
89.979057217869013
 21
95.175837118957006
 31
0.0
  0
LINE
  5
B35
  8
0
  6
CONTINUOUS
 62
     7
 10
62.981902739724148
 20
141.3329707664991
 30
0.0
 11
61.979057217868949
 21
95.175837118957006
 31
0.0
  0
ARC
  5
B36
  8
0
  6
HIDDEN
 62
     2
 10
65.981194911377031
 20
141.08386840877981
 30
0.0
 40
3.0
 50
181.24465651852489
 51
264.99999999999977
  0
ARC
  5
B37
  8
0
  6
HIDDEN
 62
     2
 10
85.976919524360767
 20
141.08386840877969
 30
0.0
 40
3.0
 50
274.99999999999972
 51
358.75534348147482
  0
ARC
  5
B38
  8
0
  6
HIDDEN
 62
     2
 10
150.8962387427085
 20
139.82532414663939
 30
0.0
 40
4.5
 50
122.2893355174606
 51
180.0
  0
ARC
  5
B39
  8
0
  6
CONTINUOUS
 62
     7
 10
153.83431130468151
 20
135.17583711895711
 30
0.0
 40
10.0
 50
90.0
 51
150.59999999999991
  0
LINE
  5
B3A
  8
0
  6
HIDDEN
 62
     2
 10
69.979057217869013
 20
111.87583711895699
 30
0.0
 11
81.979057217868998
 21
111.87583711895699
 31
0.0
  0
LINE
  5
B3B
  8
0
  6
HIDDEN
 62
     2
 10
81.979057217868998
 20
111.87583711895699
 30
0.0
 11
79.229057217869013
 21
109.12583711895699
 31
0.0
  0
LINE
  5
B3C
  8
0
  6
CONTINUOUS
 62
     7
 10
89.979057217869013
 20
95.175837118957006
 30
0.0
 11
61.979057217868949
 21
95.175837118957006
 31
0.0
  0
LINE
  5
B3D
  8
0
  6
HIDDEN
 62
     2
 10
75.979057217868899
 20
137.17583711895699
 30
0.0
 11
86.238386752603731
 21
138.09528431450451
 31
0.0
  0
LINE
  5
B3E
  8
0
  6
CONTINUOUS
 62
     7
 10
83.979057217868956
 20
112.17583711895701
 30
0.0
 11
67.979057217868956
 21
112.17583711895701
 31
0.0
  0
LINE
  5
B3F
  8
0
  6
CONTINUOUS
 62
     7
 10
67.979057217868885
 20
112.17583711895701
 30
0.0
 11
67.979057217868885
 21
134.3597652212155
 31
0.0
  0
LINE
  5
B40
  8
0
  6
HIDDEN
 62
     2
 10
72.729057217869013
 20
95.175837118957006
 30
0.0
 11
72.729057217869013
 21
109.12583711895699
 31
0.0
  0
LINE
  5
B41
  8
0
  6
HIDDEN
 62
     2
 10
79.229057217869013
 20
95.175837118957006
 30
0.0
 11
79.229057217869013
 21
109.12583711895699
 31
0.0
  0
LINE
  5
B42
  8
0
  6
CONTINUOUS
 62
     7
 10
75.979057217868956
 20
112.17583711895701
 30
0.0
 11
75.979057217869013
 21
95.175837118957006
 31
0.0
  0
LINE
  5
B43
  8
0
  6
HIDDEN
 62
     2
 10
69.979057217869013
 20
111.87583711895699
 30
0.0
 11
72.729057217869013
 21
109.12583711895699
 31
0.0
  0
LINE
  5
B44
  8
0
  6
HIDDEN
 62
     2
 10
72.729057217869013
 20
109.12583711895699
 30
0.0
 11
75.979057217869013
 21
109.12583711895699
 31
0.0
  0
LINE
  5
B45
  8
0
  6
HIDDEN
 62
     2
 10
79.229057217869013
 20
109.12583711895699
 30
0.0
 11
75.979057217869013
 21
109.12583711895699
 31
0.0
  0
LINE
  5
B46
  8
0
  6
HIDDEN
 62
     2
 10
69.979057217869013
 20
111.87583711895699
 30
0.0
 11
69.979057217869013
 21
112.17583711895701
 31
0.0
  0
LINE
  5
B47
  8
0
  6
HIDDEN
 62
     2
 10
75.979057217868899
 20
137.17583711895699
 30
0.0
 11
65.719727683134067
 21
138.09528431450451
 31
0.0
  0
ARC
  5
B48
  8
0
  6
CONTINUOUS
 62
     7
 10
73.561185026916633
 20
134.7136990842688
 30
0.0
 40
5.5234347946095719
 50
140.53410031430221
 51
161.1687005855859
  0
ARC
  5
B49
  8
0
  6
CONTINUOUS
 62
     7
 10
74.599005803309865
 20
134.35976331386681
 30
0.0
 40
6.6199485854409712
 50
161.16870058558601
 51
180.0
  0
ARC
  5
B4A
  8
0
  6
CONTINUOUS
 62
     7
 10
72.479057217868842
 20
136.0957133407006
 30
0.0
 40
3.729610805938818
 50
89.999999999999119
 51
116.70655615157681
  0
ARC
  5
B4B
  8
0
  6
CONTINUOUS
 62
     7
 10
72.900792649093773
 20
135.2574247495991
 30
0.0
 40
4.6680075961727452
 50
116.7065561515772
 51
140.53410031430241
  0
LINE
  5
B4C
  8
0
  6
CENTER
 62
     1
 10
138.3962387427085
 20
90.175837118957006
 30
0.0
 11
138.3962387427085
 21
131.8850385154177
 31
0.0
  0
LINE
  5
B4D
  8
0
  6
HIDDEN
 62
     2
 10
146.3962387427085
 20
112.17583711895701
 30
0.0
 11
129.3962387427085
 21
112.17583711895701
 31
0.0
  0
LINE
  5
B4E
  8
0
  6
CONTINUOUS
 62
     7
 10
145.1221731934796
 20
140.08487465510851
 30
0.0
 11
129.3962387427085
 21
112.17583711895701
 31
0.0
  0
LINE
  5
B4F
  8
0
  6
CONTINUOUS
 62
     7
 10
129.3962387427085
 20
95.175837118957006
 30
0.0
 11
151.3962387427085
 21
95.175837118957006
 31
0.0
  0
LINE
  5
B50
  8
0
  6
CONTINUOUS
 62
     7
 10
83.979057217868956
 20
112.17583711895701
 30
0.0
 11
83.979057217868885
 21
134.35976331386681
 31
0.0
  0
LINE
  5
B51
  8
0
  6
HIDDEN
 62
     2
 10
81.979057217868998
 20
112.17583711895691
 30
0.0
 11
81.979057217868998
 21
111.87583711895699
 31
0.0
  0
LINE
  5
B52
  8
0
  6
HIDDEN
 62
     2
 10
135.1462387427085
 20
95.175837118957006
 30
0.0
 11
135.1462387427085
 21
109.12583711895699
 31
0.0
  0
LINE
  5
B53
  8
0
  6
HIDDEN
 62
     2
 10
141.6462387427085
 20
95.175837118957006
 30
0.0
 11
141.6462387427085
 21
109.12583711895699
 31
0.0
  0
LINE
  5
B54
  8
0
  6
CONTINUOUS
 62
     7
 10
129.3962387427085
 20
112.17583711895701
 30
0.0
 11
129.3962387427085
 21
95.175837118957006
 31
0.0
  0
LINE
  5
B55
  8
0
  6
HIDDEN
 62
     2
 10
132.3962387427085
 20
111.87583711895699
 30
0.0
 11
135.1462387427085
 21
109.12583711895699
 31
0.0
  0
LINE
  5
B56
  8
0
  6
HIDDEN
 62
     2
 10
132.3962387427085
 20
111.87583711895699
 30
0.0
 11
144.3962387427085
 21
111.87583711895699
 31
0.0
  0
LINE
  5
B57
  8
0
  6
HIDDEN
 62
     2
 10
132.3962387427085
 20
111.87583711895699
 30
0.0
 11
132.3962387427085
 21
112.17583711895701
 31
0.0
  0
LINE
  5
B58
  8
0
  6
HIDDEN
 62
     2
 10
144.3962387427085
 20
111.87583711895699
 30
0.0
 11
141.6462387427085
 21
109.12583711895699
 31
0.0
  0
LINE
  5
B59
  8
0
  6
HIDDEN
 62
     2
 10
141.6462387427085
 20
109.12583711895699
 30
0.0
 11
138.3962387427085
 21
109.12583711895699
 31
0.0
  0
LINE
  5
B5A
  8
0
  6
HIDDEN
 62
     2
 10
135.1462387427085
 20
109.12583711895699
 30
0.0
 11
138.3962387427085
 21
109.12583711895699
 31
0.0
  0
LINE
  5
B5B
  8
0
  6
HIDDEN
 62
     2
 10
144.3962387427085
 20
112.17583711895691
 30
0.0
 11
144.3962387427085
 21
111.87583711895699
 31
0.0
  0
ARC
  5
B5C
  8
0
  6
CONTINUOUS
 62
     7
 10
77.359108632427933
 20
134.35976331386681
 30
0.0
 40
6.6199485854409712
 50
0.0
 51
18.831299414413898
  0
ARC
  5
B5D
  8
0
  6
CONTINUOUS
 62
     7
 10
79.479057217868956
 20
136.0957133407006
 30
0.0
 40
3.729610805938818
 50
63.293443848423138
 51
90.000000000000881
  0
ARC
  5
B5E
  8
0
  6
CONTINUOUS
 62
     7
 10
79.057321786644025
 20
135.2574247495991
 30
0.0
 40
4.6680075961727452
 50
39.465899685697572
 51
63.293443848422761
  0
ARC
  5
B5F
  8
0
  6
CONTINUOUS
 62
     7
 10
78.396929408821165
 20
134.7136990842688
 30
0.0
 40
5.5234347946095719
 50
18.831299414414069
 51
39.465899685697693
  0
LINE
  5
B60
  8
0
  6
HIDDEN
 62
     2
 10
146.3962387427085
 20
112.17583711895701
 30
0.0
 11
146.3962387427085
 21
139.82532414663939
 31
0.0
  0
LINE
  5
B61
  8
0
  6
CONTINUOUS
 62
     7
 10
150.09623874270841
 20
95.175837118957006
 30
0.0
 11
150.09623874270841
 21
132.67583711895699
 31
0.0
  0
LINE
  5
B62
  8
0
  6
CONTINUOUS
 62
     7
 10
151.3962387427085
 20
95.175837118957006
 30
0.0
 11
151.3962387427085
 21
132.67583711895699
 31
0.0
  0
ARC
  5
B63
  8
0
  6
CONTINUOUS
 62
     7
 10
155.8962387427085
 20
132.67583711895699
 30
0.0
 40
5.7999999999999989
 50
90.0
 51
179.99999999999989
  0
ARC
  5
B64
  8
0
  6
CONTINUOUS
 62
     7
 10
155.8962387427085
 20
132.67583711895699
 30
0.0
 40
4.5
 50
90.0
 51
179.99999999999989
  0
LINE
  5
B65
  8
0
  6
CONTINUOUS
 62
     7
 10
75.979057217868899
 20
145.17583711895699
 30
0.0
 11
86.238386752603731
 21
144.25638992340961
 31
0.0
  0
LINE
  5
B66
  8
0
  6
CONTINUOUS
 62
     7
 10
75.979057217868899
 20
145.17583711895699
 30
0.0
 11
65.719727683134067
 21
144.2563899234095
 31
0.0
  0
ARC
  5
B67
  8
0
  6
CONTINUOUS
 62
     7
 10
65.981194911377031
 20
141.26780582913429
 30
0.0
 40
3.0
 50
95.000000000000185
 51
178.75534348147511
  0
LINE
  5
B68
  8
0
  6
HIDDEN
 62
     2
 10
62.981902739724148
 20
141.3329707664991
 30
0.0
 11
62.981902739724148
 21
141.01870347141499
 31
0.0
  0
ARC
  5
B69
  8
0
  6
CONTINUOUS
 62
     7
 10
85.976919524360767
 20
141.26780582913429
 30
0.0
 40
3.0
 50
1.2446565185252061
 51
85.000000000000256
  0
LINE
  5
B6A
  8
0
  6
HIDDEN
 62
     2
 10
88.976211696013635
 20
141.3329707664991
 30
0.0
 11
88.976211696013635
 21
141.01870347141499
 31
0.0
  0
ARC
  5
B6B
  8
0
  6
HIDDEN
 62
     2
 10
304.89623874270848
 20
139.82532414663939
 30
0.0
 40
4.5
 50
0.0
 51
57.710664482539372
  0
LINE
  5
B6C
  8
0
  6
CENTER
 62
     1
 10
227.8962387427085
 20
150.17583711895711
 30
0.0
 11
227.8962387427085
 21
132.17583711895699
 31
0.0
  0
ARC
  5
B6D
  8
0
  6
CONTINUOUS
 62
     7
 10
301.95816618073542
 20
135.17583711895711
 30
0.0
 40
10.0
 50
29.399999999999949
 51
90.0
  0
LINE
  5
B6E
  8
0
  6
CENTER
 62
     1
 10
317.39623874270848
 20
90.175837118957006
 30
0.0
 11
317.39623874270848
 21
131.8850385154177
 31
0.0
  0
LINE
  5
B6F
  8
0
  6
HIDDEN
 62
     2
 10
320.64623874270848
 20
109.12583711895699
 30
0.0
 11
317.39623874270848
 21
109.12583711895699
 31
0.0
  0
LINE
  5
B70
  8
0
  6
HIDDEN
 62
     2
 10
323.39623874270848
 20
111.87583711895699
 30
0.0
 11
311.39623874270848
 21
111.87583711895699
 31
0.0
  0
LINE
  5
B71
  8
0
  6
CONTINUOUS
 62
     7
 10
304.39623874270848
 20
95.175837118957006
 30
0.0
 11
326.39623874270848
 21
95.175837118957006
 31
0.0
  0
LINE
  5
B72
  8
0
  6
HIDDEN
 62
     2
 10
309.39623874270842
 20
112.17583711895701
 30
0.0
 11
326.39623874270848
 21
112.17583711895701
 31
0.0
  0
LINE
  5
B73
  8
0
  6
CONTINUOUS
 62
     7
 10
326.39623874270848
 20
112.17583711895701
 30
0.0
 11
310.67030429193738
 21
140.08487465510851
 31
0.0
  0
LINE
  5
B74
  8
0
  6
CONTINUOUS
 62
     7
 10
305.69623874270849
 20
95.175837118957006
 30
0.0
 11
305.69623874270849
 21
132.67583711895699
 31
0.0
  0
LINE
  5
B75
  8
0
  6
HIDDEN
 62
     2
 10
309.39623874270848
 20
112.17583711895701
 30
0.0
 11
309.39623874270842
 21
139.82532414663939
 31
0.0
  0
LINE
  5
B76
  8
0
  6
CONTINUOUS
 62
     7
 10
304.39623874270848
 20
132.67583711895699
 30
0.0
 11
304.39623874270848
 21
95.175837118957006
 31
0.0
  0
LINE
  5
B77
  8
0
  6
HIDDEN
 62
     2
 10
314.14623874270848
 20
95.175837118957006
 30
0.0
 11
314.14623874270848
 21
109.12583711895699
 31
0.0
  0
LINE
  5
B78
  8
0
  6
HIDDEN
 62
     2
 10
311.39623874270848
 20
111.87583711895699
 30
0.0
 11
314.14623874270848
 21
109.12583711895699
 31
0.0
  0
LINE
  5
B79
  8
0
  6
HIDDEN
 62
     2
 10
314.14623874270848
 20
109.12583711895699
 30
0.0
 11
317.39623874270848
 21
109.12583711895699
 31
0.0
  0
LINE
  5
B7A
  8
0
  6
HIDDEN
 62
     2
 10
311.39623874270848
 20
112.17583711895691
 30
0.0
 11
311.39623874270848
 21
111.87583711895699
 31
0.0
  0
ARC
  5
B7B
  8
0
  6
CONTINUOUS
 62
     7
 10
299.89623874270848
 20
132.67583711895699
 30
0.0
 40
5.7999999999999989
 50
0.0000000000000763
 51
90.000000000000028
  0
ARC
  5
B7C
  8
0
  6
CONTINUOUS
 62
     7
 10
299.89623874270848
 20
132.67583711895699
 30
0.0
 40
4.5
 50
0.0
 51
90.0
  0
LINE
  5
B7D
  8
0
  6
HIDDEN
 62
     2
 10
320.64623874270848
 20
95.175837118957006
 30
0.0
 11
320.64623874270848
 21
109.12583711895699
 31
0.0
  0
LINE
  5
B7E
  8
0
  6
CONTINUOUS
 62
     7
 10
326.39623874270848
 20
95.175837118957006
 30
0.0
 11
326.39623874270848
 21
112.17583711895711
 31
0.0
  0
LINE
  5
B7F
  8
0
  6
CONTINUOUS
 62
     7
 10
326.39623874270848
 20
95.175837118957006
 30
0.0
 11
321.64623874270848
 21
95.175837118957006
 31
0.0
  0
LINE
  5
B80
  8
0
  6
HIDDEN
 62
     2
 10
323.39623874270848
 20
111.87583711895699
 30
0.0
 11
320.64623874270848
 21
109.12583711895699
 31
0.0
  0
LINE
  5
B81
  8
0
  6
HIDDEN
 62
     2
 10
323.39623874270848
 20
111.87583711895699
 30
0.0
 11
323.39623874270848
 21
112.17583711895701
 31
0.0
  0
ENDSEC
  0
EOF
