  0
SECTION
  2
HEADER
  9
$ACADVER
  1
AC1009
  9
$INSBASE
 10
0.0
 20
0.0
 30
0.0
  9
$EXTMIN
 10
35.722733458646871
 20
74.911652327179453
 30
-0.0015258207003583
  9
$EXTMAX
 10
344.25544822501888
 20
209.01351984475451
 30
0.0000000349246037
  9
$LIMMIN
 10
0.0
 20
0.0
  9
$LIMMAX
 10
375.0
 20
270.0
  9
$ORTHOMODE
 70
     1
  9
$REGENMODE
 70
     1
  9
$FILLMODE
 70
     1
  9
$QTEXTMODE
 70
     0
  9
$MIRRTEXT
 70
     0
  9
$DRAGMODE
 70
     2
  9
$LTSCALE
 40
10.0
  9
$OSMODE
 70
   231
  9
$ATTMODE
 70
     1
  9
$TEXTSIZE
 40
0.2
  9
$TRACEWID
 40
0.05
  9
$TEXTSTYLE
  7
STANDARD
  9
$CLAYER
  8
0
  9
$CELTYPE
  6
BYLAYER
  9
$CECOLOR
 62
   256
  9
$DIMSCALE
 40
1.0
  9
$DIMASZ
 40
2.5
  9
$DIMEXO
 40
2.0
  9
$DIMDLI
 40
0.38
  9
$DIMRND
 40
0.0
  9
$DIMDLE
 40
0.0
  9
$DIMEXE
 40
2.0
  9
$DIMTP
 40
0.0
  9
$DIMTM
 40
0.0
  9
$DIMTXT
 40
3.0
  9
$DIMCEN
 40
0.09
  9
$DIMTSZ
 40
0.0
  9
$DIMTOL
 70
     0
  9
$DIMLIM
 70
     0
  9
$DIMTIH
 70
     0
  9
$DIMTOH
 70
     0
  9
$DIMSE1
 70
     0
  9
$DIMSE2
 70
     0
  9
$DIMTAD
 70
     1
  9
$DIMZIN
 70
     0
  9
$DIMBLK
  1

  9
$DIMASO
 70
     1
  9
$DIMSHO
 70
     0
  9
$DIMPOST
  1

  9
$DIMAPOST
  1

  9
$DIMALT
 70
     0
  9
$DIMALTD
 70
     2
  9
$DIMALTF
 40
25.399999999999999
  9
$DIMLFAC
 40
1.0
  9
$DIMTOFL
 70
     0
  9
$DIMTVP
 40
1.6000000000000001
  9
$DIMTIX
 70
     1
  9
$DIMSOXD
 70
     0
  9
$DIMSAH
 70
     0
  9
$DIMBLK1
  1

  9
$DIMBLK2
  1

  9
$DIMSTYLE
  2
STANDARD
  9
$DIMCLRD
 70
     0
  9
$DIMCLRE
 70
     0
  9
$DIMCLRT
 70
     0
  9
$DIMTFAC
 40
1.0
  9
$DIMGAP
 40
0.09
  9
$LUNITS
 70
     2
  9
$LUPREC
 70
     4
  9
$SKETCHINC
 40
0.1
  9
$FILLETRAD
 40
3.0
  9
$AUNITS
 70
     0
  9
$AUPREC
 70
     0
  9
$MENU
  1
E:\r13\win\SUPPORT\ACAD
  9
$ELEVATION
 40
0.0
  9
$PELEVATION
 40
0.0
  9
$THICKNESS
 40
0.0
  9
$LIMCHECK
 70
     0
  9
$BLIPMODE
 70
     1
  9
$CHAMFERA
 40
0.0
  9
$CHAMFERB
 40
0.0
  9
$SKPOLY
 70
     0
  9
$TDCREATE
 40
2447977.5439570602
  9
$TDUPDATE
 40
2453236.8372506131
  9
$TDINDWG
 40
0.0006769676
  9
$TDUSRTIMER
 40
0.0006769676
  9
$USRTIMER
 70
     1
  9
$ANGBASE
 50
0.0
  9
$ANGDIR
 70
     0
  9
$PDMODE
 70
     0
  9
$PDSIZE
 40
0.0
  9
$PLINEWID
 40
0.0
  9
$COORDS
 70
     0
  9
$SPLFRAME
 70
     0
  9
$SPLINETYPE
 70
     6
  9
$SPLINESEGS
 70
     8
  9
$ATTDIA
 70
     0
  9
$ATTREQ
 70
     1
  9
$HANDLING
 70
-16383
  9
$HANDSEED
  5
274
  9
$SURFTAB1
 70
     6
  9
$SURFTAB2
 70
     6
  9
$SURFTYPE
 70
     6
  9
$SURFU
 70
     6
  9
$SURFV
 70
     6
  9
$UCSNAME
  2

  9
$UCSORG
 10
0.0
 20
0.0
 30
0.0
  9
$UCSXDIR
 10
1.0
 20
0.0
 30
0.0
  9
$UCSYDIR
 10
0.0
 20
1.0
 30
0.0
  9
$PUCSNAME
  2

  9
$PUCSORG
 10
0.0
 20
0.0
 30
0.0
  9
$PUCSXDIR
 10
1.0
 20
0.0
 30
0.0
  9
$PUCSYDIR
 10
0.0
 20
1.0
 30
0.0
  9
$USERI1
 70
     0
  9
$USERI2
 70
     1
  9
$USERI3
 70
     1
  9
$USERI4
 70
     0
  9
$USERI5
 70
     0
  9
$USERR1
 40
0.0
  9
$USERR2
 40
0.0
  9
$USERR3
 40
0.0
  9
$USERR4
 40
0.0
  9
$USERR5
 40
0.0
  9
$WORLDVIEW
 70
     1
  9
$SHADEDGE
 70
     3
  9
$SHADEDIF
 70
    70
  9
$TILEMODE
 70
     1
  9
$MAXACTVP
 70
    16
  9
$PLIMCHECK
 70
     0
  9
$PEXTMIN
 10
1.0000000000000000E+020
 20
1.0000000000000000E+020
 30
1.0000000000000000E+020
  9
$PEXTMAX
 10
-1.0000000000000000E+020
 20
-1.0000000000000000E+020
 30
-1.0000000000000000E+020
  9
$PLIMMIN
 10
0.0
 20
0.0
  9
$PLIMMAX
 10
12.0
 20
9.0
  9
$UNITMODE
 70
     0
  9
$VISRETAIN
 70
     0
  9
$PLINEGEN
 70
     1
  9
$PSLTSCALE
 70
     0
  0
ENDSEC
  0
SECTION
  2
TABLES
  0
TABLE
  2
VPORT
 70
     3
  0
VPORT
  2
*ACTIVE
 70
     0
 10
0.0
 20
0.0
 11
1.0
 21
1.0
 12
189.9890908418329
 22
141.96258608596699
 13
0.0
 23
0.0
 14
10.0
 24
10.0
 15
10.0
 25
10.0
 16
0.0
 26
0.0
 36
1.0
 17
0.0
 27
0.0
 37
0.0
 40
367.47838395711869
 41
0.9407114624505929
 42
50.0
 43
0.0
 44
0.0
 50
0.0
 51
0.0
 71
     0
 72
   500
 73
     1
 74
     0
 75
     0
 76
     0
 77
     0
 78
     2
  0
ENDTAB
  0
TABLE
  2
LTYPE
 70
     3
  0
LTYPE
  2
CONTINUOUS
 70
     0
  3
Solid Line
 72
    65
 73
     0
 40
0.0
  0
LTYPE
  2
CENTER
 70
     0
  3
____ _ ____ _ ____ _ ____ _ ____ _ ____ _ ____
 72
    65
 73
     4
 40
2.0
 49
1.25
 49
-0.25
 49
0.25
 49
-0.25
  0
LTYPE
  2
HIDDEN
 70
     0
  3
_ _ _ _ _ _ _ _ _ _ _ _ _ _ _ _ _ _ _ _ _ _ _
 72
    65
 73
     2
 40
0.375
 49
0.25
 49
-0.125
  0
ENDTAB
  0
TABLE
  2
LAYER
 70
     3
  0
LAYER
  2
0
 70
     0
 62
     7
  6
CONTINUOUS
  0
LAYER
  2
1
 70
     0
 62
     1
  6
CENTER
  0
LAYER
  2
2
 70
     0
 62
     2
  6
HIDDEN
  0
ENDTAB
  0
TABLE
  2
STYLE
 70
     1
  0
STYLE
  2
STANDARD
 70
     0
 40
0.0
 41
1.0
 50
0.0
 71
     0
 42
0.2
  3
TXT
  4
BIGFONT
  0
ENDTAB
  0
TABLE
  2
VIEW
 70
     1
  0
VIEW
  2
ALL
 70
     0
 40
179.5384664489153
 10
135.0
 20
89.769233224457665
 41
0.0
 11
0.0
 21
0.0
 31
1.0
 12
0.0
 22
0.0
 32
0.0
 42
0.0
 43
0.0
 44
0.0
 50
0.0
 71
     0
  0
ENDTAB
  0
TABLE
  2
UCS
 70
     0
  0
ENDTAB
  0
TABLE
  2
APPID
 70
     1
  0
APPID
  2
ACAD
 70
     0
  0
ENDTAB
  0
TABLE
  2
DIMSTYLE
 70
     1
  0
DIMSTYLE
  2
STANDARD
 70
     0
  3

  4

  5

  6

  7

 40
1.0
 41
0.18
 42
0.0625
 43
0.38
 44
0.18
 45
0.0
 46
0.0
 47
0.0
 48
0.0
140
0.18
141
0.09
142
0.0
143
25.399999999999999
144
1.0
145
0.0
146
1.0
147
0.09
 71
     0
 72
     0
 73
     1
 74
     1
 75
     0
 76
     0
 77
     0
 78
     0
170
     0
171
     2
172
     0
173
     0
174
     0
175
     0
176
     0
177
     0
178
     0
  0
ENDTAB
  0
ENDSEC
  0
SECTION
  2
BLOCKS
  0
BLOCK
  8
0
  2
$MODEL_SPACE
 70
     0
 10
0.0
 20
0.0
 30
0.0
  3
$MODEL_SPACE
  1

  0
ENDBLK
  5
21C
  8
0
  0
BLOCK
 67
     1
  8
0
  2
$PAPER_SPACE
 70
     0
 10
0.0
 20
0.0
 30
0.0
  3
$PAPER_SPACE
  1

  0
ENDBLK
  5
21A
 67
     1
  8
0
  0
ENDSEC
  0
SECTION
  2
ENTITIES
  0
LINE
  5
35
  8
0
  6
CONTINUOUS
 62
     7
 10
91.499999999999957
 20
79.912929823603974
 30
0.0
 11
113.4999999999999
 21
79.912929823603974
 31
0.0
  0
LINE
  5
36
  8
0
  6
CONTINUOUS
 62
     7
 10
288.5
 20
79.912929823603974
 30
0.0
 11
288.5
 21
96.912929823604017
 31
0.0
  0
LINE
  5
37
  8
0
  6
CONTINUOUS
 62
     7
 10
91.499999999999957
 20
96.912929823603974
 30
0.0
 11
91.499999999999957
 21
79.912929823603974
 31
0.0
  0
LINE
  5
38
  8
0
  6
CONTINUOUS
 62
     7
 10
315.74999999999977
 20
79.912929823603974
 30
0.0
 11
344.24999999999989
 21
79.912929823603974
 31
0.0
  0
LINE
  5
39
  8
0
  6
CONTINUOUS
 62
     7
 10
113.4999999999999
 20
79.912929823603974
 30
0.0
 11
113.4999999999999
 21
117.4129298236039
 31
0.0
  0
LINE
  5
3A
  8
0
  6
CONTINUOUS
 62
     7
 10
117.9999999999999
 20
121.9129298236039
 30
0.0
 11
262.0
 21
121.9129298236039
 31
0.0
  0
LINE
  5
3B
  8
0
  6
CONTINUOUS
 62
     7
 10
266.5
 20
117.4129298236039
 30
0.0
 11
266.5
 21
79.912929823603974
 31
0.0
  0
LINE
  5
3C
  8
0
  6
CONTINUOUS
 62
     7
 10
288.5
 20
96.912929823603974
 30
0.0
 11
272.77406554922891
 21
124.8219673597554
 31
0.0
  0
LINE
  5
3D
  8
0
  6
CONTINUOUS
 62
     7
 10
107.22593445077111
 20
124.8219673597554
 30
0.0
 11
91.499999999999957
 21
96.912929823603974
 31
0.0
  0
LINE
  5
3E
  8
2
  6
HIDDEN
 10
271.49999999999989
 20
96.912929823603974
 30
0.0
 11
288.5
 21
96.912929823603918
 31
0.0
  0
LINE
  5
3F
  8
0
  6
CONTINUOUS
 62
     7
 10
266.5
 20
79.912929823603974
 30
0.0
 11
288.5
 21
79.912929823603974
 31
0.0
  0
ARC
  5
40
  8
0
  6
CONTINUOUS
 62
     7
 10
264.06192743802688
 20
119.912929823604
 30
0.0
 40
10.0
 50
29.399999999999949
 51
90.0
  0
ARC
  5
41
  8
0
  6
CONTINUOUS
 62
     7
 10
115.9380725619729
 20
119.912929823604
 30
0.0
 40
10.0
 50
90.0
 51
150.59999999999991
  0
ARC
  5
42
  8
0
  6
CONTINUOUS
 62
     7
 10
117.9999999999999
 20
117.4129298236039
 30
0.0
 40
4.5
 50
90.0
 51
179.99999999999989
  0
ARC
  5
43
  8
0
  6
CONTINUOUS
 62
     7
 10
262.0
 20
117.4129298236039
 30
0.0
 40
4.5
 50
0.0
 51
90.0
  0
LINE
  5
44
  8
1
  6
CENTER
 10
190.0
 20
134.912929823604
 30
0.0
 11
190.0
 21
116.9129298236039
 31
0.0
  0
LINE
  5
45
  8
0
  6
CONTINUOUS
 62
     7
 10
288.5
 20
79.912929823603974
 30
0.0
 11
283.75
 21
79.912929823603974
 31
0.0
  0
LINE
  5
46
  8
1
  6
CENTER
 10
279.49999999999989
 20
74.912929823604003
 30
0.0
 11
279.49999999999989
 21
123.0706526063651
 31
0.0
  0
LINE
  5
47
  8
1
  6
CENTER
 10
100.4999999999999
 20
74.912929823603974
 30
0.0
 11
100.4999999999999
 21
123.070652606365
 31
0.0
  0
LINE
  5
48
  8
1
  6
CENTER
 10
329.99999999999977
 20
74.912929823603974
 30
0.0
 11
330.0
 21
134.93202901132059
 31
0.0
  0
LINE
  5
49
  8
2
  6
HIDDEN
 10
271.49999999999989
 20
96.912929823603974
 30
0.0
 11
271.49999999999989
 21
124.5624168512863
 31
0.0
  0
ARC
  5
4A
  8
0
  6
CONTINUOUS
 62
     7
 10
267.0
 20
124.5624168512863
 30
0.0
 40
4.5
 50
0.0
 51
57.710664482539372
  0
LINE
  5
4B
  8
2
  6
HIDDEN
 10
283.75
 20
79.912929823603974
 30
0.0
 11
283.75
 21
88.412929823603974
 31
0.0
  0
LINE
  5
4C
  8
2
  6
HIDDEN
 10
286.25
 20
88.412929823603974
 30
0.0
 11
286.25
 21
96.912929823603974
 31
0.0
  0
LINE
  5
4D
  8
2
  6
HIDDEN
 10
272.75
 20
96.912929823603974
 30
0.0
 11
272.75
 21
88.412929823603974
 31
0.0
  0
LINE
  5
4E
  8
2
  6
HIDDEN
 10
272.75
 20
88.412929823603974
 30
0.0
 11
275.24999999999989
 21
88.412929823603974
 31
0.0
  0
LINE
  5
4F
  8
2
  6
HIDDEN
 10
275.24999999999989
 20
88.412929823603974
 30
0.0
 11
275.24999999999989
 21
79.912929823603974
 31
0.0
  0
LINE
  5
50
  8
2
  6
HIDDEN
 10
275.24999999999989
 20
88.412929823603974
 30
0.0
 11
286.25
 21
88.412929823603974
 31
0.0
  0
LINE
  5
51
  8
0
  6
CONTINUOUS
 62
     7
 10
264.06192362332962
 20
129.912929823604
 30
0.0
 11
115.9380725619729
 21
129.912929823604
 31
0.0
  0
LINE
  5
52
  8
0
  6
CONTINUOUS
 62
     7
 10
117.9999999999999
 20
123.2129298236039
 30
0.0
 11
261.99999730260168
 21
123.2129298236039
 31
0.0
  0
ARC
  5
53
  8
0
  6
CONTINUOUS
 62
     7
 10
117.9999999999999
 20
117.4129298236039
 30
0.0
 40
5.7999999999999989
 50
90.0
 51
179.99999999999989
  0
LINE
  5
54
  8
0
  6
CONTINUOUS
 62
     7
 10
112.1999999999999
 20
79.912929823603974
 30
0.0
 11
112.1999999999999
 21
117.4129298236039
 31
0.0
  0
LINE
  5
55
  8
0
  6
CONTINUOUS
 62
     7
 10
330.0
 20
129.91292982360389
 30
0.0
 11
340.50932953473477
 21
128.9934826280564
 31
0.0
  0
LINE
  5
56
  8
0
  6
CONTINUOUS
 62
     7
 10
330.0
 20
129.91292982360389
 30
0.0
 11
319.49067046526511
 21
128.99348262805651
 31
0.0
  0
ARC
  5
57
  8
0
  6
CONTINUOUS
 62
     7
 10
262.0
 20
117.4129298236039
 30
0.0
 40
5.7999999999999989
 50
0.0000000000000763
 51
90.000000000000028
  0
LINE
  5
58
  8
0
  6
CONTINUOUS
 62
     7
 10
267.80000000000001
 20
79.912929823603974
 30
0.0
 11
267.80000000000001
 21
117.4129298236039
 31
0.0
  0
ARC
  5
59
  8
0
  6
CONTINUOUS
 62
     7
 10
113.0
 20
124.5624168512863
 30
0.0
 40
4.5
 50
122.2893355174606
 51
180.0
  0
LINE
  5
5A
  8
2
  6
HIDDEN
 10
108.5
 20
96.912929823603974
 30
0.0
 11
108.5
 21
124.5624168512863
 31
0.0
  0
LINE
  5
5B
  8
2
  6
HIDDEN
 10
104.7499999999999
 20
88.412929823603974
 30
0.0
 11
93.750000000000028
 21
88.412929823603974
 31
0.0
  0
LINE
  5
5C
  8
2
  6
HIDDEN
 10
104.75
 20
88.412929823603974
 30
0.0
 11
104.75
 21
79.912929823603974
 31
0.0
  0
LINE
  5
5D
  8
0
  6
CONTINUOUS
 62
     7
 10
107.25
 20
88.412929823603974
 30
0.0
 11
104.75
 21
88.412929823603974
 31
0.0
  0
LINE
  5
5E
  8
2
  6
HIDDEN
 10
107.25
 20
96.912929823603974
 30
0.0
 11
107.25
 21
88.412929823603974
 31
0.0
  0
LINE
  5
5F
  8
2
  6
HIDDEN
 10
108.5
 20
96.912929823603974
 30
0.0
 11
91.5
 21
96.912929823603918
 31
0.0
  0
LINE
  5
60
  8
2
  6
HIDDEN
 10
93.75
 20
88.412929823603974
 30
0.0
 11
93.75
 21
96.912929823603974
 31
0.0
  0
LINE
  5
61
  8
2
  6
HIDDEN
 10
96.25
 20
79.912929823603974
 30
0.0
 11
96.25
 21
88.412929823603974
 31
0.0
  0
LINE
  5
6B
  8
1
  6
CENTER
 10
86.499999999999957
 20
190.0
 30
0.0
 11
293.5
 21
190.0
 31
0.0
  0
LINE
  5
6C
  8
1
  6
CENTER
 10
190.0
 20
209.0
 30
0.0
 11
190.0
 21
171.0
 31
0.0
  0
CIRCLE
  5
6D
  8
0
  6
CONTINUOUS
 62
     7
 10
100.5
 20
190.0
 30
0.0
 40
4.25
  0
LINE
  5
6E
  8
1
  6
CENTER
 10
100.5
 20
199.25
 30
0.0
 11
100.5
 21
180.74999999999989
 31
0.0
  0
LINE
  5
6F
  8
0
  6
CONTINUOUS
 62
     7
 10
91.500000000000256
 20
190.0
 30
0.0
 11
92.507122883021509
 21
178.48853277175701
 31
0.0
  0
LINE
  5
70
  8
0
  6
CONTINUOUS
 62
     7
 10
91.499999999999986
 20
190.0
 30
0.0
 11
92.507123117220615
 21
201.5114699051515
 31
0.0
  0
LINE
  5
71
  8
0
  6
CONTINUOUS
 62
     7
 10
95.495708629109089
 20
204.25
 30
0.0
 11
113.4999999999999
 21
204.24999999999989
 31
0.0
  0
LINE
  5
72
  8
0
  6
CONTINUOUS
 62
     7
 10
95.495706977296749
 20
175.75
 30
0.0
 11
113.4999999999999
 21
175.75
 31
0.0
  0
LINE
  5
73
  8
0
  6
CONTINUOUS
 62
     7
 10
113.4999999999999
 20
175.75
 30
0.0
 11
113.4999999999999
 21
176.75
 31
0.0
  0
LINE
  5
74
  8
0
  6
CONTINUOUS
 62
     7
 10
113.4999999999999
 20
203.25
 30
0.0
 11
266.5
 21
203.25
 31
0.0
  0
LINE
  5
75
  8
0
  6
CONTINUOUS
 62
     7
 10
113.4999999999999
 20
176.75
 30
0.0
 11
266.5
 21
176.75
 31
0.0
  0
ARC
  5
76
  8
0
  6
CONTINUOUS
 62
     7
 10
95.49570697729672
 20
201.25
 30
0.0
 40
3.0
 50
90.0
 51
175.00000000000011
  0
ARC
  5
77
  8
0
  6
CONTINUOUS
 62
     7
 10
95.495706977296749
 20
178.75
 30
0.0
 40
3.0
 50
185.00000000000011
 51
269.99999999999989
  0
LINE
  5
78
  8
0
  6
CONTINUOUS
 62
     7
 10
96.742256718200466
 20
204.05747419189049
 30
0.0
 11
113.4999999999999
 21
203.25
 31
0.0
  0
LINE
  5
79
  8
0
  6
CONTINUOUS
 62
     7
 10
113.4999999999999
 20
203.25
 30
0.0
 11
113.4999999999999
 21
204.24999999999989
 31
0.0
  0
LINE
  5
7A
  8
0
  6
CONTINUOUS
 62
     7
 10
96.742256718200466
 20
175.94252580810951
 30
0.0
 11
113.4999999999999
 21
176.75
 31
0.0
  0
LINE
  5
7B
  8
1
  6
CENTER
 10
115.9380725619729
 20
190.0
 30
0.0
 11
264.06192362332962
 21
189.99999999999989
 31
0.0
  0
LINE
  5
7C
  8
0
  6
CONTINUOUS
 62
     7
 10
108.5
 20
186.5
 30
0.0
 11
108.5
 21
193.5
 31
0.0
  0
LINE
  5
7D
  8
0
  6
CONTINUOUS
 62
     7
 10
94.382526310345952
 20
198.0
 30
0.0
 11
104.0
 21
198.0
 31
0.0
  0
LINE
  5
7E
  8
0
  6
CONTINUOUS
 62
     7
 10
94.382526310346023
 20
181.99999999999989
 30
0.0
 11
104.0
 21
182.0
 31
0.0
  0
ARC
  5
7F
  8
0
  6
CONTINUOUS
 62
     7
 10
104.0
 20
193.5
 30
0.0
 40
4.5
 50
0.0000000000000509
 51
90.0
  0
ARC
  5
80
  8
0
  6
CONTINUOUS
 62
     7
 10
104.0
 20
186.5
 30
0.0
 40
4.5
 50
270.0
 51
0.0000000000000636
  0
ARC
  5
81
  8
0
  6
CONTINUOUS
 62
     7
 10
94.382526310346023
 20
179.99999999999989
 30
0.0
 40
2.0
 50
90.0
 51
185.00000000000011
  0
ARC
  5
82
  8
0
  6
CONTINUOUS
 62
     7
 10
94.382526310345952
 20
200.0
 30
0.0
 40
2.0
 50
175.0
 51
269.99999999999989
  0
ARC
  5
83
  8
0
  6
CONTINUOUS
 62
     7
 10
285.61747368965399
 20
200.0
 30
0.0
 40
2.0
 50
270.00000000000011
 51
4.9999999999999432
  0
ARC
  5
84
  8
0
  6
CONTINUOUS
 62
     7
 10
285.61747368965388
 20
179.99999999999989
 30
0.0
 40
2.0
 50
354.99999999999977
 51
90.000000000000028
  0
ARC
  5
85
  8
0
  6
CONTINUOUS
 62
     7
 10
275.99999999999977
 20
186.5
 30
0.0
 40
4.5
 50
179.99999999999989
 51
270.0
  0
ARC
  5
86
  8
0
  6
CONTINUOUS
 62
     7
 10
275.99999999999989
 20
193.5
 30
0.0
 40
4.5
 50
90.000000000000028
 51
179.99999999999989
  0
LINE
  5
87
  8
0
  6
CONTINUOUS
 62
     7
 10
285.61747368965388
 20
181.99999999999989
 30
0.0
 11
275.99999999999977
 21
182.0
 31
0.0
  0
LINE
  5
88
  8
0
  6
CONTINUOUS
 62
     7
 10
285.61747368965399
 20
198.0
 30
0.0
 11
275.99999999999989
 21
198.0
 31
0.0
  0
LINE
  5
89
  8
0
  6
CONTINUOUS
 62
     7
 10
271.49999999999977
 20
186.5
 30
0.0
 11
271.49999999999989
 21
193.5
 31
0.0
  0
LINE
  5
8A
  8
0
  6
CONTINUOUS
 62
     7
 10
283.25774328179949
 20
175.94252580810951
 30
0.0
 11
266.5
 21
176.75
 31
0.0
  0
LINE
  5
8B
  8
0
  6
CONTINUOUS
 62
     7
 10
266.5
 20
203.25
 30
0.0
 11
266.5
 21
204.24999999999989
 31
0.0
  0
LINE
  5
8C
  8
0
  6
CONTINUOUS
 62
     7
 10
283.25774328179949
 20
204.05747419189049
 30
0.0
 11
266.5
 21
203.25
 31
0.0
  0
ARC
  5
8D
  8
0
  6
CONTINUOUS
 62
     7
 10
284.50429302270322
 20
178.75
 30
0.0
 40
3.0
 50
270.00000000000011
 51
354.99999999999977
  0
ARC
  5
8E
  8
0
  6
CONTINUOUS
 62
     7
 10
284.50429302270322
 20
201.25
 30
0.0
 40
3.0
 50
4.999999999999841
 51
90.000000000000028
  0
LINE
  5
8F
  8
0
  6
CONTINUOUS
 62
     7
 10
266.5
 20
175.75
 30
0.0
 11
266.5
 21
176.75
 31
0.0
  0
LINE
  5
90
  8
0
  6
CONTINUOUS
 62
     7
 10
284.50429302270322
 20
175.75
 30
0.0
 11
266.5
 21
175.75
 31
0.0
  0
LINE
  5
91
  8
0
  6
CONTINUOUS
 62
     7
 10
284.50429137089083
 20
204.25
 30
0.0
 11
266.5
 21
204.24999999999989
 31
0.0
  0
LINE
  5
92
  8
0
  6
CONTINUOUS
 62
     7
 10
288.5
 20
190.0
 30
0.0
 11
287.4928768827794
 21
201.5114699051515
 31
0.0
  0
LINE
  5
93
  8
0
  6
CONTINUOUS
 62
     7
 10
288.49999999999972
 20
190.0
 30
0.0
 11
287.49287711697838
 21
178.48853277175701
 31
0.0
  0
LINE
  5
94
  8
1
  6
CENTER
 10
279.49999999999989
 20
199.25
 30
0.0
 11
279.49999999999989
 21
180.74999999999989
 31
0.0
  0
CIRCLE
  5
95
  8
0
  6
CONTINUOUS
 62
     7
 10
279.49999999999989
 20
190.0
 30
0.0
 40
4.25
  0
LINE
  5
96
  8
0
  6
CONTINUOUS
 62
     7
 10
316.75284552185519
 20
126.070063471146
 30
0.0
 11
315.74999999999977
 21
79.912929823603974
 31
0.0
  0
LINE
  5
97
  8
0
  6
CONTINUOUS
 62
     7
 10
343.24715447814469
 20
126.0700634711459
 30
0.0
 11
344.24999999999989
 21
79.912929823603974
 31
0.0
  0
ARC
  5
98
  8
0
  6
CONTINUOUS
 62
     7
 10
319.75213769350808
 20
126.0048985337812
 30
0.0
 40
3.0
 50
94.999999999999758
 51
178.7553434814748
  0
ARC
  5
99
  8
0
  6
CONTINUOUS
 62
     7
 10
340.24786230649181
 20
126.0048985337812
 30
0.0
 40
3.0
 50
1.2446565185249261
 51
84.999999999999844
  0
ARC
  5
9A
  8
2
  6
HIDDEN
 10
340.24786230649181
 20
125.8209611134267
 30
0.0
 40
3.0
 50
275.00000000000011
 51
358.75534348147499
  0
ARC
  5
9B
  8
2
  6
HIDDEN
 10
319.75213769350808
 20
125.82096111342661
 30
0.0
 40
3.0
 50
181.2446565185252
 51
265.00000000000028
  0
LINE
  5
9C
  8
2
  6
HIDDEN
 10
330.0
 20
121.9129298236039
 30
0.0
 11
319.49067046526511
 21
122.83237701915139
 31
0.0
  0
LINE
  5
9D
  8
2
  6
HIDDEN
 10
330.0
 20
121.9129298236039
 30
0.0
 11
340.50932953473477
 21
122.83237701915139
 31
0.0
  0
LINE
  5
9E
  8
0
  6
CONTINUOUS
 62
     7
 10
316.75284552185519
 20
126.070063471146
 30
0.0
 11
316.75284552185519
 21
125.75579617606191
 31
0.0
  0
LINE
  5
9F
  8
0
  6
CONTINUOUS
 62
     7
 10
343.24715447814469
 20
126.070063471146
 30
0.0
 11
343.24715447814469
 21
125.75579617606191
 31
0.0
  0
LINE
  5
A0
  8
0
  6
CONTINUOUS
 62
     7
 10
321.99999999999989
 20
96.912929823603918
 30
0.0
 11
337.99999999999989
 21
96.912929823603946
 31
0.0
  0
LINE
  5
A1
  8
0
  6
CONTINUOUS
 62
     7
 10
321.99999999999989
 20
96.912929823603918
 30
0.0
 11
322.0
 21
119.0968560185138
 31
0.0
  0
LINE
  5
A2
  8
0
  6
CONTINUOUS
 62
     7
 10
338.0
 20
96.912929823603946
 30
0.0
 11
338.0
 21
119.09685792586239
 31
0.0
  0
LINE
  5
A3
  8
0
  6
CONTINUOUS
 62
     7
 10
329.99999999999989
 20
96.912929823603918
 30
0.0
 11
329.99999999999977
 21
79.912929823603974
 31
0.0
  0
POLYLINE
  5
A4
  8
0
  6
CONTINUOUS
 62
     7
 66
     1
 10
0.0
 20
0.0
 30
0.0
  0
VERTEX
  5
1A9
  8
0
  6
CONTINUOUS
 62
     7
 10
326.5
 20
124.5624168512863
 30
0.0
 42
0.1170596688884094
  0
VERTEX
  5
1AA
  8
0
  6
CONTINUOUS
 62
     7
 10
324.82383375783752
 20
124.1645418530625
 30
0.0
 42
0.1043435021664291
  0
VERTEX
  5
1AB
  8
0
  6
CONTINUOUS
 62
     7
 10
323.31801948466051
 20
122.96159114635481
 30
0.0
 42
0.0902795071944896
  0
VERTEX
  5
1AC
  8
0
  6
CONTINUOUS
 62
     7
 10
322.3543455095176
 20
121.2336614305393
 30
0.0
 42
0.08235245987519
  0
VERTEX
  5
1AD
  8
0
  6
CONTINUOUS
 62
     7
 10
322.0
 20
119.0968560185138
 30
0.0
 42
0.0823524598751922
  0
SEQEND
  5
1AE
  8
0
  6
CONTINUOUS
 62
     7
  0
POLYLINE
  5
AB
  8
0
  6
CONTINUOUS
 62
     7
 66
     1
 10
0.0
 20
0.0
 30
0.0
  0
VERTEX
  5
1AF
  8
0
  6
CONTINUOUS
 62
     7
 10
333.49999999999989
 20
124.5624168512863
 30
0.0
 42
-0.1170596688884094
  0
VERTEX
  5
1B0
  8
0
  6
CONTINUOUS
 62
     7
 10
335.17616624216242
 20
124.1645418530625
 30
0.0
 42
-0.1043435021664291
  0
VERTEX
  5
1B1
  8
0
  6
CONTINUOUS
 62
     7
 10
336.68198051533949
 20
122.96159114635481
 30
0.0
 42
-0.0902795071944896
  0
VERTEX
  5
1B2
  8
0
  6
CONTINUOUS
 62
     7
 10
337.6456544904824
 20
121.2336614305393
 30
0.0
 42
-0.08235245987519
  0
VERTEX
  5
1B3
  8
0
  6
CONTINUOUS
 62
     7
 10
338.0
 20
119.0968560185138
 30
0.0
 42
-0.0823524598751922
  0
SEQEND
  5
1B4
  8
0
  6
CONTINUOUS
 62
     7
  0
POLYLINE
  5
B2
  8
0
  6
CONTINUOUS
 62
     7
 66
     1
 10
0.0
 20
0.0
 30
0.0
  0
VERTEX
  5
1B5
  8
0
  6
CONTINUOUS
 62
     7
 10
46.5
 20
124.5624168512863
 30
0.0
 42
0.1170596688884094
  0
VERTEX
  5
1B6
  8
0
  6
CONTINUOUS
 62
     7
 10
44.823833757837519
 20
124.1645418530625
 30
0.0
 42
0.1043435021664291
  0
VERTEX
  5
1B7
  8
0
  6
CONTINUOUS
 62
     7
 10
43.31801948466051
 20
122.96159114635481
 30
0.0
 42
0.0902795071944896
  0
VERTEX
  5
1B8
  8
0
  6
CONTINUOUS
 62
     7
 10
42.3543455095176
 20
121.2336614305393
 30
0.0
 42
0.08235245987519
  0
VERTEX
  5
1B9
  8
0
  6
CONTINUOUS
 62
     7
 10
42.0
 20
119.0968560185138
 30
0.0
 42
0.0823524598751922
  0
SEQEND
  5
1BA
  8
0
  6
CONTINUOUS
 62
     7
  0
POLYLINE
  5
B9
  8
0
  6
CONTINUOUS
 62
     7
 66
     1
 10
0.0
 20
0.0
 30
0.0
  0
VERTEX
  5
1BB
  8
0
  6
CONTINUOUS
 62
     7
 10
53.5
 20
124.5624168512863
 30
0.0
 42
-0.1170596688884094
  0
VERTEX
  5
1BC
  8
0
  6
CONTINUOUS
 62
     7
 10
55.176166242162481
 20
124.1645418530625
 30
0.0
 42
-0.1043435021664291
  0
VERTEX
  5
1BD
  8
0
  6
CONTINUOUS
 62
     7
 10
56.681980515339482
 20
122.96159114635481
 30
0.0
 42
-0.0902795071944896
  0
VERTEX
  5
1BE
  8
0
  6
CONTINUOUS
 62
     7
 10
57.6456544904824
 20
121.2336614305393
 30
0.0
 42
-0.08235245987519
  0
VERTEX
  5
1BF
  8
0
  6
CONTINUOUS
 62
     7
 10
58.0
 20
119.0968560185138
 30
0.0
 42
-0.0823524598751922
  0
SEQEND
  5
1C0
  8
0
  6
CONTINUOUS
 62
     7
  0
LINE
  5
C0
  8
0
  6
CONTINUOUS
 62
     7
 10
50.000000000000057
 20
96.912929823603918
 30
0.0
 11
50.000000000000107
 21
79.912929823603974
 31
0.0
  0
LINE
  5
C1
  8
0
  6
CONTINUOUS
 62
     7
 10
42.0
 20
96.912929823603946
 30
0.0
 11
42.0
 21
119.09685792586239
 31
0.0
  0
LINE
  5
C2
  8
0
  6
CONTINUOUS
 62
     7
 10
58.000000000000057
 20
96.912929823603918
 30
0.0
 11
58.0
 21
119.0968560185138
 31
0.0
  0
LINE
  5
C3
  8
0
  6
CONTINUOUS
 62
     7
 10
58.000000000000057
 20
96.912929823603918
 30
0.0
 11
42.00000000000005
 21
96.912929823603946
 31
0.0
  0
LINE
  5
C4
  8
0
  6
CONTINUOUS
 62
     7
 10
36.752845521855249
 20
126.070063471146
 30
0.0
 11
36.752845521855249
 21
125.75579617606191
 31
0.0
  0
LINE
  5
C5
  8
0
  6
CONTINUOUS
 62
     7
 10
63.247154478144751
 20
126.070063471146
 30
0.0
 11
63.247154478144751
 21
125.75579617606191
 31
0.0
  0
LINE
  5
C6
  8
2
  6
HIDDEN
 10
50.0
 20
121.9129298236039
 30
0.0
 11
39.490670465265168
 21
122.83237701915139
 31
0.0
  0
LINE
  5
C7
  8
2
  6
HIDDEN
 10
50.0
 20
121.9129298236039
 30
0.0
 11
60.509329534734832
 21
122.83237701915139
 31
0.0
  0
ARC
  5
C8
  8
2
  6
HIDDEN
 10
60.247862306491868
 20
125.82096111342661
 30
0.0
 40
3.0
 50
274.99999999999972
 51
358.75534348147482
  0
ARC
  5
C9
  8
2
  6
HIDDEN
 10
39.752137693508132
 20
125.8209611134267
 30
0.0
 40
3.0
 50
181.24465651852489
 51
264.99999999999977
  0
ARC
  5
CA
  8
0
  6
CONTINUOUS
 62
     7
 10
39.752137693508132
 20
126.0048985337812
 30
0.0
 40
3.0
 50
95.000000000000185
 51
178.75534348147511
  0
ARC
  5
CB
  8
0
  6
CONTINUOUS
 62
     7
 10
60.247862306491868
 20
126.0048985337812
 30
0.0
 40
3.0
 50
1.2446565185252061
 51
85.000000000000256
  0
LINE
  5
CC
  8
0
  6
CONTINUOUS
 62
     7
 10
36.752845521855249
 20
126.0700634711459
 30
0.0
 11
35.75000000000005
 21
79.912929823603974
 31
0.0
  0
LINE
  5
CD
  8
0
  6
CONTINUOUS
 62
     7
 10
63.247154478144751
 20
126.070063471146
 30
0.0
 11
64.250000000000114
 21
79.912929823603974
 31
0.0
  0
LINE
  5
CE
  8
0
  6
CONTINUOUS
 62
     7
 10
50.0
 20
129.91292982360389
 30
0.0
 11
60.509329534734832
 21
128.99348262805651
 31
0.0
  0
LINE
  5
CF
  8
0
  6
CONTINUOUS
 62
     7
 10
50.0
 20
129.91292982360389
 30
0.0
 11
39.490670465265168
 21
128.9934826280564
 31
0.0
  0
LINE
  5
D0
  8
1
  6
CENTER
 10
50.000000000000107
 20
74.912929823603974
 30
0.0
 11
50.0
 21
134.93202901132059
 31
0.0
  0
LINE
  5
D1
  8
0
  6
CONTINUOUS
 62
     7
 10
64.250000000000114
 20
79.912929823603974
 30
0.0
 11
35.75000000000005
 21
79.912929823603974
 31
0.0
  0
CIRCLE
  5
D2
  8
0
  6
CONTINUOUS
 62
     7
 10
100.4999999999999
 20
190.0
 30
0.0
 40
6.7500000000000284
  0
CIRCLE
  5
D3
  8
0
  6
CONTINUOUS
 62
     7
 10
279.5
 20
190.0
 30
0.0
 40
6.7500000000000284
  0
ENDSEC
  0
EOF
