  0
SECTION
  2
HEADER
  9
$ACADVER
  1
AC1015
  9
$ACADMAINTVER
 70
    13
  9
$DWGCODEPAGE
  3
ANSI_932
  9
$INSBASE
 10
0.0
 20
0.0
 30
0.0
  9
$EXTMIN
 10
26.85452486858884
 20
28.11019937989442
 30
0.0
  9
$EXTMAX
 10
315.3139217393789
 20
166.4279858275547
 30
0.0
  9
$LIMMIN
 10
0.0
 20
0.0
  9
$LIMMAX
 10
1125.0
 20
810.0
  9
$ORTHOMODE
 70
     1
  9
$REGENMODE
 70
     1
  9
$FILLMODE
 70
     1
  9
$QTEXTMODE
 70
     0
  9
$MIRRTEXT
 70
     0
  9
$LTSCALE
 40
10.0
  9
$ATTMODE
 70
     1
  9
$TEXTSIZE
 40
0.2
  9
$TRACEWID
 40
0.05
  9
$TEXTSTYLE
  7
STANDARD
  9
$CLAYER
  8
0
  9
$CELTYPE
  6
ByLayer
  9
$CECOLOR
 62
   256
  9
$CELTSCALE
 40
1.0
  9
$DISPSILH
 70
     0
  9
$DIMSCALE
 40
1.0
  9
$DIMASZ
 40
3.0
  9
$DIMEXO
 40
2.0
  9
$DIMDLI
 40
0.38
  9
$DIMRND
 40
0.0
  9
$DIMDLE
 40
0.0
  9
$DIMEXE
 40
2.0
  9
$DIMTP
 40
0.0
  9
$DIMTM
 40
0.0
  9
$DIMTXT
 40
3.2
  9
$DIMCEN
 40
0.0
  9
$DIMTSZ
 40
0.0
  9
$DIMTOL
 70
     0
  9
$DIMLIM
 70
     0
  9
$DIMTIH
 70
     0
  9
$DIMTOH
 70
     0
  9
$DIMSE1
 70
     0
  9
$DIMSE2
 70
     0
  9
$DIMTAD
 70
     1
  9
$DIMZIN
 70
     0
  9
$DIMBLK
  1

  9
$DIMASO
 70
     0
  9
$DIMSHO
 70
     0
  9
$DIMPOST
  1

  9
$DIMAPOST
  1

  9
$DIMALT
 70
     0
  9
$DIMALTD
 70
     2
  9
$DIMALTF
 40
25.4
  9
$DIMLFAC
 40
1.0
  9
$DIMTOFL
 70
     1
  9
$DIMTVP
 40
1.6
  9
$DIMTIX
 70
     1
  9
$DIMSOXD
 70
     0
  9
$DIMSAH
 70
     0
  9
$DIMBLK1
  1

  9
$DIMBLK2
  1

  9
$DIMSTYLE
  2
STANDARD
  9
$DIMCLRD
 70
     0
  9
$DIMCLRE
 70
     0
  9
$DIMCLRT
 70
     0
  9
$DIMTFAC
 40
1.0
  9
$DIMGAP
 40
0.09
  9
$DIMJUST
 70
     0
  9
$DIMSD1
 70
     0
  9
$DIMSD2
 70
     0
  9
$DIMTOLJ
 70
     1
  9
$DIMTZIN
 70
     0
  9
$DIMALTZ
 70
     0
  9
$DIMALTTZ
 70
     0
  9
$DIMUPT
 70
     0
  9
$DIMDEC
 70
     4
  9
$DIMTDEC
 70
     4
  9
$DIMALTU
 70
     2
  9
$DIMALTTD
 70
     2
  9
$DIMTXSTY
  7
STANDARD
  9
$DIMAUNIT
 70
     0
  9
$DIMADEC
 70
     0
  9
$DIMALTRND
 40
0.0
  9
$DIMAZIN
 70
     0
  9
$DIMDSEP
 70
    46
  9
$DIMATFIT
 70
     3
  9
$DIMFRAC
 70
     0
  9
$DIMLDRBLK
  1

  9
$DIMLUNIT
 70
     2
  9
$DIMLWD
 70
    -2
  9
$DIMLWE
 70
    -2
  9
$DIMTMOVE
 70
     0
  9
$LUNITS
 70
     2
  9
$LUPREC
 70
     4
  9
$SKETCHINC
 40
0.1
  9
$FILLETRAD
 40
0.0
  9
$AUNITS
 70
     0
  9
$AUPREC
 70
     4
  9
$MENU
  1
E:\r13\win\SUPPORT\ACAD
  9
$ELEVATION
 40
0.0
  9
$PELEVATION
 40
0.0
  9
$THICKNESS
 40
0.0
  9
$LIMCHECK
 70
     0
  9
$CHAMFERA
 40
0.0
  9
$CHAMFERB
 40
0.0
  9
$CHAMFERC
 40
0.0
  9
$CHAMFERD
 40
0.0
  9
$SKPOLY
 70
     0
  9
$TDCREATE
 40
2449839.627581018
  9
$TDUCREATE
 40
2449839.252581018
  9
$TDUPDATE
 40
2456447.698314340
  9
$TDUUPDATE
 40
2456447.323314340
  9
$TDINDWG
 40
0.0598811227
  9
$TDUSRTIMER
 40
0.0598809491
  9
$USRTIMER
 70
     1
  9
$ANGBASE
 50
0.0
  9
$ANGDIR
 70
     0
  9
$PDMODE
 70
     0
  9
$PDSIZE
 40
0.0
  9
$PLINEWID
 40
0.0
  9
$SPLFRAME
 70
     0
  9
$SPLINETYPE
 70
     6
  9
$SPLINESEGS
 70
     8
  9
$HANDSEED
  5
167C
  9
$SURFTAB1
 70
     6
  9
$SURFTAB2
 70
     6
  9
$SURFTYPE
 70
     6
  9
$SURFU
 70
     6
  9
$SURFV
 70
     6
  9
$UCSBASE
  2

  9
$UCSNAME
  2

  9
$UCSORG
 10
0.0
 20
0.0
 30
0.0
  9
$UCSXDIR
 10
1.0
 20
0.0
 30
0.0
  9
$UCSYDIR
 10
0.0
 20
1.0
 30
0.0
  9
$UCSORTHOREF
  2

  9
$UCSORTHOVIEW
 70
     0
  9
$UCSORGTOP
 10
0.0
 20
0.0
 30
0.0
  9
$UCSORGBOTTOM
 10
0.0
 20
0.0
 30
0.0
  9
$UCSORGLEFT
 10
0.0
 20
0.0
 30
0.0
  9
$UCSORGRIGHT
 10
0.0
 20
0.0
 30
0.0
  9
$UCSORGFRONT
 10
0.0
 20
0.0
 30
0.0
  9
$UCSORGBACK
 10
0.0
 20
0.0
 30
0.0
  9
$PUCSBASE
  2

  9
$PUCSNAME
  2

  9
$PUCSORG
 10
0.0
 20
0.0
 30
0.0
  9
$PUCSXDIR
 10
1.0
 20
0.0
 30
0.0
  9
$PUCSYDIR
 10
0.0
 20
1.0
 30
0.0
  9
$PUCSORTHOREF
  2

  9
$PUCSORTHOVIEW
 70
     0
  9
$PUCSORGTOP
 10
0.0
 20
0.0
 30
0.0
  9
$PUCSORGBOTTOM
 10
0.0
 20
0.0
 30
0.0
  9
$PUCSORGLEFT
 10
0.0
 20
0.0
 30
0.0
  9
$PUCSORGRIGHT
 10
0.0
 20
0.0
 30
0.0
  9
$PUCSORGFRONT
 10
0.0
 20
0.0
 30
0.0
  9
$PUCSORGBACK
 10
0.0
 20
0.0
 30
0.0
  9
$USERI1
 70
     0
  9
$USERI2
 70
     1
  9
$USERI3
 70
     0
  9
$USERI4
 70
     0
  9
$USERI5
 70
     0
  9
$USERR1
 40
0.0
  9
$USERR2
 40
0.0
  9
$USERR3
 40
0.0
  9
$USERR4
 40
0.0
  9
$USERR5
 40
0.0
  9
$WORLDVIEW
 70
     1
  9
$SHADEDGE
 70
     3
  9
$SHADEDIF
 70
    70
  9
$TILEMODE
 70
     1
  9
$MAXACTVP
 70
    16
  9
$PINSBASE
 10
0.0
 20
0.0
 30
0.0
  9
$PLIMCHECK
 70
     0
  9
$PEXTMIN
 10
1.000000000000000E+20
 20
1.000000000000000E+20
 30
1.000000000000000E+20
  9
$PEXTMAX
 10
-1.000000000000000E+20
 20
-1.000000000000000E+20
 30
-1.000000000000000E+20
  9
$PLIMMIN
 10
0.0
 20
0.0
  9
$PLIMMAX
 10
12.0
 20
9.0
  9
$UNITMODE
 70
     0
  9
$VISRETAIN
 70
     0
  9
$PLINEGEN
 70
     0
  9
$PSLTSCALE
 70
     0
  9
$TREEDEPTH
 70
  3020
  9
$CMLSTYLE
  2
Standard
  9
$CMLJUST
 70
     0
  9
$CMLSCALE
 40
1.0
  9
$PROXYGRAPHICS
 70
     1
  9
$MEASUREMENT
 70
     0
  9
$CELWEIGHT
370
    -1
  9
$ENDCAPS
280
     0
  9
$JOINSTYLE
280
     0
  9
$LWDISPLAY
290
     0
  9
$INSUNITS
 70
     0
  9
$HYPERLINKBASE
  1

  9
$STYLESHEET
  1

  9
$XEDIT
290
     1
  9
$CEPSNTYPE
380
     0
  9
$PSTYLEMODE
290
     1
  9
$FINGERPRINTGUID
  2
{12E45AF5-D869-4EDD-946F-EA78DE7B49F2}
  9
$VERSIONGUID
  2
{71511ED3-B2A5-4340-89F7-DA6589450C34}
  9
$EXTNAMES
290
     1
  9
$PSVPSCALE
 40
0.0
  9
$OLESTARTUP
290
     0
  0
ENDSEC
  0
SECTION
  2
CLASSES
  0
CLASS
  1
ACDBDICTIONARYWDFLT
  2
AcDbDictionaryWithDefault
  3
AutoCAD 2000
 90
        0
280
     0
281
     0
  0
CLASS
  1
ACDBPLACEHOLDER
  2
AcDbPlaceHolder
  3
AutoCAD 2000
 90
        0
280
     0
281
     0
  0
CLASS
  1
LAYOUT
  2
AcDbLayout
  3
AutoCAD 2000
 90
        0
280
     0
281
     0
  0
CLASS
  1
AMGSETTINGSOBJ
  2
AmgSettingsObj
  3
"AcadM|Product Description: AutoCAD Mechanical 2000|Company: Autodesk"
 90
        0
280
     0
281
     0
  0
CLASS
  1
ACME_DOCUMENT
  2
AcMeDbDoc
  3
AcMeServices
 90
        0
280
     0
281
     0
  0
CLASS
  1
ACMESCOPE
  2
AcMeScope
  3
AcMeServices
 90
        0
280
     0
281
     0
  0
CLASS
  1
ACMECOMMANDHISTORY
  2
AcMeCommandHistory
  3
AcMeServices
 90
        0
280
     0
281
     0
  0
CLASS
  1
ACIMSYSVARMAN
  2
AcImSysVarManager
  3
AcMeServices
 90
        0
280
     0
281
     0
  0
CLASS
  1
ACIMREALSYSVAR
  2
AcImRealSysVar
  3
AcMeServices
 90
        0
280
     0
281
     0
  0
CLASS
  1
ACIMINTSYSVAR
  2
AcImIntSysVar
  3
AcMeServices
 90
        0
280
     0
281
     0
  0
CLASS
  1
ACMEDRAWINGMAN
  2
AcMeDrawingMan
  3
AcMeServices
 90
        0
280
     0
281
     0
  0
CLASS
  1
ACMEVIEW
  2
AcMeView
  3
AcMeServices
 90
        0
280
     0
281
     0
  0
CLASS
  1
ACDBENTITYCACHE
  2
AcMeEntityCache
  3
AcMeServices
 90
        0
280
     0
281
     0
  0
CLASS
  1
GSMANAGER
  2
AcMeGSManager
  3
AcMeServices
 90
        0
280
     0
281
     0
  0
CLASS
  1
AMDTINTERNALREACTOR
  2
AmdtInternalReactor
  3
AcMeServices
 90
        0
280
     0
281
     0
  0
CLASS
  1
ACMESTATEMGR
  2
AcMeStateMgr
  3
AcMeServices
 90
        0
280
     0
281
     0
  0
CLASS
  1
ACGREFMASTER
  2
AcGrefMaster
  3
AcAttribServices
 90
        0
280
     0
281
     0
  0
CLASS
  1
AM_DRAWING_MGR
  2
AcDmDwgMgr
  3
AcMechDwgViewMgmt
 90
        0
280
     0
281
     0
  0
CLASS
  1
AM_DWG_DOCUMENT
  2
AcDmDwgDocument
  3
AcMechDwgViewMgmt
 90
        0
280
     0
281
     0
  0
CLASS
  1
AM_DWG_SHEET
  2
AcDmSheet
  3
AcMechDwgViewMgmt
 90
        0
280
     0
281
     0
  0
CLASS
  1
AM_VIEWDIMPARMAP
  2
AcDmViewDimParMap
  3
AcMechDwgViewMgmt
 90
        0
280
     0
281
     0
  0
CLASS
  1
AM_DWGMGR_NAME
  2
AcDmDwgMgrName
  3
AcMechDwgViewMgmt
 90
        0
280
     0
281
     0
  0
CLASS
  1
ACME_DATABASE
  2
AcMeDbDatabase
  3
AcMeServices
 90
        0
280
     0
281
     0
  0
CLASS
  1
ACRFINSADJUSTERMGR
  2
AcRfInsAdjusterMgr
  3
AcMeServices
 90
        0
280
     0
281
     0
  0
CLASS
  1
ACGREFACADMASTER
  2
AcGrefacadMaster
  3
AcGrefServices
 90
        0
280
     0
281
     0
  0
CLASS
  1
AMDTMENUSTATEMGR
  2
AmdtMenuStateMgr
  3
McadcomServices
 90
        0
280
     0
281
     0
  0
CLASS
  1
AMDTMCOMMENUSTATE
  2
AmdtMcomMenuState
  3
McadcomServices
 90
        0
280
     0
281
     0
  0
CLASS
  1
AMIMASTER
  2
AmiMaster
  3
AmiServices
 90
        0
280
     0
281
     0
  0
CLASS
  1
ASAPP
  2
AcAsAppObject
  3
AutoSurfServices
 90
        0
280
     0
281
     0
  0
CLASS
  1
IM_STATIC_MAN
  2
AcImStaticVarManager
  3
AcMeServices
 90
        0
280
     0
281
     0
  0
CLASS
  1
ACIMSTRSYSVAR
  2
AcImStrSysVar
  3
AcMeServices
 90
        0
280
     0
281
     0
  0
CLASS
  1
ACIMDBLSTATICVAR
  2
AcImDblStaticVar
  3
AcMeServices
 90
        0
280
     0
281
     0
  0
CLASS
  1
ACIMSTRSTATICVAR
  2
AcImStrStaticVar
  3
AcMeServices
 90
        0
280
     0
281
     0
  0
CLASS
  1
ACIMINTSTATICVAR
  2
AcImIntStaticVar
  3
AcMeServices
 90
        0
280
     0
281
     0
  0
CLASS
  1
ACASGREFMASTER
  2
AcAsGrefMaster
  3
AutoSurfResolverServices
 90
        0
280
     0
281
     0
  0
CLASS
  1
ACADGREFMODULE
  2
AcAdGrefModule
  3
AdGrefServices
 90
        0
280
     0
281
     0
  0
CLASS
  1
AMDTMAPISURFMOUDULE
  2
AmdtMApiSurfModule
  3
MApiSurfServices
 90
        0
280
     0
281
     0
  0
CLASS
  1
MAPIAMMOUDLE
  2
MApiAmModule
  3
MApiAmServices
 90
        0
280
     0
281
     0
  0
CLASS
  1
AMDTADMENUSTATE
  2
AmdtAdMenuState
  3
DesignerServices
 90
        0
280
     0
281
     0
  0
CLASS
  1
ADAPPL
  2
AcAdAppl
  3
DesignerServices
 90
        0
280
     0
281
     0
  0
CLASS
  1
DEPMGR
  2
AcAdDepMgr
  3
DesignerServices
 90
        0
280
     0
281
     0
  0
CLASS
  1
PARAMMGR
  2
AcAdParamMgr
  3
DesignerServices
 90
        0
280
     0
281
     0
  0
CLASS
  1
PARAMSCOPE
  2
AcAdParamScope
  3
DesignerServices
 90
        0
280
     0
281
     0
  0
CLASS
  1
NAMEDAPPL
  2
AcAdNamedAppl
  3
DesignerServices
 90
        0
280
     0
281
     0
  0
CLASS
  1
AMDTDMMENUSTATE
  2
AmdtDmMenuState
  3
AcMechDwgViewMgmt
 90
        0
280
     0
281
     0
  0
CLASS
  1
MAPIADMODULE
  2
MApiAdModule
  3
MApiAdServices
 90
        0
280
     0
281
     0
  0
CLASS
  1
AMDTAMMENUSTATE
  2
AmdtAmMenuState
  3
DesignerAssemblies
 90
        0
280
     0
281
     0
  0
CLASS
  1
ACAMPROJECT
  2
AcAmProject
  3
DesignerAssemblies
 90
        0
280
     0
281
     0
  0
CLASS
  1
ACAMGRCOMPDEF
  2
AcAmGrCompDef
  3
DesignerAssemblies
 90
        0
280
     0
281
     0
  0
CLASS
  1
ACCMCONTEXT
  2
AcCmContext
  3
DesignerAssemblies
 90
        0
280
     0
281
     0
  0
CLASS
  1
ACAMCOMPDEF
  2
AcAmCompDef
  3
DesignerAssemblies
 90
        0
280
     0
281
     0
  0
CLASS
  1
ACAMCOMPDEFMGR
  2
AcAmCompDefMgr
  3
DesignerAssemblies
 90
        0
280
     0
281
     0
  0
CLASS
  1
AMCONTEXTMGR
  2
AcAmContextMgr
  3
DesignerAssemblies
 90
        0
280
     0
281
     0
  0
CLASS
  1
ACAMCONTEXTMODELER
  2
AcAmContextModeler
  3
DesignerAssemblies
 90
        0
280
     0
281
     0
  0
CLASS
  1
ACMDATADICTIONARY
  2
AcmDataDictionary
  3
"AcmSymBB|Product Description: AutoCAD Mechanical 2000|Company: Autodesk"
 90
        0
280
     0
281
     0
  0
CLASS
  1
ACMDATAENTRYBLOCK
  2
AcmDataEntryBlock
  3
"AcmSymBB|Product Description: AutoCAD Mechanical 2000|Company: Autodesk"
 90
        0
280
     0
281
     0
  0
CLASS
  1
CATALOGSTATE
  2
AcAmCatalogState
  3
DesignerAssemblies
 90
        0
280
     0
281
     0
  0
CLASS
  1
ACAMGRCOMPDEFSET
  2
AcAmGrCompDefSet
  3
DesignerAssemblies
 90
        0
280
     0
281
     0
  0
CLASS
  1
AMDTBROWSERDBTAB
  2
AmdtBrowserDbTab
  3
McadcomServices
 90
        0
280
     0
281
     0
  0
CLASS
  1
CBROWSERAPPOBJECT
  2
CBrowserAppObject
  3
McadcomServices
 90
        0
280
     0
281
     0
  0
CLASS
  1
DM_PLACEHOLDER
  2
AcDmSelsetPlaceholder
  3
AcMechDwgViewMgmt
 90
        0
280
     0
281
     0
  0
CLASS
  1
AMGOBJPROPCFG
  2
AmgObjPropCfg
  3
"AmgLay|Product Description: AutoCAD Mechanical 2000|Company: Autodesk"
 90
        1
280
     0
281
     0
  0
CLASS
  1
LAYER_INDEX
  2
AcDbLayerIndex
  3
AutoCAD 2000
 90
        0
280
     0
281
     0
  0
CLASS
  1
IDBUFFER
  2
AcDbIdBuffer
  3
AutoCAD 2000
 90
        0
280
     0
281
     0
  0
CLASS
  1
DICTIONARYVAR
  2
AcDbDictionaryVar
  3
AutoCAD 2000
 90
        0
280
     0
281
     0
  0
CLASS
  1
ACAMGFILTERDAT
  2
AcAmgFilterDat
  3
"AcadM|Product Description: AutoCAD Mechanical 2000|Company: Autodesk"
 90
        0
280
     0
281
     0
  0
ENDSEC
  0
SECTION
  2
TABLES
  0
TABLE
  2
VPORT
  5
14FA
330
0
100
AcDbSymbolTable
 70
     4
  0
VPORT
  5
167B
330
14FA
100
AcDbSymbolTableRecord
100
AcDbViewportTableRecord
  2
*Active
 70
     0
 10
0.0
 20
0.0
 11
1.0
 21
1.0
 12
0.0
 22
0.0
 13
0.0
 23
0.0
 14
30.0
 24
30.0
 15
30.0
 25
30.0
 16
0.0
 26
0.0
 36
1.0
 17
243.2913669064747
 27
163.3132795711481
 37
0.0
 40
326.6618055220675
 41
1.489721886336154
 42
50.0
 43
0.0
 44
0.0
 50
0.0
 51
0.0
 71
     0
 72
   500
 73
     1
 74
     0
 75
     0
 76
     0
 77
     0
 78
     2
281
     0
 65
     0
110
0.0
120
0.0
130
0.0
111
1.0
121
0.0
131
0.0
112
0.0
122
1.0
132
0.0
 79
     0
146
0.0
  0
ENDTAB
  0
TABLE
  2
LTYPE
  5
14F7
330
0
100
AcDbSymbolTable
 70
    16
  0
LTYPE
  5
1505
330
14F7
100
AcDbSymbolTableRecord
100
AcDbLinetypeTableRecord
  2
ByBlock
 70
     0
  3

 72
    65
 73
     0
 40
0.0
  0
LTYPE
  5
1506
330
14F7
100
AcDbSymbolTableRecord
100
AcDbLinetypeTableRecord
  2
ByLayer
 70
     0
  3

 72
    65
 73
     0
 40
0.0
  0
LTYPE
  5
1507
330
14F7
100
AcDbSymbolTableRecord
100
AcDbLinetypeTableRecord
  2
CONTINUOUS
 70
     0
  3
Solid Line
 72
    65
 73
     0
 40
0.0
  0
LTYPE
  5
1515
330
14F7
100
AcDbSymbolTableRecord
100
AcDbLinetypeTableRecord
  2
CENTER
 70
     0
  3
____ _ ____ _ ____ _ ____ _ ____ _ ____ _ ____
 72
    65
 73
     4
 40
2.0
 49
1.25
 74
     0
 49
-0.25
 74
     0
 49
0.25
 74
     0
 49
-0.25
 74
     0
  0
LTYPE
  5
1516
330
14F7
100
AcDbSymbolTableRecord
100
AcDbLinetypeTableRecord
  2
HIDDEN
 70
     0
  3
_ _ _ _ _ _ _ _ _ _ _ _ _ _ _ _ _ _ _ _ _ _ _
 72
    65
 73
     2
 40
0.375
 49
0.25
 74
     0
 49
-0.125
 74
     0
  0
LTYPE
  5
15B9
330
14F7
100
AcDbSymbolTableRecord
100
AcDbLinetypeTableRecord
  2
PHANTOM2
 70
     0
  3
Phantom (.5x) ___ _ _ ___ _ _ ___ _ _ ___ _ _
 72
    65
 73
     6
 40
1.25
 49
0.625
 74
     0
 49
-0.125
 74
     0
 49
0.125
 74
     0
 49
-0.125
 74
     0
 49
0.125
 74
     0
 49
-0.125
 74
     0
  0
LTYPE
  5
161B
330
14F7
100
AcDbSymbolTableRecord
100
AcDbLinetypeTableRecord
  2
ASULTYPE
 70
     0
  3
実線
 72
    65
 73
     2
 40
3.0
 49
2.5
 74
     0
 49
0.5
 74
     0
  0
LTYPE
  5
161C
330
14F7
100
AcDbSymbolTableRecord
100
AcDbLinetypeTableRecord
  2
ASVLTYPE
 70
     0
  3
__ __ __ __ __ __ __ __ __ __ __ __ __ __ __ __ __ __ __ __ __
 72
    65
 73
     2
 40
0.75
 49
0.5
 74
     0
 49
-0.25
 74
     0
  0
LTYPE
  5
165D
330
14F7
100
AcDbSymbolTableRecord
100
AcDbLinetypeTableRecord
  2
AM_ISO02W050
 70
     0
  3
__ __ __ __ __ __ __ __ __ __ __ __ __ __ __
 72
    65
 73
     2
 40
7.5
 49
6.0
 74
     0
 49
-1.5
 74
     0
  0
LTYPE
  5
165E
330
14F7
100
AcDbSymbolTableRecord
100
AcDbLinetypeTableRecord
  2
AM_ISO08W050
 70
     0
  3
____ . ____ . ____ . ____ . ____ . ____ . ____
 72
    65
 73
     4
 40
18.0
 49
12.0
 74
     0
 49
-1.5
 74
     0
 49
3.0
 74
     0
 49
-1.5
 74
     0
  0
LTYPE
  5
165F
330
14F7
100
AcDbSymbolTableRecord
100
AcDbLinetypeTableRecord
  2
AM_ISO09W050
 70
     0
  3
_____ . . _____ . . _____ . . ____ .. ____
 72
    65
 73
     6
 40
22.5
 49
12.0
 74
     0
 49
-1.5
 74
     0
 49
3.0
 74
     0
 49
-1.5
 74
     0
 49
3.0
 74
     0
 49
-1.5
 74
     0
  0
LTYPE
  5
1660
330
14F7
100
AcDbSymbolTableRecord
100
AcDbLinetypeTableRecord
  2
Amconstr
 70
     0
  3
_______________________
 72
    65
 73
     2
 40
9999.0
 49
9999.0
 74
     0
 49
0.0
 74
     0
  0
LTYPE
  5
1661
330
14F7
100
AcDbSymbolTableRecord
100
AcDbLinetypeTableRecord
  2
AM_ISO08W050x2
 70
     0
  3
__ . __ . __ . __ . __ . __
 72
    65
 73
     4
 40
9.0
 49
6.0
 74
     0
 49
-0.75
 74
     0
 49
1.5
 74
     0
 49
-0.75
 74
     0
  0
LTYPE
  5
1662
330
14F7
100
AcDbSymbolTableRecord
100
AcDbLinetypeTableRecord
  2
AM_ISO02W050x2
 70
     0
  3
 _ _ _ _ _ _ _ _ _ _ _ _
 72
    65
 73
     2
 40
3.75
 49
3.0
 74
     0
 49
-0.75
 74
     0
  0
LTYPE
  5
1665
330
14F7
100
AcDbSymbolTableRecord
100
AcDbLinetypeTableRecord
  2
Amzigzag
 70
     0
  3
/\/-/\/-/\/-/\/-/\/-/\/
 72
    65
 73
     2
 40
11.00009999999999
 49
0.0001
 74
     4
 75
   135
340
1664
 46
0.04
 50
0.0
 44
0.0
 45
0.0
 49
-11.0
 74
     0
  0
LTYPE
  5
1666
330
14F7
100
AcDbSymbolTableRecord
100
AcDbLinetypeTableRecord
  2
CENTER2
 70
     0
  3
Center (.5x) ___ _ ___ _ ___ _ ___ _ ___ _ ___
 72
    65
 73
     4
 40
1.125
 49
0.75
 74
     0
 49
-0.125
 74
     0
 49
0.125
 74
     0
 49
-0.125
 74
     0
  0
LTYPE
  5
1667
330
14F7
100
AcDbSymbolTableRecord
100
AcDbLinetypeTableRecord
  2
HIDDEN2
 70
     0
  3
Hidden (.5x) _ _ _ _ _ _ _ _ _ _ _ _ _ _ _ _ _
 72
    65
 73
     2
 40
0.1875
 49
0.125
 74
     0
 49
-0.0625
 74
     0
  0
LTYPE
  5
1668
330
14F7
100
AcDbSymbolTableRecord
100
AcDbLinetypeTableRecord
  2
Amzigzag2
 70
     0
  3
/\/-/\/-/\/-/\/-/\/-/\/
 72
    65
 73
     2
 40
0.4401
 49
0.0001
 74
     4
 75
   135
340
1664
 46
0.0016
 50
0.0
 44
0.0
 45
0.0
 49
-0.4400000000000001
 74
     0
  0
ENDTAB
  0
TABLE
  2
LAYER
  5
14F4
330
0
100
AcDbSymbolTable
 70
     3
  0
LAYER
  5
1502
330
14F4
100
AcDbSymbolTableRecord
100
AcDbLayerTableRecord
  2
0
 70
     0
 62
     5
  6
CONTINUOUS
370
    50
390
1501
  0
LAYER
  5
1517
330
14F4
100
AcDbSymbolTableRecord
100
AcDbLayerTableRecord
  2
1
 70
     0
 62
     1
  6
CENTER
370
    -3
390
1501
  0
LAYER
  5
1518
330
14F4
100
AcDbSymbolTableRecord
100
AcDbLayerTableRecord
  2
2
 70
     0
 62
     7
  6
HIDDEN
370
    -3
390
1501
  0
ENDTAB
  0
TABLE
  2
STYLE
  5
14F5
330
0
100
AcDbSymbolTable
 70
     2
  0
STYLE
  5
1503
330
14F5
100
AcDbSymbolTableRecord
100
AcDbTextStyleTableRecord
  2
STANDARD
 70
     0
 40
0.0
 41
1.0
 50
0.0
 71
     0
 42
0.2
  3
TXT
  4
BIGFONT
  0
STYLE
  5
1664
330
14F5
100
AcDbSymbolTableRecord
100
AcDbTextStyleTableRecord
  2

 70
     1
 40
0.0
 41
1.0
 50
0.0
 71
     0
 42
0.2
  3
ltypeshp.shx
  4

  0
ENDTAB
  0
TABLE
  2
VIEW
  5
14F8
330
0
100
AcDbSymbolTable
 70
     1
  0
VIEW
  5
1519
330
14F8
100
AcDbSymbolTableRecord
100
AcDbViewTableRecord
  2
ALL
 70
     0
 40
810.0
 10
662.9747899159663
 20
405.0
 41
0.0
 11
0.0
 21
0.0
 31
1.0
 12
0.0
 22
0.0
 32
0.0
 42
0.0
 43
0.0
 44
0.0
 50
0.0
 71
     0
281
     0
 72
     0
  0
ENDTAB
  0
TABLE
  2
UCS
  5
14F9
330
0
100
AcDbSymbolTable
 70
     0
  0
ENDTAB
  0
TABLE
  2
APPID
  5
14FB
330
0
100
AcDbSymbolTable
 70
    17
  0
APPID
  5
1504
330
14FB
100
AcDbSymbolTableRecord
100
AcDbRegAppTableRecord
  2
ACAD
 70
     0
  0
APPID
  5
151A
330
14FB
100
AcDbSymbolTableRecord
100
AcDbRegAppTableRecord
  2
DCO15
 70
     0
  0
APPID
  5
151B
330
14FB
100
AcDbSymbolTableRecord
100
AcDbRegAppTableRecord
  2
ACAD_DSTYLE_DIMJAG
 70
     0
  0
APPID
  5
151C
330
14FB
100
AcDbSymbolTableRecord
100
AcDbRegAppTableRecord
  2
ACAD_DSTYLE_DIMTALN
 70
     0
  0
APPID
  5
151D
330
14FB
100
AcDbSymbolTableRecord
100
AcDbRegAppTableRecord
  2
ACAD_EXEMPT_FROM_CAD_STANDARDS
 70
     0
  0
APPID
  5
151E
330
14FB
100
AcDbSymbolTableRecord
100
AcDbRegAppTableRecord
  2
ACAD_MLEADERVER
 70
     0
  0
APPID
  5
1598
330
14FB
100
AcDbSymbolTableRecord
100
AcDbRegAppTableRecord
  2
GENIUS_GENDIM_13
 70
     0
  0
APPID
  5
1599
330
14FB
100
AcDbSymbolTableRecord
100
AcDbRegAppTableRecord
  2
GENIUS_GENDTOL_13
 70
     0
  0
APPID
  5
159A
330
14FB
100
AcDbSymbolTableRecord
100
AcDbRegAppTableRecord
  2
GENIUS_GE3DTOL_13
 70
     0
  0
APPID
  5
159C
330
14FB
100
AcDbSymbolTableRecord
100
AcDbRegAppTableRecord
  2
MCAD_NO_VIS
 70
     0
  0
APPID
  5
159D
330
14FB
100
AcDbSymbolTableRecord
100
AcDbRegAppTableRecord
  2
ACAD_TEMP_GRAPHIC
 70
     0
  0
APPID
  5
15CE
330
14FB
100
AcDbSymbolTableRecord
100
AcDbRegAppTableRecord
  2
AD_DRAW
 70
     0
  0
APPID
  5
15D1
330
14FB
100
AcDbSymbolTableRecord
100
AcDbRegAppTableRecord
  2
ACATTRIBSERVICES
 70
     0
  0
APPID
  5
161D
330
14FB
100
AcDbSymbolTableRecord
100
AcDbRegAppTableRecord
  2
ASURF_PCURVE_APPNAME
 70
     0
  0
APPID
  5
164C
330
14FB
100
AcDbSymbolTableRecord
100
AcDbRegAppTableRecord
  2
DESIGNERASSEMBLIES
 70
     0
  0
APPID
  5
1654
330
14FB
100
AcDbSymbolTableRecord
100
AcDbRegAppTableRecord
  2
ACADM_DIM_EDIT
 70
     0
  0
APPID
  5
1655
330
14FB
100
AcDbSymbolTableRecord
100
AcDbRegAppTableRecord
  2
AMDT_DM_ADJ
 70
     0
  0
ENDTAB
  0
TABLE
  2
DIMSTYLE
  5
14FC
330
0
100
AcDbSymbolTable
 70
     1
100
AcDbDimStyleTable
 71
     0
  0
DIMSTYLE
105
151F
330
14FC
100
AcDbSymbolTableRecord
100
AcDbDimStyleTableRecord
  2
STANDARD
 70
     0
279
     2
340
1503
  0
ENDTAB
  0
TABLE
  2
BLOCK_RECORD
  5
14F3
330
0
100
AcDbSymbolTable
 70
     3
  0
BLOCK_RECORD
  5
1510
102
{ACAD_XDICTIONARY
360
166A
102
}
330
14F3
100
AcDbSymbolTableRecord
100
AcDbBlockTableRecord
  2
*Model_Space
340
1513
  0
BLOCK_RECORD
  5
150C
330
14F3
100
AcDbSymbolTableRecord
100
AcDbBlockTableRecord
  2
*Paper_Space
340
150F
  0
BLOCK_RECORD
  5
1522
330
14F3
100
AcDbSymbolTableRecord
100
AcDbBlockTableRecord
  2
$MODEL_SPACE
340
0
  0
BLOCK_RECORD
  5
1525
330
14F3
100
AcDbSymbolTableRecord
100
AcDbBlockTableRecord
  2
$PAPER_SPACE
340
0
  0
BLOCK_RECORD
  5
1643
330
14F3
100
AcDbSymbolTableRecord
100
AcDbBlockTableRecord
  2
*U2
340
0
  0
ENDTAB
  0
ENDSEC
  0
SECTION
  2
BLOCKS
  0
BLOCK
  5
1511
330
1510
100
AcDbEntity
  8
0
100
AcDbBlockBegin
  2
*Model_Space
 70
     0
 10
0.0
 20
0.0
 30
0.0
  3
*Model_Space
  1

  0
ENDBLK
  5
1512
330
1510
100
AcDbEntity
  8
0
100
AcDbBlockEnd
  0
BLOCK
  5
150D
330
150C
100
AcDbEntity
 67
     1
  8
0
100
AcDbBlockBegin
  2
*Paper_Space
 70
     0
 10
0.0
 20
0.0
 30
0.0
  3
*Paper_Space
  1

  0
ENDBLK
  5
150E
330
150C
100
AcDbEntity
 67
     1
  8
0
100
AcDbBlockEnd
  0
BLOCK
  5
1523
330
1522
100
AcDbEntity
  8
0
100
AcDbBlockBegin
  2
$MODEL_SPACE
 70
     0
 10
0.0
 20
0.0
 30
0.0
  3
$MODEL_SPACE
  1

  0
ENDBLK
  5
1524
330
1522
100
AcDbEntity
  8
0
100
AcDbBlockEnd
  0
BLOCK
  5
1526
330
1525
100
AcDbEntity
  8
0
100
AcDbBlockBegin
  2
$PAPER_SPACE
 70
     0
 10
0.0
 20
0.0
 30
0.0
  3
$PAPER_SPACE
  1

  0
ENDBLK
  5
1527
330
1525
100
AcDbEntity
  8
0
100
AcDbBlockEnd
  0
BLOCK
  5
1644
330
1643
100
AcDbEntity
  8
0
100
AcDbBlockBegin
  2
*U2
 70
     1
 10
0.0
 20
0.0
 30
0.0
  3
*U2
  1

  0
ENDBLK
  5
1645
330
1643
100
AcDbEntity
  8
0
100
AcDbBlockEnd
  0
ENDSEC
  0
SECTION
  2
ENTITIES
  0
LINE
  5
1528
330
1510
100
AcDbEntity
  8
0
100
AcDbLine
 10
91.17811799739603
 20
33.11019937989441
 30
0.0
 11
113.1781179973959
 21
33.11019937989441
 31
0.0
  0
LINE
  5
1529
330
1510
100
AcDbEntity
  8
0
100
AcDbLine
 10
228.1781179973961
 20
33.11019937989441
 30
0.0
 11
228.1781179973961
 21
48.11019937989442
 31
0.0
  0
LINE
  5
152A
330
1510
100
AcDbEntity
  8
0
100
AcDbLine
 10
91.17811799739603
 20
48.11019937989442
 30
0.0
 11
91.17811799739603
 21
33.11019937989441
 31
0.0
  0
LINE
  5
152B
330
1510
100
AcDbEntity
  8
0
100
AcDbLine
 10
113.1781179973959
 20
33.11019937989441
 30
0.0
 11
113.1781179973959
 21
63.11019937989442
 31
0.0
  0
LINE
  5
152C
330
1510
100
AcDbEntity
  8
0
100
AcDbLine
 10
206.178117997396
 20
33.11019937989441
 30
0.0
 11
206.178117997396
 21
63.11019937989442
 31
0.0
  0
LINE
  5
152D
330
1510
100
AcDbEntity
  8
0
100
AcDbLine
 10
228.1781179973961
 20
48.11019937989442
 30
0.0
 11
211.4219989626416
 21
70.60109057956035
 31
0.0
  0
LINE
  5
152E
330
1510
100
AcDbEntity
  8
0
100
AcDbLine
 10
91.17811799739603
 20
48.11019937989442
 30
0.0
 11
107.9342370321504
 21
70.60109057956045
 31
0.0
  0
LINE
  5
152F
330
1510
100
AcDbEntity
  8
2
100
AcDbLine
 10
210.325301557612
 20
48.11019937989442
 30
0.0
 11
228.1781179973961
 21
48.11019937989442
 31
0.0
  0
LINE
  5
1530
330
1510
100
AcDbEntity
  8
0
100
AcDbLine
 10
206.178117997396
 20
33.11019937989441
 30
0.0
 11
228.1781179973961
 21
33.11019937989441
 31
0.0
  0
ARC
  5
1531
330
1510
100
AcDbEntity
  8
0
100
AcDbCircle
 10
203.8559011596432
 20
64.19931919730164
 30
0.0
 40
9.911029855431021
100
AcDbArc
 50
40.23498417009943
 51
90.31488377381441
  0
ARC
  5
1532
330
1510
100
AcDbEntity
  8
0
100
AcDbCircle
 10
115.5003348351487
 20
64.19931919730164
 30
0.0
 40
9.911029855431021
100
AcDbArc
 50
89.68511622618569
 51
139.7650158299005
  0
ARC
  5
1533
330
1510
100
AcDbEntity
  8
0
100
AcDbCircle
 10
117.1781179973959
 20
63.11019937989442
 30
0.0
 40
4.0
100
AcDbArc
 50
90.0
 51
180.0
  0
ARC
  5
1534
330
1510
100
AcDbEntity
  8
0
100
AcDbCircle
 10
202.178117997396
 20
63.11019937989442
 30
0.0
 40
4.0
100
AcDbArc
 50
0.0
 51
90.0
  0
LINE
  5
1535
330
1510
100
AcDbEntity
  8
2
100
AcDbLine
 10
210.3253015576119
 20
48.11019937989442
 30
0.0
 11
210.3253015576119
 21
69.64262810428181
 31
0.0
  0
LINE
  5
1536
330
1510
100
AcDbEntity
  8
1
100
AcDbLine
 10
218.178117997396
 20
28.11019937989442
 30
0.0
 11
218.178117997396
 21
66.53269366572337
 31
0.0
  0
LINE
  5
1537
330
1510
100
AcDbEntity
  8
2
100
AcDbLine
 10
222.428117997396
 20
33.11019937989441
 30
0.0
 11
222.428117997396
 21
39.61019937989442
 31
0.0
  0
LINE
  5
1538
330
1510
100
AcDbEntity
  8
2
100
AcDbLine
 10
224.928117997396
 20
39.61019937989442
 30
0.0
 11
224.928117997396
 21
48.11019937989442
 31
0.0
  0
LINE
  5
1539
330
1510
100
AcDbEntity
  8
2
100
AcDbLine
 10
211.428117997396
 20
48.11019937989442
 30
0.0
 11
211.428117997396
 21
39.61019937989442
 31
0.0
  0
LINE
  5
153A
330
1510
100
AcDbEntity
  8
2
100
AcDbLine
 10
211.428117997396
 20
39.61019937989442
 30
0.0
 11
224.928117997396
 21
39.61019937989442
 31
0.0
  0
LINE
  5
153B
330
1510
100
AcDbEntity
  8
2
100
AcDbLine
 10
213.928117997396
 20
39.61019937989442
 30
0.0
 11
213.928117997396
 21
33.11019937989441
 31
0.0
  0
ARC
  5
153C
330
1510
100
AcDbEntity
  8
2
100
AcDbCircle
 10
205.7902240280888
 20
69.19158635313215
 30
0.0
 40
4.557451794595915
100
AcDbArc
 50
5.679744692824501
 51
67.88168113045784
  0
LINE
  5
153D
330
1510
100
AcDbEntity
  8
0
100
AcDbLine
 10
203.8014301087307
 20
74.11019937989443
 30
0.0
 11
115.5548031886632
 21
74.11019937989443
 31
0.0
  0
LINE
  5
153E
330
1510
100
AcDbEntity
  8
0
100
AcDbLine
 10
202.1781160900474
 20
67.11019937989442
 30
0.0
 11
117.1781179973959
 21
67.11019937989442
 31
0.0
  0
LINE
  5
153F
330
1510
100
AcDbEntity
  8
0
100
AcDbLine
 10
202.1781152999978
 20
68.21019937989444
 30
0.0
 11
117.1781179973959
 21
68.21019937989444
 31
0.0
  0
ARC
  5
1540
330
1510
100
AcDbEntity
  8
0
100
AcDbCircle
 10
117.1781179973959
 20
63.11019937989442
 30
0.0
 40
5.099999999999998
100
AcDbArc
 50
90.0
 51
180.0
  0
LINE
  5
1541
330
1510
100
AcDbEntity
  8
0
100
AcDbLine
 10
112.0781179973959
 20
33.11019937989441
 30
0.0
 11
112.0781179973959
 21
63.11019937989442
 31
0.0
  0
LINE
  5
1542
330
1510
100
AcDbEntity
  8
1
100
AcDbLine
 10
101.1781179973959
 20
28.11019937989442
 30
0.0
 11
101.1781179973959
 21
66.53269366572337
 31
0.0
  0
LINE
  5
1543
330
1510
100
AcDbEntity
  8
1
100
AcDbLine
 10
159.6781166486968
 20
62.11019937989441
 30
0.0
 11
159.6781166486968
 21
79.11019937989443
 31
0.0
  0
LINE
  5
1544
330
1510
100
AcDbEntity
  8
2
100
AcDbLine
 10
105.4281179973959
 20
39.61019937989442
 30
0.0
 11
105.4281179973959
 21
33.11019937989441
 31
0.0
  0
LINE
  5
1545
330
1510
100
AcDbEntity
  8
2
100
AcDbLine
 10
107.9281179973959
 20
39.61019937989442
 30
0.0
 11
94.42811799739605
 21
39.61019937989442
 31
0.0
  0
LINE
  5
1546
330
1510
100
AcDbEntity
  8
2
100
AcDbLine
 10
107.9281179973959
 20
48.11019937989442
 30
0.0
 11
107.9281179973959
 21
39.61019937989442
 31
0.0
  0
LINE
  5
1547
330
1510
100
AcDbEntity
  8
2
100
AcDbLine
 10
109.0309317397817
 20
48.11019937989442
 30
0.0
 11
109.0309317397817
 21
69.64262810428181
 31
0.0
  0
LINE
  5
1548
330
1510
100
AcDbEntity
  8
2
100
AcDbLine
 10
109.0309317397817
 20
48.11019937989442
 30
0.0
 11
91.17811799739603
 21
48.11019937989442
 31
0.0
  0
LINE
  5
1549
330
1510
100
AcDbEntity
  8
2
100
AcDbLine
 10
94.42811799739605
 20
39.61019937989442
 30
0.0
 11
94.42811799739605
 21
48.11019937989442
 31
0.0
  0
LINE
  5
154A
330
1510
100
AcDbEntity
  8
2
100
AcDbLine
 10
96.92811799739605
 20
33.11019937989441
 30
0.0
 11
96.92811799739605
 21
39.61019937989442
 31
0.0
  0
ARC
  5
154B
330
1510
100
AcDbEntity
  8
2
100
AcDbCircle
 10
115.4581031345631
 20
67.61834665325114
 30
0.0
 40
6.738415802759785
100
AcDbArc
 50
117.5095208681472
 51
162.5178235160884
  0
LINE
  5
154C
330
1510
100
AcDbEntity
  8
1
100
AcDbLine
 10
86.17811799739611
 20
149.0279858275547
 30
0.0
 11
233.178117997396
 21
149.0279858275547
 31
0.0
  0
LINE
  5
154D
330
1510
100
AcDbEntity
  8
1
100
AcDbLine
 10
159.678117997396
 20
131.6279858275547
 30
0.0
 11
159.678117997396
 21
166.4279858275547
 31
0.0
  0
LINE
  5
154E
330
1510
100
AcDbEntity
  8
0
100
AcDbLine
 10
91.17811799739612
 20
149.0279858275547
 30
0.0
 11
92.15574357508444
 21
160.20229731305
 31
0.0
  0
LINE
  5
154F
330
1510
100
AcDbEntity
  8
0
100
AcDbLine
 10
91.17811799739603
 20
149.0279858275547
 30
0.0
 11
92.15574357508439
 21
137.8536743420593
 31
0.0
  0
LINE
  5
1550
330
1510
100
AcDbEntity
  8
1
100
AcDbLine
 10
101.1781179973959
 20
158.2779858275547
 30
0.0
 11
101.1781179973959
 21
139.7779858275548
 31
0.0
  0
CIRCLE
  5
1551
330
1510
100
AcDbEntity
  8
0
100
AcDbCircle
 10
101.1781179973959
 20
149.0279858275547
 30
0.0
 40
4.25
  0
LINE
  5
1552
330
1510
100
AcDbEntity
  8
0
100
AcDbLine
 10
109.0309317397817
 20
144.0279858275547
 30
0.0
 11
109.0309317397817
 21
154.0279858275547
 31
0.0
  0
LINE
  5
1553
330
1510
100
AcDbEntity
  8
0
100
AcDbLine
 10
94.55682447019853
 20
158.0279858275547
 30
0.0
 11
105.0309317397818
 21
158.0279858275547
 31
0.0
  0
LINE
  5
1554
330
1510
100
AcDbEntity
  8
0
100
AcDbLine
 10
94.55682447019848
 20
140.0279858275547
 30
0.0
 11
105.0309317397818
 21
140.0279858275547
 31
0.0
  0
ARC
  5
1555
330
1510
100
AcDbEntity
  8
0
100
AcDbCircle
 10
105.0309317397818
 20
154.0279858275547
 30
0.0
 40
4.0
100
AcDbArc
 50
0.0
 51
90.0
  0
ARC
  5
1556
330
1510
100
AcDbEntity
  8
0
100
AcDbCircle
 10
105.0309317397818
 20
144.0279858275547
 30
0.0
 40
4.0
100
AcDbArc
 50
270.0
 51
0.0
  0
ARC
  5
1557
330
1510
100
AcDbEntity
  8
0
100
AcDbCircle
 10
94.38447592927621
 20
161.0415671820811
 30
0.0
 40
3.018505689891533
100
AcDbArc
 50
219.6581053571543
 51
273.2732147632348
  0
ARC
  5
1558
330
1510
100
AcDbEntity
  8
0
100
AcDbCircle
 10
94.38447592927611
 20
137.0144044730283
 30
0.0
 40
3.018505689891533
100
AcDbArc
 50
86.7267852367645
 51
140.3418946428419
  0
LINE
  5
1559
330
1510
100
AcDbEntity
  8
0
100
AcDbLine
 10
113.1781179973959
 20
161.4279858275547
 30
0.0
 11
206.178117997396
 21
161.4279858275549
 31
0.0
  0
LINE
  5
155A
330
1510
100
AcDbEntity
  8
0
100
AcDbLine
 10
113.1781179973959
 20
136.6279858275547
 30
0.0
 11
206.178117997396
 21
136.6279858275548
 31
0.0
  0
LINE
  5
155B
330
1510
100
AcDbEntity
  8
0
100
AcDbLine
 10
113.1781179973959
 20
136.0279858275547
 30
0.0
 11
113.1781179973959
 21
136.6279858275547
 31
0.0
  0
LINE
  5
155C
330
1510
100
AcDbEntity
  8
0
100
AcDbLine
 10
95.64813297126779
 20
162.0279858275547
 30
0.0
 11
113.1781179973959
 21
162.0279858275547
 31
0.0
  0
LINE
  5
155D
330
1510
100
AcDbEntity
  8
0
100
AcDbLine
 10
95.64813297126779
 20
136.0279858275547
 30
0.0
 11
113.1781179973959
 21
136.0279858275547
 31
0.0
  0
ARC
  5
155E
330
1510
100
AcDbEntity
  8
0
100
AcDbCircle
 10
95.49179114318155
 20
158.0738860326868
 30
0.0
 40
3.957189400949122
100
AcDbArc
 50
87.73575181711763
 51
147.4619665818204
  0
ARC
  5
155F
330
1510
100
AcDbEntity
  8
0
100
AcDbCircle
 10
95.49179114318155
 20
139.9820856224226
 30
0.0
 40
3.957189400949152
100
AcDbArc
 50
212.5380334181795
 51
272.2642481828815
  0
LINE
  5
1560
330
1510
100
AcDbEntity
  8
0
100
AcDbLine
 10
96.22186525888919
 20
136.1066148374122
 30
0.0
 11
113.1781179973959
 21
136.6279858275547
 31
0.0
  0
LINE
  5
1561
330
1510
100
AcDbEntity
  8
0
100
AcDbLine
 10
96.22186525888919
 20
161.9493568176973
 30
0.0
 11
113.1781179973959
 21
161.4279858275547
 31
0.0
  0
LINE
  5
1562
330
1510
100
AcDbEntity
  8
0
100
AcDbLine
 10
113.1781179973959
 20
161.4279858275547
 30
0.0
 11
113.1781179973959
 21
162.0279858275548
 31
0.0
  0
LINE
  5
1563
330
1510
100
AcDbEntity
  8
0
100
AcDbLine
 10
206.178117997396
 20
161.4279858275547
 30
0.0
 11
206.178117997396
 21
162.0279858275548
 31
0.0
  0
LINE
  5
1564
330
1510
100
AcDbEntity
  8
0
100
AcDbLine
 10
223.1343707359028
 20
161.9493568176973
 30
0.0
 11
206.178117997396
 21
161.4279858275547
 31
0.0
  0
LINE
  5
1565
330
1510
100
AcDbEntity
  8
0
100
AcDbLine
 10
223.1343707359028
 20
136.1066148374122
 30
0.0
 11
206.178117997396
 21
136.6279858275547
 31
0.0
  0
ARC
  5
1566
330
1510
100
AcDbEntity
  8
0
100
AcDbCircle
 10
223.8644448516105
 20
139.9820856224227
 30
0.0
 40
3.957189400949205
100
AcDbArc
 50
267.7357518171181
 51
327.4619665818203
  0
ARC
  5
1567
330
1510
100
AcDbEntity
  8
0
100
AcDbCircle
 10
223.8644448516105
 20
158.0738860326868
 30
0.0
 40
3.957189400949169
100
AcDbArc
 50
32.53803341817958
 51
92.26424818288228
  0
LINE
  5
1568
330
1510
100
AcDbEntity
  8
0
100
AcDbLine
 10
223.7081030235243
 20
136.0279858275547
 30
0.0
 11
206.178117997396
 21
136.0279858275547
 31
0.0
  0
LINE
  5
1569
330
1510
100
AcDbEntity
  8
0
100
AcDbLine
 10
223.7081030235243
 20
162.0279858275547
 30
0.0
 11
206.178117997396
 21
162.0279858275547
 31
0.0
  0
LINE
  5
156A
330
1510
100
AcDbEntity
  8
0
100
AcDbLine
 10
206.178117997396
 20
136.0279858275547
 30
0.0
 11
206.178117997396
 21
136.6279858275547
 31
0.0
  0
ARC
  5
156B
330
1510
100
AcDbEntity
  8
0
100
AcDbCircle
 10
224.9717600655158
 20
137.0144044730281
 30
0.0
 40
3.018505689891628
100
AcDbArc
 50
39.65810535715807
 51
93.27321476323538
  0
ARC
  5
156C
330
1510
100
AcDbEntity
  8
0
100
AcDbCircle
 10
224.9717600655158
 20
161.0415671820812
 30
0.0
 40
3.018505689891643
100
AcDbArc
 50
266.7267852367651
 51
320.3418946428419
  0
ARC
  5
156D
330
1510
100
AcDbEntity
  8
0
100
AcDbCircle
 10
214.3253038599854
 20
154.0279835251805
 30
0.0
 40
4.000002302374204
100
AcDbArc
 50
89.99999434169081
 51
179.9999670209378
  0
LINE
  5
156E
330
1510
100
AcDbEntity
  8
0
100
AcDbLine
 10
224.7994115245935
 20
140.0279858275547
 30
0.0
 11
214.3253042550103
 21
140.0279858275547
 31
0.0
  0
LINE
  5
156F
330
1510
100
AcDbEntity
  8
0
100
AcDbLine
 10
224.7994115245934
 20
158.0279858275547
 30
0.0
 11
214.3253042550103
 21
158.0279858275547
 31
0.0
  0
LINE
  5
1570
330
1510
100
AcDbEntity
  8
0
100
AcDbLine
 10
210.3253015576119
 20
144.0279858275547
 30
0.0
 11
210.3253015576119
 21
154.0279858275547
 31
0.0
  0
CIRCLE
  5
1571
330
1510
100
AcDbEntity
  8
0
100
AcDbCircle
 10
218.1781179973961
 20
149.0279858275547
 30
0.0
 40
4.25
  0
LINE
  5
1572
330
1510
100
AcDbEntity
  8
1
100
AcDbLine
 10
218.1781179973961
 20
158.2779858275547
 30
0.0
 11
218.1781179973961
 21
139.7779858275548
 31
0.0
  0
LINE
  5
1573
330
1510
100
AcDbEntity
  8
0
100
AcDbLine
 10
228.1781179973961
 20
149.0279858275547
 30
0.0
 11
227.2004924197076
 21
137.8536743420593
 31
0.0
  0
LINE
  5
1574
330
1510
100
AcDbEntity
  8
0
100
AcDbLine
 10
228.178117997396
 20
149.0279858275547
 30
0.0
 11
227.2004924197076
 21
160.20229731305
 31
0.0
  0
LINE
  5
1575
330
1510
100
AcDbEntity
  8
0
100
AcDbLine
 10
293.3139217393788
 20
48.11019937989437
 30
0.0
 11
293.3139217393788
 21
65.80085616214848
 31
0.0
  0
LINE
  5
1576
330
1510
100
AcDbEntity
  8
0
100
AcDbLine
 10
311.3139217393789
 20
48.11019937989437
 30
0.0
 11
311.3139217393788
 21
65.80085149011757
 31
0.0
  0
LINE
  5
1577
330
1510
100
AcDbEntity
  8
0
100
AcDbLine
 10
302.3139217393788
 20
48.11019937989437
 30
0.0
 11
302.3139217393788
 21
33.11019937989441
 31
0.0
  0
LINE
  5
1578
330
1510
100
AcDbEntity
  8
0
100
AcDbLine
 10
311.3139217393788
 20
48.11019937989442
 30
0.0
 11
293.3139217393788
 21
48.11019937989437
 31
0.0
  0
LINE
  5
1579
330
1510
100
AcDbEntity
  8
0
100
AcDbLine
 10
289.9152491816597
 20
71.22432208947121
 30
0.0
 11
289.9152491816597
 21
69.99607667032761
 31
0.0
  0
LINE
  5
157A
330
1510
100
AcDbEntity
  8
2
100
AcDbLine
 10
302.3139217393788
 20
67.11019937989442
 30
0.0
 11
312.8871546506315
 21
68.03523739644822
 31
0.0
  0
LINE
  5
157B
330
1510
100
AcDbEntity
  8
2
100
AcDbLine
 10
302.3139217393788
 20
67.11019937989442
 30
0.0
 11
291.7406888281263
 21
68.03523739644822
 31
0.0
  0
ARC
  5
157C
330
1510
100
AcDbEntity
  8
2
100
AcDbCircle
 10
312.7128431651362
 20
70.02762679263174
 30
0.0
 40
2.0
100
AcDbArc
 50
274.9999999999997
 51
359.0961180826088
  0
ARC
  5
157D
330
1510
100
AcDbEntity
  8
2
100
AcDbCircle
 10
291.9150003136215
 20
70.02762679263174
 30
0.0
 40
2.0
100
AcDbArc
 50
180.9038819173911
 51
265.0000000000003
  0
ARC
  5
157E
330
1510
100
AcDbEntity
  8
0
100
AcDbCircle
 10
291.9150003136215
 20
71.19277196715713
 30
0.0
 40
2.0
100
AcDbArc
 50
94.99999999999976
 51
179.0961180826089
  0
ARC
  5
157F
330
1510
100
AcDbEntity
  8
0
100
AcDbCircle
 10
312.7128431651362
 20
71.19277196715713
 30
0.0
 40
2.0
100
AcDbArc
 50
0.9038819173911353
 51
85.00000000000021
  0
LINE
  5
1580
330
1510
100
AcDbEntity
  8
0
100
AcDbLine
 10
315.3139217393788
 20
33.11019937989441
 30
0.0
 11
289.3139217393788
 21
33.11019937989441
 31
0.0
  0
LINE
  5
1581
330
1510
100
AcDbEntity
  8
1
100
AcDbLine
 10
302.3139217393788
 20
28.11019937989442
 30
0.0
 11
302.3139217393788
 21
79.11019937989443
 31
0.0
  0
LINE
  5
1582
330
1510
100
AcDbEntity
  8
0
100
AcDbLine
 10
302.3139217393788
 20
74.11019937989443
 30
0.0
 11
291.7406888281263
 21
73.18516136334062
 31
0.0
  0
LINE
  5
1583
330
1510
100
AcDbEntity
  8
0
100
AcDbLine
 10
302.3139217393788
 20
74.11019937989443
 30
0.0
 11
312.8871546506315
 21
73.18516136334062
 31
0.0
  0
ARC
  5
1584
330
1510
100
AcDbEntity
  8
0
100
AcDbCircle
 10
307.3139217393788
 20
65.48130786006129
 30
0.0
 40
4.161320244220532
100
AcDbArc
 50
68.30590302137202
 51
90.00000000000019
  0
ARC
  5
1585
330
1510
100
AcDbEntity
  8
0
100
AcDbCircle
 10
307.3758414496554
 20
65.63695189597632
 30
0.0
 40
3.99381168791172
100
AcDbArc
 50
46.1558990711295
 51
68.30590302137096
  0
ARC
  5
1586
330
1510
100
AcDbEntity
  8
0
100
AcDbCircle
 10
307.4715860793564
 20
65.7366397636655
 30
0.0
 40
3.855591916963439
100
AcDbArc
 50
23.32922873948418
 51
46.1558990711295
  0
ARC
  5
1587
330
1510
100
AcDbEntity
  8
0
100
AcDbCircle
 10
307.6204749204308
 20
65.80085149011757
 30
0.0
 40
3.693446818947931
100
AcDbArc
 50
0.0
 51
23.32922873947703
  0
ARC
  5
1588
330
1510
100
AcDbEntity
  8
0
100
AcDbCircle
 10
297.3139217393789
 20
65.48130786006129
 30
0.0
 40
4.161320244220532
100
AcDbArc
 50
89.99999999999982
 51
111.6940969786279
  0
ARC
  5
1589
330
1510
100
AcDbEntity
  8
0
100
AcDbCircle
 10
297.2520020291023
 20
65.63695189597632
 30
0.0
 40
3.99381168791172
100
AcDbArc
 50
111.6940969786289
 51
133.8441009288704
  0
ARC
  5
158A
330
1510
100
AcDbEntity
  8
0
100
AcDbCircle
 10
297.1562573994013
 20
65.7366397636655
 30
0.0
 40
3.855591916963433
100
AcDbArc
 50
133.8441009288704
 51
156.6707712605158
  0
ARC
  5
158B
330
1510
100
AcDbEntity
  8
0
100
AcDbCircle
 10
297.0073685583269
 20
65.80085149011757
 30
0.0
 40
3.693446818947931
100
AcDbArc
 50
156.670771260523
 51
180.0
  0
LINE
  5
158C
330
1510
100
AcDbEntity
  8
0
100
AcDbLine
 10
289.9152491816599
 20
69.99607667031762
 30
0.0
 11
289.3139217393788
 21
33.11019937989441
 31
0.0
  0
LINE
  5
158D
330
1510
100
AcDbEntity
  8
0
100
AcDbLine
 10
314.712594297098
 20
71.22432208947121
 30
0.0
 11
314.712594297098
 21
69.99607667032761
 31
0.0
  0
LINE
  5
158E
330
1510
100
AcDbEntity
  8
0
100
AcDbLine
 10
314.7125942970978
 20
69.99607667031762
 30
0.0
 11
315.3139217393789
 21
33.11019937989441
 31
0.0
  0
CIRCLE
  5
158F
330
1510
100
AcDbEntity
  8
0
100
AcDbCircle
 10
218.1781179973961
 20
149.0279858275548
 30
0.0
 40
6.75
  0
CIRCLE
  5
1590
330
1510
100
AcDbEntity
  8
0
100
AcDbCircle
 10
101.1781179973959
 20
149.0279858275547
 30
0.0
 40
6.75
  0
ARC
  5
1591
330
1510
100
AcDbEntity
  8
0
100
AcDbCircle
 10
214.3253038599854
 20
144.0279881299289
 30
0.0
 40
4.000002302374204
100
AcDbArc
 50
180.0000329790622
 51
270.0000056583092
  0
ARC
  5
1592
330
1510
100
AcDbEntity
  8
0
100
AcDbCircle
 10
202.1781152999978
 20
63.11019937989442
 30
0.0
 40
5.099999999999998
100
AcDbArc
 50
0.000000000000007
 51
90.0
  0
LINE
  5
1593
330
1510
100
AcDbEntity
  8
0
100
AcDbLine
 10
207.2781152999978
 20
33.11019937989441
 30
0.0
 11
207.2781152999978
 21
63.11019937989442
 31
0.0
  0
ENDSEC
  0
SECTION
  2
OBJECTS
  0
DICTIONARY
  5
14FE
330
0
100
AcDbDictionary
281
     1
  3
ACAD_GROUP
350
14FF
  3
ACAD_LAYOUT
350
150B
  3
ACAD_MLINESTYLE
350
1508
  3
ACAD_PLOTSETTINGS
350
150A
  3
ACAD_PLOTSTYLENAME
350
1500
  3
AcDbVariableDictionary
350
1670
  3
AcmDictionary
350
164D
  3
AMG
350
1595
  3
AMGSNAPSETTINGS
350
1674
  3
DWGPROPS
350
1650
  3
MAPISURF_MODULE
350
1620
  0
DICTIONARY
  5
166A
330
1510
100
AcDbDictionary
280
     1
281
     1
  3
ACAD_INDEX
360
166B
  0
DICTIONARY
  5
14FF
102
{ACAD_REACTORS
330
14FE
102
}
330
14FE
100
AcDbDictionary
281
     1
  0
DICTIONARY
  5
150B
102
{ACAD_REACTORS
330
14FE
102
}
330
14FE
100
AcDbDictionary
281
     1
  3
Model
350
1513
  3
ﾚｲｱｳﾄ1
350
150F
  0
DICTIONARY
  5
1508
102
{ACAD_REACTORS
330
14FE
102
}
330
14FE
100
AcDbDictionary
281
     1
  3
Standard
350
1509
  0
DICTIONARY
  5
150A
102
{ACAD_REACTORS
330
14FE
102
}
330
14FE
100
AcDbDictionary
281
     1
  0
ACDBDICTIONARYWDFLT
  5
1500
102
{ACAD_REACTORS
330
14FE
102
}
330
14FE
100
AcDbDictionary
281
     1
  3
Normal
350
1501
100
AcDbDictionaryWithDefault
340
1501
  0
DICTIONARY
  5
1670
102
{ACAD_REACTORS
330
14FE
102
}
330
14FE
100
AcDbDictionary
281
     1
  3
DIMASSOC
350
1672
  3
INDEXCTL
350
1671
  0
DICTIONARY
  5
164D
102
{ACAD_REACTORS
330
14FE
102
}
330
14FE
100
AcDbDictionary
281
     1
  3
AcmBOMDATA
350
164E
  0
DICTIONARY
  5
1595
102
{ACAD_REACTORS
330
14FE
102
}
330
14FE
100
AcDbDictionary
281
     1
  3
AcMgSettings
350
1596
  3
AMGLAYCFG
350
165A
  0
DICTIONARY
  5
1674
102
{ACAD_REACTORS
330
14FE
102
}
330
14FE
100
AcDbDictionary
281
     1
  3
DIMENSION
350
1679
  3
FEA
350
1678
  3
HATCH (1)
350
1675
  3
HATCH (2)
350
1676
  3
SIMPLE WELD
350
167A
  3
SYMBOLS
350
1677
  0
XRECORD
  5
1650
102
{ACAD_REACTORS
330
14FE
102
}
330
14FE
100
AcDbXrecord
280
     1
  1
DWGPROPS COOKIE
  2

  3

  4

  6

  7

  8

  9

300
AmdtFileType=84
301
=
302
=
303
=
304
=
305
=
306
=
307
=
308
=
309
=
 40
0.0566304282407407
 41
2449839.627581018
 42
2456115.414537037
  1

 90
        1
  0
DICTIONARY
  5
166B
102
{ACAD_REACTORS
330
166A
102
}
330
166A
100
AcDbDictionary
281
     1
  3
*A1
350
166C
  0
LAYOUT
  5
1513
102
{ACAD_REACTORS
330
150B
102
}
330
150B
100
AcDbPlotSettings
  1

  2
\\KONISHIDENXP\SHARP MX-2700FG
  4

  6

 40
0.0
 41
0.0
 42
0.0
 43
0.0
 44
0.0
 45
0.0
 46
0.0
 47
0.0
 48
0.0
 49
0.0
140
0.0
141
0.0
142
1.0
143
1.0
 70
  1712
 72
     0
 73
     0
 74
     0
  7

 75
     0
147
1.0
148
0.0
149
0.0
100
AcDbLayout
  1
Model
 70
     1
 71
     0
 10
0.0
 20
0.0
 11
12.0
 21
9.0
 12
0.0
 22
0.0
 32
0.0
 14
0.0
 24
0.0
 34
0.0
 15
0.0
 25
0.0
 35
0.0
146
0.0
 13
0.0
 23
0.0
 33
0.0
 16
1.0
 26
0.0
 36
0.0
 17
0.0
 27
1.0
 37
0.0
 76
     0
330
1510
  0
LAYOUT
  5
150F
102
{ACAD_REACTORS
330
150B
102
}
330
150B
100
AcDbPlotSettings
  1

  2
\\KONISHIDENXP\SHARP MX-2700FG
  4

  6

 40
0.0
 41
0.0
 42
0.0
 43
0.0
 44
0.0
 45
0.0
 46
0.0
 47
0.0
 48
0.0
 49
0.0
140
0.0
141
0.0
142
1.0
143
1.0
 70
   688
 72
     0
 73
     0
 74
     5
  7

 75
    16
147
1.0
148
0.0
149
0.0
100
AcDbLayout
  1
ﾚｲｱｳﾄ1
 70
     0
 71
     1
 10
0.0
 20
0.0
 11
12.0
 21
9.0
 12
0.0
 22
0.0
 32
0.0
 14
1.000000000000000E+20
 24
1.000000000000000E+20
 34
1.000000000000000E+20
 15
-1.000000000000000E+20
 25
-1.000000000000000E+20
 35
-1.000000000000000E+20
146
0.0
 13
0.0
 23
0.0
 33
0.0
 16
1.0
 26
0.0
 36
0.0
 17
0.0
 27
1.0
 37
0.0
 76
     0
330
150C
  0
MLINESTYLE
  5
1509
102
{ACAD_REACTORS
330
1508
102
}
330
1508
100
AcDbMlineStyle
  2
STANDARD
 70
     0
  3

 62
   256
 51
90.0
 52
90.0
 71
     2
 49
0.5
 62
   256
  6
BYLAYER
 49
-0.5
 62
   256
  6
BYLAYER
  0
ACDBPLACEHOLDER
  5
1501
102
{ACAD_REACTORS
330
1500
102
}
330
1500
  0
DICTIONARYVAR
  5
1672
102
{ACAD_REACTORS
330
1670
102
}
330
1670
100
DictionaryVariables
280
     0
  1
0
  0
DICTIONARYVAR
  5
1671
102
{ACAD_REACTORS
330
1670
102
}
330
1670
100
DictionaryVariables
280
     0
  1
1
  0
ACMDATADICTIONARY
  5
164E
102
{ACAD_REACTORS
330
164D
102
}
330
164D
100
AcDbDictionary
281
     1
  3
*A1
350
164F
100
AcmDataDictionary
  0
DICTIONARY
  5
1596
102
{ACAD_REACTORS
330
1595
102
}
330
1595
100
AcDbDictionary
281
     1
  3
DWGSETTINGS
350
1597
  0
ACAMGFILTERDAT
  5
1679
102
{ACAD_REACTORS
330
1674
102
}
330
1674
100
AcAmgFilterDat
 70
    15
  1
DIMENSION,AMDT_*_DIM
  2
*
  3
*
  4
*
  5
*
290
     1
  0
ACAMGFILTERDAT
  5
1678
102
{ACAD_REACTORS
330
1674
102
}
330
1674
100
AcAmgFilterDat
 70
    15
  1
*
  2
AM_FEA-AM_*
  3
*
  4
*
  5
*
290
     1
  0
ACAMGFILTERDAT
  5
1675
102
{ACAD_REACTORS
330
1674
102
}
330
1674
100
AcAmgFilterDat
 70
    15
  1
HATCH
  2
*
  3
*
  4
*
  5
*
290
     1
  0
ACAMGFILTERDAT
  5
1676
102
{ACAD_REACTORS
330
1674
102
}
330
1674
100
AcAmgFilterDat
 70
    15
  1
LINE
  2
8,8N,*-8,*-8N,AM_8,AM_8N,*-AM_8,*-AM_8N
  3
*
  4
*
  5
INSERT,STDPART2D
290
     1
  0
ACAMGFILTERDAT
  5
167A
102
{ACAD_REACTORS
330
1674
102
}
330
1674
100
AcAmgFilterDat
 70
    15
  1
ARC
  2
AM_5
  3
*
  4
2
  5
INSERT
290
     0
  0
ACAMGFILTERDAT
  5
1677
102
{ACAD_REACTORS
330
1674
102
}
330
1674
100
AcAmgFilterDat
 70
    15
  1
ACMFCFRAME,ACMDATUMTARGET,ACMDATUMID,ACMWELDSYM,ACMSURFSYM,ACMFEATID,ACMPARTREF,ACMBALLOON,AMDTEDGESYM,AMGSCREWCALCTABLE
  2
*
  3
*
  4
*
  5
*
290
     1
  0
LAYER_INDEX
  5
166C
102
{ACAD_REACTORS
330
166B
102
}
330
166B
100
AcDbIndex
 40
2456447.69831434
100
AcDbLayerIndex
  8
0
360
166D
 90
       80
  8
1
360
166E
 90
        8
  8
2
360
166F
 90
       20
  0
ACMDATAENTRYBLOCK
  5
164F
102
{ACAD_REACTORS
330
164E
102
}
330
164E
100
AcmDataEntry
100
AcmDataEntryBlock
  0
IDBUFFER
  5
166D
330
0
100
AcDbIdBuffer
330
156E
330
156F
330
1570
330
1571
330
1573
330
1574
330
1575
330
1576
330
1577
330
1578
330
1579
330
157E
330
157F
330
1580
330
1582
330
1583
330
1584
330
1585
330
1586
330
1587
330
1588
330
1589
330
158A
330
158B
330
158C
330
158D
330
158E
330
158F
330
1590
330
1591
330
1592
330
1593
330
1528
330
1529
330
152A
330
152B
330
152C
330
152D
330
152E
330
1530
330
1531
330
1532
330
1533
330
1534
330
153D
330
153E
330
153F
330
1540
330
1541
330
154E
330
154F
330
1551
330
1552
330
1553
330
1554
330
1555
330
1556
330
1557
330
1558
330
1559
330
155A
330
155B
330
155C
330
155D
330
155E
330
155F
330
1560
330
1561
330
1562
330
1563
330
1564
330
1565
330
1566
330
1567
330
1568
330
1569
330
156A
330
156B
330
156C
330
156D
  0
IDBUFFER
  5
166E
330
0
100
AcDbIdBuffer
330
1536
330
1542
330
1543
330
154C
330
154D
330
1550
330
1572
330
1581
  0
IDBUFFER
  5
166F
330
0
100
AcDbIdBuffer
330
157A
330
157B
330
157C
330
157D
330
152F
330
1535
330
1537
330
1538
330
1539
330
153A
330
153B
330
153C
330
1544
330
1545
330
1546
330
1547
330
1548
330
1549
330
154A
330
154B
  0
ENDSEC
  0
EOF
