  0
SECTION
  2
HEADER
  9
$ACADVER
  1
AC1009
  9
$INSBASE
 10
0.0
 20
0.0
 30
0.0
  9
$EXTMIN
 10
-0.0414808736400119
 20
-0.0252173676394705
 30
-0.0015258207003583
  9
$EXTMAX
 10
1343.0042129962419
 20
265.95395008985651
 30
0.0000000349246037
  9
$LIMMIN
 10
0.0
 20
0.0
  9
$LIMMAX
 10
1125.0
 20
810.0
  9
$ORTHOMODE
 70
     1
  9
$REGENMODE
 70
     1
  9
$FILLMODE
 70
     1
  9
$QTEXTMODE
 70
     0
  9
$MIRRTEXT
 70
     0
  9
$DRAGMODE
 70
     2
  9
$LTSCALE
 40
30.0
  9
$OSMODE
 70
   231
  9
$ATTMODE
 70
     1
  9
$TEXTSIZE
 40
0.2
  9
$TRACEWID
 40
0.05
  9
$TEXTSTYLE
  7
STANDARD
  9
$CLAYER
  8
0
  9
$CELTYPE
  6
BYLAYER
  9
$CECOLOR
 62
   256
  9
$DIMSCALE
 40
3.0
  9
$DIMASZ
 40
3.0
  9
$DIMEXO
 40
2.0
  9
$DIMDLI
 40
0.38
  9
$DIMRND
 40
0.0
  9
$DIMDLE
 40
0.0
  9
$DIMEXE
 40
2.0
  9
$DIMTP
 40
0.0
  9
$DIMTM
 40
0.0
  9
$DIMTXT
 40
3.2000000000000002
  9
$DIMCEN
 40
0.0
  9
$DIMTSZ
 40
0.0
  9
$DIMTOL
 70
     0
  9
$DIMLIM
 70
     0
  9
$DIMTIH
 70
     0
  9
$DIMTOH
 70
     0
  9
$DIMSE1
 70
     0
  9
$DIMSE2
 70
     0
  9
$DIMTAD
 70
     1
  9
$DIMZIN
 70
     0
  9
$DIMBLK
  1

  9
$DIMASO
 70
     0
  9
$DIMSHO
 70
     0
  9
$DIMPOST
  1

  9
$DIMAPOST
  1

  9
$DIMALT
 70
     0
  9
$DIMALTD
 70
     2
  9
$DIMALTF
 40
25.399999999999999
  9
$DIMLFAC
 40
1.0
  9
$DIMTOFL
 70
     1
  9
$DIMTVP
 40
1.6000000000000001
  9
$DIMTIX
 70
     1
  9
$DIMSOXD
 70
     0
  9
$DIMSAH
 70
     0
  9
$DIMBLK1
  1

  9
$DIMBLK2
  1

  9
$DIMSTYLE
  2
STANDARD
  9
$DIMCLRD
 70
     0
  9
$DIMCLRE
 70
     0
  9
$DIMCLRT
 70
     0
  9
$DIMTFAC
 40
1.0
  9
$DIMGAP
 40
0.09
  9
$LUNITS
 70
     2
  9
$LUPREC
 70
     4
  9
$SKETCHINC
 40
0.1
  9
$FILLETRAD
 40
0.0
  9
$AUNITS
 70
     0
  9
$AUPREC
 70
     4
  9
$MENU
  1
E:\r13\win\SUPPORT\ACAD
  9
$ELEVATION
 40
0.0
  9
$PELEVATION
 40
0.0
  9
$THICKNESS
 40
0.0
  9
$LIMCHECK
 70
     0
  9
$BLIPMODE
 70
     1
  9
$CHAMFERA
 40
0.0
  9
$CHAMFERB
 40
0.0
  9
$SKPOLY
 70
     0
  9
$TDCREATE
 40
2449839.627581018
  9
$TDUPDATE
 40
2453236.836773356
  9
$TDINDWG
 40
0.0251616204
  9
$TDUSRTIMER
 40
0.0251616204
  9
$USRTIMER
 70
     1
  9
$ANGBASE
 50
0.0
  9
$ANGDIR
 70
     0
  9
$PDMODE
 70
     0
  9
$PDSIZE
 40
0.0
  9
$PLINEWID
 40
0.0
  9
$COORDS
 70
     0
  9
$SPLFRAME
 70
     0
  9
$SPLINETYPE
 70
     6
  9
$SPLINESEGS
 70
     8
  9
$ATTDIA
 70
     0
  9
$ATTREQ
 70
     1
  9
$HANDLING
 70
-16383
  9
$HANDSEED
  5
11A9
  9
$SURFTAB1
 70
     6
  9
$SURFTAB2
 70
     6
  9
$SURFTYPE
 70
     6
  9
$SURFU
 70
     6
  9
$SURFV
 70
     6
  9
$UCSNAME
  2

  9
$UCSORG
 10
0.0
 20
0.0
 30
0.0
  9
$UCSXDIR
 10
1.0
 20
0.0
 30
0.0
  9
$UCSYDIR
 10
0.0
 20
1.0
 30
0.0
  9
$PUCSNAME
  2

  9
$PUCSORG
 10
0.0
 20
0.0
 30
0.0
  9
$PUCSXDIR
 10
1.0
 20
0.0
 30
0.0
  9
$PUCSYDIR
 10
0.0
 20
1.0
 30
0.0
  9
$USERI1
 70
     0
  9
$USERI2
 70
     1
  9
$USERI3
 70
     0
  9
$USERI4
 70
     0
  9
$USERI5
 70
     0
  9
$USERR1
 40
0.0
  9
$USERR2
 40
0.0
  9
$USERR3
 40
0.0
  9
$USERR4
 40
0.0
  9
$USERR5
 40
0.0
  9
$WORLDVIEW
 70
     1
  9
$SHADEDGE
 70
     3
  9
$SHADEDIF
 70
    70
  9
$TILEMODE
 70
     1
  9
$MAXACTVP
 70
    16
  9
$PLIMCHECK
 70
     0
  9
$PEXTMIN
 10
1.0000000000000000E+020
 20
1.0000000000000000E+020
 30
1.0000000000000000E+020
  9
$PEXTMAX
 10
-1.0000000000000000E+020
 20
-1.0000000000000000E+020
 30
-1.0000000000000000E+020
  9
$PLIMMIN
 10
0.0
 20
0.0
  9
$PLIMMAX
 10
12.0
 20
9.0
  9
$UNITMODE
 70
     0
  9
$VISRETAIN
 70
     0
  9
$PLINEGEN
 70
     0
  9
$PSLTSCALE
 70
     0
  0
ENDSEC
  0
SECTION
  2
TABLES
  0
TABLE
  2
VPORT
 70
     3
  0
VPORT
  2
*ACTIVE
 70
     0
 10
0.0
 20
0.0
 11
1.0
 21
1.0
 12
671.48136606130106
 22
132.9643663611084
 13
0.0
 23
0.0
 14
30.0
 24
30.0
 15
30.0
 25
30.0
 16
0.0
 26
0.0
 36
1.0
 17
0.0
 27
0.0
 37
0.0
 40
1599.6367242209351
 41
0.9407114624505929
 42
50.0
 43
0.0
 44
0.0
 50
0.0
 51
0.0
 71
     0
 72
   500
 73
     1
 74
     0
 75
     0
 76
     0
 77
     0
 78
     2
  0
ENDTAB
  0
TABLE
  2
LTYPE
 70
     3
  0
LTYPE
  2
CONTINUOUS
 70
     0
  3
Solid Line
 72
    65
 73
     0
 40
0.0
  0
LTYPE
  2
CENTER
 70
     0
  3
____ _ ____ _ ____ _ ____ _ ____ _ ____ _ ____
 72
    65
 73
     4
 40
2.0
 49
1.25
 49
-0.25
 49
0.25
 49
-0.25
  0
LTYPE
  2
HIDDEN
 70
     0
  3
_ _ _ _ _ _ _ _ _ _ _ _ _ _ _ _ _ _ _ _ _ _ _
 72
    65
 73
     2
 40
0.375
 49
0.25
 49
-0.125
  0
ENDTAB
  0
TABLE
  2
LAYER
 70
     5
  0
LAYER
  2
0
 70
     0
 62
     7
  6
CONTINUOUS
  0
LAYER
  2
1
 70
     0
 62
     1
  6
CENTER
  0
LAYER
  2
11
 70
     0
 62
     3
  6
CONTINUOUS
  0
LAYER
  2
ITTEN
 70
     0
 62
     1
  6
CENTER
  0
LAYER
  2
2
 70
     0
 62
     2
  6
HIDDEN
  0
ENDTAB
  0
TABLE
  2
STYLE
 70
     1
  0
STYLE
  2
STANDARD
 70
     0
 40
0.0
 41
1.0
 50
0.0
 71
     0
 42
0.2
  3
TXT
  4
BIGFONT
  0
ENDTAB
  0
TABLE
  2
VIEW
 70
     1
  0
VIEW
  2
ALL
 70
     0
 40
810.0
 10
662.97478991596643
 20
405.0
 41
0.0
 11
0.0
 21
0.0
 31
1.0
 12
0.0
 22
0.0
 32
0.0
 42
0.0
 43
0.0
 44
0.0
 50
0.0
 71
     0
  0
ENDTAB
  0
TABLE
  2
UCS
 70
     0
  0
ENDTAB
  0
TABLE
  2
APPID
 70
     2
  0
APPID
  2
ACAD
 70
     0
  0
APPID
  2
DCO15
 70
     0
  0
ENDTAB
  0
TABLE
  2
DIMSTYLE
 70
     1
  0
DIMSTYLE
  2
STANDARD
 70
     0
  3

  4

  5

  6

  7

 40
1.0
 41
0.18
 42
0.0625
 43
0.38
 44
0.18
 45
0.0
 46
0.0
 47
0.0
 48
0.0
140
0.18
141
0.09
142
0.0
143
25.399999999999999
144
1.0
145
0.0
146
1.0
147
0.09
 71
     0
 72
     0
 73
     1
 74
     1
 75
     0
 76
     0
 77
     0
 78
     0
170
     0
171
     2
172
     0
173
     0
174
     0
175
     0
176
     0
177
     0
178
     0
  0
ENDTAB
  0
ENDSEC
  0
SECTION
  2
BLOCKS
  0
BLOCK
  8
0
  2
$MODEL_SPACE
 70
     0
 10
0.0
 20
0.0
 30
0.0
  3
$MODEL_SPACE
  1

  0
ENDBLK
  5
16D
  8
0
  0
BLOCK
 67
     1
  8
0
  2
$PAPER_SPACE
 70
     0
 10
0.0
 20
0.0
 30
0.0
  3
$PAPER_SPACE
  1

  0
ENDBLK
  5
16B
 67
     1
  8
0
  0
BLOCK
  8
0
  2
STDGX5
 70
     0
 10
0.0
 20
0.0
 30
0.0
  3
STDGX5
  1

  0
ENDBLK
  5
339
  8
0
  0
BLOCK
  8
0
  2
BATU
 70
     0
 10
0.0
 20
0.0
 30
0.0
  3
BATU
  1

  0
LINE
  5
7CF
  8
ITTEN
 10
0.5
 20
0.0
 30
0.0
 11
-0.5
 21
0.0
 31
0.0
  0
LINE
  5
7D0
  8
ITTEN
 10
0.0
 20
0.5
 30
0.0
 11
0.0
 21
-0.5
 31
0.0
  0
ENDBLK
  5
7D1
  8
0
  0
ENDSEC
  0
SECTION
  2
ENTITIES
  0
INSERT
  5
B2E
  8
11
  2
STDGX5
 10
1334.5155063424691
 20
-1.4582556483273941
 30
0.0
  0
INSERT
  5
B2F
  8
11
  2
STDGX5
 10
1334.5155063424691
 20
-1.4582556483273941
 30
0.0
  0
INSERT
  5
B30
  8
11
  2
STDGX5
 10
1334.5155063424691
 20
-1.4582556483273941
 30
0.0
  0
INSERT
  5
B31
  8
11
  2
STDGX5
 10
1334.5155063424691
 20
-1.4582556483273941
 30
0.0
  0
INSERT
  5
B32
  8
11
  2
STDGX5
 10
1334.5155063424691
 20
-1.4582556483273941
 30
0.0
  0
INSERT
  5
B33
  8
11
  2
STDGX5
 10
1334.5155063424691
 20
-1.4582556483273941
 30
0.0
  0
INSERT
  5
B34
  8
11
  2
STDGX5
 10
1334.5155063424691
 20
-1.4582556483273941
 30
0.0
  0
INSERT
  5
B35
  8
0
  2
BATU
 10
1342.96272586894
 20
265.89634184886557
 30
0.0
 41
0.0009999999999764
 42
0.0009999999999999
 43
0.001
  0
LINE
  5
1083
  8
ITTEN
 10
0.0005
 20
0.0
 30
0.0
 11
-0.0005
 21
0.0
 31
0.0
  0
LINE
  5
1084
  8
ITTEN
 10
0.0
 20
0.0005
 30
0.0
 11
0.0
 21
-0.0005
 31
0.0
  0
LINE
  5
10F1
  8
ITTEN
 10
0.0005
 20
0.0
 30
0.0
 11
-0.0005
 21
0.0
 31
0.0
  0
LINE
  5
10F2
  8
ITTEN
 10
0.0
 20
0.0005
 30
0.0
 11
0.0
 21
-0.0005
 31
0.0
  0
LINE
  5
10F4
  8
0
  6
CONTINUOUS
 62
     7
 10
112.8235931288071
 20
70.0
 30
0.0
 11
132.32359312880709
 21
70.0
 31
0.0
  0
LINE
  5
10F5
  8
0
  6
CONTINUOUS
 62
     7
 10
246.82359312880709
 20
70.0
 30
0.0
 11
246.82359312880709
 21
85.000000000000028
 31
0.0
  0
LINE
  5
10F6
  8
0
  6
CONTINUOUS
 62
     7
 10
112.8235931288071
 20
85.0
 30
0.0
 11
112.8235931288071
 21
70.0
 31
0.0
  0
LINE
  5
10F7
  8
0
  6
CONTINUOUS
 62
     7
 10
132.32359312880709
 20
70.0
 30
0.0
 11
132.32359312880709
 21
100.5
 31
0.0
  0
LINE
  5
10F8
  8
0
  6
CONTINUOUS
 62
     7
 10
227.32359312880709
 20
70.0
 30
0.0
 11
227.32359312880709
 21
100.5
 31
0.0
  0
LINE
  5
10F9
  8
0
  6
CONTINUOUS
 62
     7
 10
246.82359312880709
 20
85.0
 30
0.0
 11
231.56747409405281
 21
107.4908911996659
 31
0.0
  0
LINE
  5
10FA
  8
0
  6
CONTINUOUS
 62
     7
 10
112.8235931288071
 20
85.0
 30
0.0
 11
128.07971216356151
 21
107.490891199666
 31
0.0
  0
LINE
  5
10FB
  8
2
  6
HIDDEN
 10
230.82359312880709
 20
85.0
 30
0.0
 11
246.82359312880709
 21
84.999999999999986
 31
0.0
  0
LINE
  5
10FC
  8
0
  6
CONTINUOUS
 62
     7
 10
227.32359312880709
 20
70.0
 30
0.0
 11
246.82359312880709
 21
70.0
 31
0.0
  0
ARC
  5
10FD
  8
0
  6
CONTINUOUS
 62
     7
 10
224.94690793753989
 20
103.0
 30
0.0
 40
8.0
 50
34.149999999999913
 51
90.0
  0
ARC
  5
10FE
  8
0
  6
CONTINUOUS
 62
     7
 10
134.7002783200742
 20
103.0
 30
0.0
 40
8.0
 50
90.0
 51
145.84999999999991
  0
ARC
  5
10FF
  8
0
  6
CONTINUOUS
 62
     7
 10
136.32359312880709
 20
100.5
 30
0.0
 40
4.0
 50
90.0
 51
179.99999999999989
  0
ARC
  5
1100
  8
0
  6
CONTINUOUS
 62
     7
 10
223.32359312880709
 20
100.5
 30
0.0
 40
4.0
 50
0.0
 51
90.0
  0
LINE
  5
1101
  8
2
  6
HIDDEN
 10
230.82359312880709
 20
85.0
 30
0.0
 11
230.82359312880709
 21
106.5324287243873
 31
0.0
  0
LINE
  5
1102
  8
1
  6
CENTER
 10
238.32359312880709
 20
65.0
 30
0.0
 11
238.32359312880709
 21
106.437796653261
 31
0.0
  0
LINE
  5
1103
  8
2
  6
HIDDEN
 10
242.57359312880709
 20
70.0
 30
0.0
 11
242.57359312880709
 21
76.5
 31
0.0
  0
LINE
  5
1104
  8
2
  6
HIDDEN
 10
245.073593128807
 20
76.5
 30
0.0
 11
245.073593128807
 21
85.0
 31
0.0
  0
LINE
  5
1105
  8
2
  6
HIDDEN
 10
231.573593128807
 20
85.0
 30
0.0
 11
231.573593128807
 21
76.5
 31
0.0
  0
LINE
  5
1106
  8
2
  6
HIDDEN
 10
231.573593128807
 20
76.5
 30
0.0
 11
245.073593128807
 21
76.5
 31
0.0
  0
LINE
  5
1107
  8
2
  6
HIDDEN
 10
234.07359312880709
 20
76.5
 30
0.0
 11
234.07359312880709
 21
70.0
 31
0.0
  0
ARC
  5
1108
  8
0
  6
CONTINUOUS
 62
     7
 10
226.82359312880709
 20
106.5324287243873
 30
0.0
 40
4.0
 50
0.0
 51
62.019482878506629
  0
LINE
  5
1109
  8
0
  6
CONTINUOUS
 62
     7
 10
224.94690524014169
 20
111.0
 30
0.0
 11
134.7002783200742
 21
111.0
 31
0.0
  0
LINE
  5
110A
  8
0
  6
CONTINUOUS
 62
     7
 10
223.32359122145851
 20
104.4999999999999
 30
0.0
 11
136.32359312880709
 21
104.4999999999999
 31
0.0
  0
LINE
  5
110B
  8
0
  6
CONTINUOUS
 62
     7
 10
223.67640496384419
 20
105.59999999999999
 30
0.0
 11
136.32359312880709
 21
105.59999999999999
 31
0.0
  0
ARC
  5
110C
  8
0
  6
CONTINUOUS
 62
     7
 10
136.32359312880709
 20
100.5
 30
0.0
 40
5.0999999999999988
 50
90.0
 51
179.99999999999989
  0
LINE
  5
110D
  8
0
  6
CONTINUOUS
 62
     7
 10
131.2235931288071
 20
70.0
 30
0.0
 11
131.2235931288071
 21
100.5
 31
0.0
  0
LINE
  5
110E
  8
1
  6
CENTER
 10
121.3235931288071
 20
65.0
 30
0.0
 11
121.3235931288071
 21
106.4377966532609
 31
0.0
  0
LINE
  5
110F
  8
1
  6
CENTER
 10
180.0
 20
99.0
 30
0.0
 11
180.0
 21
116.0
 31
0.0
  0
ARC
  5
1110
  8
0
  6
CONTINUOUS
 62
     7
 10
223.6764068711928
 20
100.5
 30
0.0
 40
5.0999999999999988
 50
0.0000000000000763
 51
90.000000000000028
  0
LINE
  5
1111
  8
0
  6
CONTINUOUS
 62
     7
 10
228.77640687119279
 20
70.0
 30
0.0
 11
228.77640687119279
 21
100.5
 31
0.0
  0
LINE
  5
1112
  8
2
  6
HIDDEN
 10
125.9264068711929
 20
76.5
 30
0.0
 11
125.9264068711929
 21
70.0
 31
0.0
  0
LINE
  5
1113
  8
2
  6
HIDDEN
 10
128.42640687119291
 20
76.5
 30
0.0
 11
114.9264068711929
 21
76.5
 31
0.0
  0
LINE
  5
1114
  8
2
  6
HIDDEN
 10
128.42640687119291
 20
85.0
 30
0.0
 11
128.42640687119291
 21
76.5
 31
0.0
  0
LINE
  5
1115
  8
2
  6
HIDDEN
 10
129.17640687119291
 20
85.0
 30
0.0
 11
129.17640687119291
 21
106.5324287243873
 31
0.0
  0
LINE
  5
1116
  8
2
  6
HIDDEN
 10
129.17640687119291
 20
85.0
 30
0.0
 11
113.1764068711929
 21
84.999999999999986
 31
0.0
  0
LINE
  5
1117
  8
2
  6
HIDDEN
 10
114.9264068711929
 20
76.5
 30
0.0
 11
114.9264068711929
 21
85.0
 31
0.0
  0
LINE
  5
1118
  8
2
  6
HIDDEN
 10
117.4264068711929
 20
70.0
 30
0.0
 11
117.4264068711929
 21
76.5
 31
0.0
  0
ARC
  5
1119
  8
0
  6
CONTINUOUS
 62
     7
 10
133.17640687119291
 20
106.5324287243873
 30
0.0
 40
4.0
 50
117.98051712149341
 51
180.0
  0
LINE
  5
111A
  8
1
  6
CENTER
 10
107.8235931288071
 20
180.0
 30
0.0
 11
251.82359312880709
 21
180.0
 31
0.0
  0
LINE
  5
111B
  8
1
  6
CENTER
 10
179.82359312880709
 20
162.0
 30
0.0
 11
179.82359312880709
 21
198.0
 31
0.0
  0
LINE
  5
111C
  8
0
  6
CONTINUOUS
 62
     7
 10
116.85357815493521
 20
192.9999999999998
 30
0.0
 11
115.7936081026789
 21
192.99999999999969
 31
0.0
  0
LINE
  5
111D
  8
0
  6
CONTINUOUS
 62
     7
 10
116.85357815493521
 20
166.9999999999998
 30
0.0
 11
115.7936081026789
 21
166.99999999999969
 31
0.0
  0
LINE
  5
111E
  8
0
  6
CONTINUOUS
 62
     7
 10
112.823593128807
 20
180.0
 30
0.0
 11
113.8012187064954
 21
191.17431148549531
 31
0.0
  0
LINE
  5
111F
  8
0
  6
CONTINUOUS
 62
     7
 10
112.823593128807
 20
180.0
 30
0.0
 11
113.80121870649531
 21
168.82568851450469
 31
0.0
  0
LINE
  5
1120
  8
1
  6
CENTER
 10
121.3235931288071
 20
189.25
 30
0.0
 11
121.3235931288071
 21
170.75000000000011
 31
0.0
  0
CIRCLE
  5
1121
  8
0
  6
CONTINUOUS
 62
     7
 10
121.3235931288071
 20
180.0
 30
0.0
 40
4.25
  0
LINE
  5
1122
  8
1
  6
CENTER
 10
134.7002783200742
 20
179.99999999999989
 30
0.0
 11
224.94690793753989
 21
180.00000000000011
 31
0.0
  0
LINE
  5
1123
  8
0
  6
CONTINUOUS
 62
     7
 10
129.17640687119291
 20
175.0
 30
0.0
 11
129.17640687119291
 21
185.0
 31
0.0
  0
LINE
  5
1124
  8
0
  6
CONTINUOUS
 62
     7
 10
114.7022996016096
 20
188.99999999999989
 30
0.0
 11
125.1764068711929
 21
189.0
 31
0.0
  0
LINE
  5
1125
  8
0
  6
CONTINUOUS
 62
     7
 10
114.7022996016096
 20
171.0
 30
0.0
 11
125.1764068711929
 21
171.0
 31
0.0
  0
ARC
  5
1126
  8
0
  6
CONTINUOUS
 62
     7
 10
125.1764068711929
 20
185.0
 30
0.0
 40
4.0
 50
0.0
 51
90.0
  0
ARC
  5
1127
  8
0
  6
CONTINUOUS
 62
     7
 10
125.1764068711929
 20
175.0
 30
0.0
 40
4.0
 50
270.0
 51
0.0
  0
ARC
  5
1128
  8
0
  6
CONTINUOUS
 62
     7
 10
114.7022996016096
 20
189.99999999999989
 30
0.0
 40
1.0
 50
174.9999999999996
 51
269.99999999999989
  0
ARC
  5
1129
  8
0
  6
CONTINUOUS
 62
     7
 10
114.7022996016096
 20
170.0
 30
0.0
 40
1.0
 50
90.0
 51
184.99999999999949
  0
CIRCLE
  5
112A
  8
0
  6
CONTINUOUS
 62
     7
 10
121.3235931288071
 20
180.0
 30
0.0
 40
6.397186257614222
  0
LINE
  5
112B
  8
0
  6
CONTINUOUS
 62
     7
 10
132.32359312880709
 20
192.39999999999989
 30
0.0
 11
227.32359312880709
 21
192.40000000000009
 31
0.0
  0
LINE
  5
112C
  8
0
  6
CONTINUOUS
 62
     7
 10
132.32359312880709
 20
167.59999999999991
 30
0.0
 11
227.32359312880709
 21
167.60000000000011
 31
0.0
  0
LINE
  5
112D
  8
0
  6
CONTINUOUS
 62
     7
 10
132.32359312880709
 20
167.0
 30
0.0
 11
132.32359312880709
 21
167.59999999999991
 31
0.0
  0
LINE
  5
112E
  8
0
  6
CONTINUOUS
 62
     7
 10
115.7936081026789
 20
193.0
 30
0.0
 11
132.32359312880709
 21
193.0
 31
0.0
  0
LINE
  5
112F
  8
0
  6
CONTINUOUS
 62
     7
 10
115.7936081026788
 20
166.99999999999989
 30
0.0
 11
132.32359312880709
 21
167.0
 31
0.0
  0
ARC
  5
1130
  8
0
  6
CONTINUOUS
 62
     7
 10
115.7936081026789
 20
191.0
 30
0.0
 40
2.0
 50
90.000000000000057
 51
175.0
  0
ARC
  5
1131
  8
0
  6
CONTINUOUS
 62
     7
 10
115.7936081026788
 20
168.99999999999989
 30
0.0
 40
2.0
 50
185.00000000000011
 51
269.99999999999989
  0
LINE
  5
1132
  8
0
  6
CONTINUOUS
 62
     7
 10
116.3673403903003
 20
167.07862900985739
 30
0.0
 11
132.32359312880709
 21
167.59999999999991
 31
0.0
  0
LINE
  5
1133
  8
0
  6
CONTINUOUS
 62
     7
 10
116.3673403903003
 20
192.92137099014249
 30
0.0
 11
132.32359312880709
 21
192.40000000000009
 31
0.0
  0
LINE
  5
1134
  8
0
  6
CONTINUOUS
 62
     7
 10
132.32359312880709
 20
192.40000000000009
 30
0.0
 11
132.32359312880709
 21
193.0
 31
0.0
  0
LINE
  5
1135
  8
0
  6
CONTINUOUS
 62
     7
 10
227.32359312880709
 20
192.40000000000009
 30
0.0
 11
227.32359312880709
 21
193.0
 31
0.0
  0
LINE
  5
1136
  8
0
  6
CONTINUOUS
 62
     7
 10
243.2798458673139
 20
192.92137099014249
 30
0.0
 11
227.32359312880709
 21
192.40000000000009
 31
0.0
  0
LINE
  5
1137
  8
0
  6
CONTINUOUS
 62
     7
 10
243.2798458673139
 20
167.07862900985739
 30
0.0
 11
227.32359312880709
 21
167.59999999999991
 31
0.0
  0
ARC
  5
1138
  8
0
  6
CONTINUOUS
 62
     7
 10
243.85357815493541
 20
168.99999999999989
 30
0.0
 40
2.0
 50
270.00000000000011
 51
354.99999999999977
  0
ARC
  5
1139
  8
0
  6
CONTINUOUS
 62
     7
 10
243.85357815493529
 20
191.0
 30
0.0
 40
2.0
 50
4.9999999999999938
 51
89.999999999999957
  0
LINE
  5
113A
  8
0
  6
CONTINUOUS
 62
     7
 10
243.85357815493541
 20
166.99999999999989
 30
0.0
 11
227.32359312880709
 21
167.0
 31
0.0
  0
LINE
  5
113B
  8
0
  6
CONTINUOUS
 62
     7
 10
243.85357815493529
 20
193.0
 30
0.0
 11
227.32359312880709
 21
193.0
 31
0.0
  0
LINE
  5
113C
  8
0
  6
CONTINUOUS
 62
     7
 10
227.32359312880709
 20
167.0
 30
0.0
 11
227.32359312880709
 21
167.59999999999991
 31
0.0
  0
CIRCLE
  5
113D
  8
0
  6
CONTINUOUS
 62
     7
 10
238.32359312880709
 20
180.0
 30
0.0
 40
6.397186257614222
  0
ARC
  5
113E
  8
0
  6
CONTINUOUS
 62
     7
 10
244.9448866560046
 20
170.0
 30
0.0
 40
1.0
 50
355.0000000000004
 51
90.000000000000028
  0
ARC
  5
113F
  8
0
  6
CONTINUOUS
 62
     7
 10
244.9448866560046
 20
189.99999999999989
 30
0.0
 40
1.0
 50
270.00000000000011
 51
5.0000000000003748
  0
ARC
  5
1140
  8
0
  6
CONTINUOUS
 62
     7
 10
234.47077938642141
 20
175.0
 30
0.0
 40
4.0
 50
180.0
 51
270.0
  0
ARC
  5
1141
  8
0
  6
CONTINUOUS
 62
     7
 10
234.47077938642141
 20
185.0
 30
0.0
 40
4.0
 50
90.000000000000028
 51
180.0
  0
LINE
  5
1142
  8
0
  6
CONTINUOUS
 62
     7
 10
244.9448866560046
 20
171.0
 30
0.0
 11
234.47077938642141
 21
171.0
 31
0.0
  0
LINE
  5
1143
  8
0
  6
CONTINUOUS
 62
     7
 10
244.9448866560046
 20
188.99999999999989
 30
0.0
 11
234.47077938642141
 21
189.0
 31
0.0
  0
LINE
  5
1144
  8
0
  6
CONTINUOUS
 62
     7
 10
230.4707793864213
 20
175.0
 30
0.0
 11
230.4707793864213
 21
185.0
 31
0.0
  0
CIRCLE
  5
1145
  8
0
  6
CONTINUOUS
 62
     7
 10
238.32359312880709
 20
180.0
 30
0.0
 40
4.25
  0
LINE
  5
1146
  8
1
  6
CENTER
 10
238.32359312880709
 20
189.25
 30
0.0
 11
238.32359312880709
 21
170.75000000000011
 31
0.0
  0
LINE
  5
1147
  8
0
  6
CONTINUOUS
 62
     7
 10
246.8235931288072
 20
180.0
 30
0.0
 11
245.84596755111889
 21
168.82568851450469
 31
0.0
  0
LINE
  5
1148
  8
0
  6
CONTINUOUS
 62
     7
 10
246.82359312880709
 20
180.0
 30
0.0
 11
245.8459675511188
 21
191.17431148549531
 31
0.0
  0
LINE
  5
1149
  8
0
  6
CONTINUOUS
 62
     7
 10
242.793608102679
 20
166.9999999999998
 30
0.0
 11
243.85357815493529
 21
166.99999999999969
 31
0.0
  0
LINE
  5
114A
  8
0
  6
CONTINUOUS
 62
     7
 10
242.793608102679
 20
192.9999999999998
 30
0.0
 11
243.85357815493529
 21
192.99999999999969
 31
0.0
  0
LINE
  5
114B
  8
0
  6
CONTINUOUS
 62
     7
 10
300.0
 20
111.0
 30
0.0
 11
289.42676708874728
 21
110.0749619834461
 31
0.0
  0
LINE
  5
114C
  8
0
  6
CONTINUOUS
 62
     7
 10
300.0
 20
111.0
 30
0.0
 11
310.5732329112526
 21
110.0749619834461
 31
0.0
  0
LINE
  5
114D
  8
1
  6
CENTER
 10
300.0
 20
65.0
 30
0.0
 11
300.0
 21
116.01909918771671
 31
0.0
  0
LINE
  5
114E
  8
0
  6
CONTINUOUS
 62
     7
 10
287.0
 20
70.0
 30
0.0
 11
313.0
 21
70.0
 31
0.0
  0
LINE
  5
114F
  8
0
  6
CONTINUOUS
 62
     7
 10
287.60132744228088
 20
108.11412270957671
 30
0.0
 11
287.0
 21
70.0
 31
0.0
  0
LINE
  5
1150
  8
0
  6
CONTINUOUS
 62
     7
 10
312.3986725577189
 20
108.11412270957671
 30
0.0
 11
313.0
 21
70.0
 31
0.0
  0
ARC
  5
1151
  8
0
  6
CONTINUOUS
 62
     7
 10
289.60107857424259
 20
108.0825725872627
 30
0.0
 40
2.0
 50
94.999999999999915
 51
179.09611808260979
  0
ARC
  5
1152
  8
0
  6
CONTINUOUS
 62
     7
 10
310.39892142575718
 20
108.0825725872627
 30
0.0
 40
2.0
 50
0.903881917390284
 51
85.000000000000114
  0
ARC
  5
1153
  8
2
  6
HIDDEN
 10
310.39892142575718
 20
107.4174274127372
 30
0.0
 40
2.0
 50
274.99999999999989
 51
359.09611808260968
  0
ARC
  5
1154
  8
2
  6
HIDDEN
 10
289.60107857424259
 20
107.4174274127372
 30
0.0
 40
2.0
 50
180.90388191739009
 51
265.00000000000011
  0
LINE
  5
1155
  8
2
  6
HIDDEN
 10
300.0
 20
104.4999999999999
 30
0.0
 11
310.5732329112526
 21
105.4250380165538
 31
0.0
  0
LINE
  5
1156
  8
2
  6
HIDDEN
 10
300.0
 20
104.4999999999999
 30
0.0
 11
289.42676708874728
 21
105.4250380165538
 31
0.0
  0
LINE
  5
1157
  8
0
  6
CONTINUOUS
 62
     7
 10
287.60132744228088
 20
108.11412270957671
 30
0.0
 11
287.60132744228088
 21
107.3858772904231
 31
0.0
  0
LINE
  5
1158
  8
0
  6
CONTINUOUS
 62
     7
 10
312.39867255771912
 20
108.11412270957671
 30
0.0
 11
312.39867255771912
 21
107.38587729043191
 31
0.0
  0
LINE
  5
1159
  8
0
  6
CONTINUOUS
 62
     7
 10
291.0
 20
84.999999999999986
 30
0.0
 11
309.0
 21
84.999999999999943
 31
0.0
  0
LINE
  5
115A
  8
0
  6
CONTINUOUS
 62
     7
 10
300.0
 20
84.999999999999943
 30
0.0
 11
300.0
 21
70.0
 31
0.0
  0
LINE
  5
115B
  8
0
  6
CONTINUOUS
 62
     7
 10
291.0
 20
84.999999999999943
 30
0.0
 11
291.0
 21
102.6906521102231
 31
0.0
  0
LINE
  5
115C
  8
0
  6
CONTINUOUS
 62
     7
 10
309.0
 20
84.999999999999943
 30
0.0
 11
309.0
 21
102.690656782254
 31
0.0
  0
LINE
  5
1160
  8
0
  6
CONTINUOUS
 62
     7
 10
50.999999999999943
 20
84.999999999999943
 30
0.0
 11
51.0
 21
102.690656782254
 31
0.0
  0
LINE
  5
1161
  8
0
  6
CONTINUOUS
 62
     7
 10
69.0
 20
84.999999999999943
 30
0.0
 11
68.999999999999943
 21
102.6906521102231
 31
0.0
  0
LINE
  5
1162
  8
0
  6
CONTINUOUS
 62
     7
 10
59.999999999999943
 20
84.999999999999943
 30
0.0
 11
59.999999999999943
 21
70.0
 31
0.0
  0
LINE
  5
1163
  8
0
  6
CONTINUOUS
 62
     7
 10
68.999999999999943
 20
84.999999999999986
 30
0.0
 11
50.999999999999943
 21
84.999999999999943
 31
0.0
  0
LINE
  5
1164
  8
0
  6
CONTINUOUS
 62
     7
 10
47.601327442280869
 20
108.11412270957671
 30
0.0
 11
47.601327442280869
 21
107.3858772904333
 31
0.0
  0
LINE
  5
1165
  8
0
  6
CONTINUOUS
 62
     7
 10
72.39867255771901
 20
108.11412270957671
 30
0.0
 11
72.39867255771901
 21
107.3858772904231
 31
0.0
  0
LINE
  5
1166
  8
2
  6
HIDDEN
 10
60.0
 20
104.4999999999999
 30
0.0
 11
70.57323291125266
 21
105.4250380165538
 31
0.0
  0
LINE
  5
1167
  8
2
  6
HIDDEN
 10
59.999999999999943
 20
104.4999999999999
 30
0.0
 11
49.42676708874739
 21
105.4250380165538
 31
0.0
  0
ARC
  5
1168
  8
2
  6
HIDDEN
 10
70.398921425757351
 20
107.4174274127372
 30
0.0
 40
2.0
 50
274.99999999999989
 51
359.09611808260979
  0
ARC
  5
1169
  8
2
  6
HIDDEN
 10
49.601078574242699
 20
107.4174274127372
 30
0.0
 40
2.0
 50
180.90388191739029
 51
265.00000000000011
  0
ARC
  5
116A
  8
0
  6
CONTINUOUS
 62
     7
 10
49.601078574242699
 20
108.0825725872627
 30
0.0
 40
2.0
 50
94.999999999999915
 51
179.09611808260971
  0
ARC
  5
116B
  8
0
  6
CONTINUOUS
 62
     7
 10
70.398921425757351
 20
108.0825725872627
 30
0.0
 40
2.0
 50
0.903881917390157
 51
85.000000000000114
  0
LINE
  5
116C
  8
0
  6
CONTINUOUS
 62
     7
 10
47.60132744228104
 20
108.11412270957671
 30
0.0
 11
46.999999999999943
 21
70.0
 31
0.0
  0
LINE
  5
116D
  8
0
  6
CONTINUOUS
 62
     7
 10
72.39867255771901
 20
108.11412270957671
 30
0.0
 11
72.999999999999943
 21
70.0
 31
0.0
  0
LINE
  5
116E
  8
0
  6
CONTINUOUS
 62
     7
 10
72.999999999999943
 20
70.0
 30
0.0
 11
46.999999999999943
 21
70.0
 31
0.0
  0
LINE
  5
116F
  8
1
  6
CENTER
 10
59.999999999999943
 20
65.0
 30
0.0
 11
60.0
 21
116.01909918771671
 31
0.0
  0
LINE
  5
1170
  8
0
  6
CONTINUOUS
 62
     7
 10
59.999999999999943
 20
111.0
 30
0.0
 11
49.42676708874739
 21
110.0749619834461
 31
0.0
  0
LINE
  5
1171
  8
0
  6
CONTINUOUS
 62
     7
 10
60.0
 20
111.0
 30
0.0
 11
70.57323291125266
 21
110.0749619834461
 31
0.0
  0
INSERT
  5
1172
  8
0
  2
BATU
 10
0.0
 20
0.0
 30
0.0
 41
0.001
 42
0.001
 43
0.001
  0
ARC
  5
1173
  8
0
  6
CONTINUOUS
 62
     7
 10
295.0
 20
102.3711084801668
 30
0.0
 40
4.1613202442205326
 50
90.0
 51
111.6940969786276
  0
ARC
  5
1174
  8
0
  6
CONTINUOUS
 62
     7
 10
294.93808028972342
 20
102.5267525160818
 30
0.0
 40
3.99381168791172
 50
111.69409697862881
 51
133.84410092887151
  0
ARC
  5
1175
  8
0
  6
CONTINUOUS
 62
     7
 10
294.8423356600224
 20
102.626440383771
 30
0.0
 40
3.8555919169634389
 50
133.8441009288716
 51
156.6707712605145
  0
ARC
  5
1176
  8
0
  6
CONTINUOUS
 62
     7
 10
294.69344681894802
 20
102.6906521102231
 30
0.0
 40
3.6934468189479581
 50
156.67077126052419
 51
180.0000000000002
  0
ARC
  5
1177
  8
0
  6
CONTINUOUS
 62
     7
 10
64.999999999999957
 20
102.3711084801668
 30
0.0
 40
4.1613202442205326
 50
68.305903021372515
 51
90.000000000000185
  0
ARC
  5
1178
  8
0
  6
CONTINUOUS
 62
     7
 10
65.061919710276527
 20
102.5267525160818
 30
0.0
 40
3.99381168791172
 50
46.155899071128403
 51
68.305903021371094
  0
ARC
  5
1179
  8
0
  6
CONTINUOUS
 62
     7
 10
65.157664339977543
 20
102.626440383771
 30
0.0
 40
3.8555919169634389
 50
23.329228739485458
 51
46.155899071128331
  0
ARC
  5
117A
  8
0
  6
CONTINUOUS
 62
     7
 10
65.30655318105201
 20
102.6906521102231
 30
0.0
 40
3.6934468189479319
 50
359.99999999999972
 51
23.329228739475891
  0
ARC
  5
117B
  8
0
  6
CONTINUOUS
 62
     7
 10
55.000000000000043
 20
102.3711084801668
 30
0.0
 40
4.1613202442205326
 50
89.999999999999815
 51
111.6940969786274
  0
ARC
  5
117C
  8
0
  6
CONTINUOUS
 62
     7
 10
54.938080289723473
 20
102.5267525160818
 30
0.0
 40
3.99381168791172
 50
111.69409697862881
 51
133.84410092887151
  0
ARC
  5
117D
  8
0
  6
CONTINUOUS
 62
     7
 10
54.842335660022449
 20
102.626440383771
 30
0.0
 40
3.8555919169634341
 50
133.84410092887151
 51
156.67077126051441
  0
ARC
  5
117E
  8
0
  6
CONTINUOUS
 62
     7
 10
54.69344681894799
 20
102.6906521102231
 30
0.0
 40
3.6934468189479319
 50
156.67077126052411
 51
180.0000000000002
  0
ARC
  5
117F
  8
0
  6
CONTINUOUS
 62
     7
 10
304.99999999999989
 20
102.3711084801668
 30
0.0
 40
4.1613202442205326
 50
68.305903021372316
 51
90.0
  0
ARC
  5
1180
  8
0
  6
CONTINUOUS
 62
     7
 10
305.06191971027653
 20
102.5267525160818
 30
0.0
 40
3.99381168791172
 50
46.155899071128403
 51
68.305903021371094
  0
ARC
  5
1181
  8
0
  6
CONTINUOUS
 62
     7
 10
305.15766433997749
 20
102.626440383771
 30
0.0
 40
3.8555919169634389
 50
23.329228739485458
 51
46.155899071128331
  0
ARC
  5
1182
  8
0
  6
CONTINUOUS
 62
     7
 10
305.30655318105192
 20
102.6906521102231
 30
0.0
 40
3.6934468189479581
 50
359.99999999999972
 51
23.32922873947572
  0
ENDSEC
  0
EOF
