  0
SECTION
  2
HEADER
  9
$ACADVER
  1
AC1015
  9
$ACADMAINTVER
 70
    13
  9
$DWGCODEPAGE
  3
ANSI_932
  9
$INSBASE
 10
0.0
 20
0.0
 30
0.0
  9
$EXTMIN
 10
26.36806338429221
 20
19.94683002239884
 30
0.0
  9
$EXTMAX
 10
277.8703168263808
 20
189.1276700904238
 30
0.0
  9
$LIMMIN
 10
0.0
 20
0.0
  9
$LIMMAX
 10
375.0
 20
270.0
  9
$ORTHOMODE
 70
     1
  9
$REGENMODE
 70
     1
  9
$FILLMODE
 70
     1
  9
$QTEXTMODE
 70
     0
  9
$MIRRTEXT
 70
     0
  9
$LTSCALE
 40
10.0
  9
$ATTMODE
 70
     1
  9
$TEXTSIZE
 40
2.0
  9
$TRACEWID
 40
0.05
  9
$TEXTSTYLE
  7
STANDARD
  9
$CLAYER
  8
0
  9
$CELTYPE
  6
ByLayer
  9
$CECOLOR
 62
   256
  9
$CELTSCALE
 40
1.0
  9
$DISPSILH
 70
     0
  9
$DIMSCALE
 40
1.0
  9
$DIMASZ
 40
2.5
  9
$DIMEXO
 40
2.0
  9
$DIMDLI
 40
0.38
  9
$DIMRND
 40
0.0
  9
$DIMDLE
 40
0.0
  9
$DIMEXE
 40
2.0
  9
$DIMTP
 40
0.0
  9
$DIMTM
 40
0.0
  9
$DIMTXT
 40
3.0
  9
$DIMCEN
 40
0.09
  9
$DIMTSZ
 40
0.0
  9
$DIMTOL
 70
     0
  9
$DIMLIM
 70
     0
  9
$DIMTIH
 70
     0
  9
$DIMTOH
 70
     0
  9
$DIMSE1
 70
     0
  9
$DIMSE2
 70
     0
  9
$DIMTAD
 70
     1
  9
$DIMZIN
 70
     0
  9
$DIMBLK
  1

  9
$DIMASO
 70
     1
  9
$DIMSHO
 70
     0
  9
$DIMPOST
  1

  9
$DIMAPOST
  1

  9
$DIMALT
 70
     0
  9
$DIMALTD
 70
     2
  9
$DIMALTF
 40
25.4
  9
$DIMLFAC
 40
1.0
  9
$DIMTOFL
 70
     0
  9
$DIMTVP
 40
1.6
  9
$DIMTIX
 70
     1
  9
$DIMSOXD
 70
     0
  9
$DIMSAH
 70
     0
  9
$DIMBLK1
  1

  9
$DIMBLK2
  1

  9
$DIMSTYLE
  2
STANDARD
  9
$DIMCLRD
 70
     0
  9
$DIMCLRE
 70
     0
  9
$DIMCLRT
 70
     0
  9
$DIMTFAC
 40
1.0
  9
$DIMGAP
 40
0.09
  9
$DIMJUST
 70
     0
  9
$DIMSD1
 70
     0
  9
$DIMSD2
 70
     0
  9
$DIMTOLJ
 70
     1
  9
$DIMTZIN
 70
     0
  9
$DIMALTZ
 70
     0
  9
$DIMALTTZ
 70
     0
  9
$DIMUPT
 70
     0
  9
$DIMDEC
 70
     4
  9
$DIMTDEC
 70
     4
  9
$DIMALTU
 70
     2
  9
$DIMALTTD
 70
     2
  9
$DIMTXSTY
  7
STANDARD
  9
$DIMAUNIT
 70
     0
  9
$DIMADEC
 70
     0
  9
$DIMALTRND
 40
0.0
  9
$DIMAZIN
 70
     0
  9
$DIMDSEP
 70
    46
  9
$DIMATFIT
 70
     3
  9
$DIMFRAC
 70
     0
  9
$DIMLDRBLK
  1

  9
$DIMLUNIT
 70
     2
  9
$DIMLWD
 70
    -2
  9
$DIMLWE
 70
    -2
  9
$DIMTMOVE
 70
     0
  9
$LUNITS
 70
     2
  9
$LUPREC
 70
     4
  9
$SKETCHINC
 40
0.1
  9
$FILLETRAD
 40
2.5
  9
$AUNITS
 70
     0
  9
$AUPREC
 70
     0
  9
$MENU
  1
E:\r13\win\SUPPORT\ACAD
  9
$ELEVATION
 40
0.0
  9
$PELEVATION
 40
0.0
  9
$THICKNESS
 40
0.0
  9
$LIMCHECK
 70
     0
  9
$CHAMFERA
 40
0.0
  9
$CHAMFERB
 40
0.0
  9
$CHAMFERC
 40
0.0
  9
$CHAMFERD
 40
0.0
  9
$SKPOLY
 70
     0
  9
$TDCREATE
 40
2448650.567878472
  9
$TDUCREATE
 40
2448650.192878472
  9
$TDUPDATE
 40
2456447.697496736
  9
$TDUUPDATE
 40
2456447.322496736
  9
$TDINDWG
 40
0.0747312963
  9
$TDUSRTIMER
 40
0.0747311227
  9
$USRTIMER
 70
     1
  9
$ANGBASE
 50
0.0
  9
$ANGDIR
 70
     0
  9
$PDMODE
 70
     0
  9
$PDSIZE
 40
0.0
  9
$PLINEWID
 40
0.0
  9
$SPLFRAME
 70
     0
  9
$SPLINETYPE
 70
     6
  9
$SPLINESEGS
 70
     8
  9
$HANDSEED
  5
BBF
  9
$SURFTAB1
 70
     6
  9
$SURFTAB2
 70
     6
  9
$SURFTYPE
 70
     6
  9
$SURFU
 70
     6
  9
$SURFV
 70
     6
  9
$UCSBASE
  2

  9
$UCSNAME
  2

  9
$UCSORG
 10
0.0
 20
0.0
 30
0.0
  9
$UCSXDIR
 10
1.0
 20
0.0
 30
0.0
  9
$UCSYDIR
 10
0.0
 20
1.0
 30
0.0
  9
$UCSORTHOREF
  2

  9
$UCSORTHOVIEW
 70
     0
  9
$UCSORGTOP
 10
0.0
 20
0.0
 30
0.0
  9
$UCSORGBOTTOM
 10
0.0
 20
0.0
 30
0.0
  9
$UCSORGLEFT
 10
0.0
 20
0.0
 30
0.0
  9
$UCSORGRIGHT
 10
0.0
 20
0.0
 30
0.0
  9
$UCSORGFRONT
 10
0.0
 20
0.0
 30
0.0
  9
$UCSORGBACK
 10
0.0
 20
0.0
 30
0.0
  9
$PUCSBASE
  2

  9
$PUCSNAME
  2

  9
$PUCSORG
 10
0.0
 20
0.0
 30
0.0
  9
$PUCSXDIR
 10
1.0
 20
0.0
 30
0.0
  9
$PUCSYDIR
 10
0.0
 20
1.0
 30
0.0
  9
$PUCSORTHOREF
  2

  9
$PUCSORTHOVIEW
 70
     0
  9
$PUCSORGTOP
 10
0.0
 20
0.0
 30
0.0
  9
$PUCSORGBOTTOM
 10
0.0
 20
0.0
 30
0.0
  9
$PUCSORGLEFT
 10
0.0
 20
0.0
 30
0.0
  9
$PUCSORGRIGHT
 10
0.0
 20
0.0
 30
0.0
  9
$PUCSORGFRONT
 10
0.0
 20
0.0
 30
0.0
  9
$PUCSORGBACK
 10
0.0
 20
0.0
 30
0.0
  9
$USERI1
 70
     0
  9
$USERI2
 70
     1
  9
$USERI3
 70
     1
  9
$USERI4
 70
     0
  9
$USERI5
 70
     0
  9
$USERR1
 40
0.0
  9
$USERR2
 40
0.0
  9
$USERR3
 40
0.0
  9
$USERR4
 40
0.0
  9
$USERR5
 40
0.0
  9
$WORLDVIEW
 70
     1
  9
$SHADEDGE
 70
     3
  9
$SHADEDIF
 70
    70
  9
$TILEMODE
 70
     1
  9
$MAXACTVP
 70
    16
  9
$PINSBASE
 10
0.0
 20
0.0
 30
0.0
  9
$PLIMCHECK
 70
     0
  9
$PEXTMIN
 10
1.000000000000000E+20
 20
1.000000000000000E+20
 30
1.000000000000000E+20
  9
$PEXTMAX
 10
-1.000000000000000E+20
 20
-1.000000000000000E+20
 30
-1.000000000000000E+20
  9
$PLIMMIN
 10
0.0
 20
0.0
  9
$PLIMMAX
 10
12.0
 20
9.0
  9
$UNITMODE
 70
     0
  9
$VISRETAIN
 70
     0
  9
$PLINEGEN
 70
     1
  9
$PSLTSCALE
 70
     0
  9
$TREEDEPTH
 70
  3020
  9
$CMLSTYLE
  2
Standard
  9
$CMLJUST
 70
     0
  9
$CMLSCALE
 40
1.0
  9
$PROXYGRAPHICS
 70
     1
  9
$MEASUREMENT
 70
     0
  9
$CELWEIGHT
370
    -1
  9
$ENDCAPS
280
     0
  9
$JOINSTYLE
280
     0
  9
$LWDISPLAY
290
     0
  9
$INSUNITS
 70
     0
  9
$HYPERLINKBASE
  1

  9
$STYLESHEET
  1

  9
$XEDIT
290
     1
  9
$CEPSNTYPE
380
     0
  9
$PSTYLEMODE
290
     1
  9
$FINGERPRINTGUID
  2
{364FB856-4878-45CB-932E-E3992B0A3D12}
  9
$VERSIONGUID
  2
{A5AC11A7-3C6D-42DD-B218-2EF850B3C95C}
  9
$EXTNAMES
290
     1
  9
$PSVPSCALE
 40
0.0
  9
$OLESTARTUP
290
     0
  0
ENDSEC
  0
SECTION
  2
CLASSES
  0
CLASS
  1
ACDBDICTIONARYWDFLT
  2
AcDbDictionaryWithDefault
  3
AutoCAD 2000
 90
        0
280
     0
281
     0
  0
CLASS
  1
ACDBPLACEHOLDER
  2
AcDbPlaceHolder
  3
AutoCAD 2000
 90
        0
280
     0
281
     0
  0
CLASS
  1
LAYOUT
  2
AcDbLayout
  3
AutoCAD 2000
 90
        0
280
     0
281
     0
  0
CLASS
  1
AMGSETTINGSOBJ
  2
AmgSettingsObj
  3
"AcadM|Product Description: AutoCAD Mechanical 2000|Company: Autodesk"
 90
        0
280
     0
281
     0
  0
CLASS
  1
ACME_DOCUMENT
  2
AcMeDbDoc
  3
AcMeServices
 90
        0
280
     0
281
     0
  0
CLASS
  1
ACMESCOPE
  2
AcMeScope
  3
AcMeServices
 90
        0
280
     0
281
     0
  0
CLASS
  1
ACMECOMMANDHISTORY
  2
AcMeCommandHistory
  3
AcMeServices
 90
        0
280
     0
281
     0
  0
CLASS
  1
ACIMSYSVARMAN
  2
AcImSysVarManager
  3
AcMeServices
 90
        0
280
     0
281
     0
  0
CLASS
  1
ACIMREALSYSVAR
  2
AcImRealSysVar
  3
AcMeServices
 90
        0
280
     0
281
     0
  0
CLASS
  1
ACIMINTSYSVAR
  2
AcImIntSysVar
  3
AcMeServices
 90
        0
280
     0
281
     0
  0
CLASS
  1
ACMEDRAWINGMAN
  2
AcMeDrawingMan
  3
AcMeServices
 90
        0
280
     0
281
     0
  0
CLASS
  1
ACMEVIEW
  2
AcMeView
  3
AcMeServices
 90
        0
280
     0
281
     0
  0
CLASS
  1
ACDBENTITYCACHE
  2
AcMeEntityCache
  3
AcMeServices
 90
        0
280
     0
281
     0
  0
CLASS
  1
GSMANAGER
  2
AcMeGSManager
  3
AcMeServices
 90
        0
280
     0
281
     0
  0
CLASS
  1
AMDTINTERNALREACTOR
  2
AmdtInternalReactor
  3
AcMeServices
 90
        0
280
     0
281
     0
  0
CLASS
  1
ACMESTATEMGR
  2
AcMeStateMgr
  3
AcMeServices
 90
        0
280
     0
281
     0
  0
CLASS
  1
ACGREFMASTER
  2
AcGrefMaster
  3
AcAttribServices
 90
        0
280
     0
281
     0
  0
CLASS
  1
AM_DRAWING_MGR
  2
AcDmDwgMgr
  3
AcMechDwgViewMgmt
 90
        0
280
     0
281
     0
  0
CLASS
  1
AM_DWG_DOCUMENT
  2
AcDmDwgDocument
  3
AcMechDwgViewMgmt
 90
        0
280
     0
281
     0
  0
CLASS
  1
AM_DWG_SHEET
  2
AcDmSheet
  3
AcMechDwgViewMgmt
 90
        0
280
     0
281
     0
  0
CLASS
  1
AM_VIEWDIMPARMAP
  2
AcDmViewDimParMap
  3
AcMechDwgViewMgmt
 90
        0
280
     0
281
     0
  0
CLASS
  1
AM_DWGMGR_NAME
  2
AcDmDwgMgrName
  3
AcMechDwgViewMgmt
 90
        0
280
     0
281
     0
  0
CLASS
  1
ACME_DATABASE
  2
AcMeDbDatabase
  3
AcMeServices
 90
        0
280
     0
281
     0
  0
CLASS
  1
ACRFINSADJUSTERMGR
  2
AcRfInsAdjusterMgr
  3
AcMeServices
 90
        0
280
     0
281
     0
  0
CLASS
  1
ACGREFACADMASTER
  2
AcGrefacadMaster
  3
AcGrefServices
 90
        0
280
     0
281
     0
  0
CLASS
  1
AMDTMENUSTATEMGR
  2
AmdtMenuStateMgr
  3
McadcomServices
 90
        0
280
     0
281
     0
  0
CLASS
  1
AMDTMCOMMENUSTATE
  2
AmdtMcomMenuState
  3
McadcomServices
 90
        0
280
     0
281
     0
  0
CLASS
  1
AMIMASTER
  2
AmiMaster
  3
AmiServices
 90
        0
280
     0
281
     0
  0
CLASS
  1
ASAPP
  2
AcAsAppObject
  3
AutoSurfServices
 90
        0
280
     0
281
     0
  0
CLASS
  1
IM_STATIC_MAN
  2
AcImStaticVarManager
  3
AcMeServices
 90
        0
280
     0
281
     0
  0
CLASS
  1
ACIMSTRSYSVAR
  2
AcImStrSysVar
  3
AcMeServices
 90
        0
280
     0
281
     0
  0
CLASS
  1
ACIMDBLSTATICVAR
  2
AcImDblStaticVar
  3
AcMeServices
 90
        0
280
     0
281
     0
  0
CLASS
  1
ACIMSTRSTATICVAR
  2
AcImStrStaticVar
  3
AcMeServices
 90
        0
280
     0
281
     0
  0
CLASS
  1
ACIMINTSTATICVAR
  2
AcImIntStaticVar
  3
AcMeServices
 90
        0
280
     0
281
     0
  0
CLASS
  1
ACASGREFMASTER
  2
AcAsGrefMaster
  3
AutoSurfResolverServices
 90
        0
280
     0
281
     0
  0
CLASS
  1
ACADGREFMODULE
  2
AcAdGrefModule
  3
AdGrefServices
 90
        0
280
     0
281
     0
  0
CLASS
  1
AMDTMAPISURFMOUDULE
  2
AmdtMApiSurfModule
  3
MApiSurfServices
 90
        0
280
     0
281
     0
  0
CLASS
  1
MAPIAMMOUDLE
  2
MApiAmModule
  3
MApiAmServices
 90
        0
280
     0
281
     0
  0
CLASS
  1
AMDTADMENUSTATE
  2
AmdtAdMenuState
  3
DesignerServices
 90
        0
280
     0
281
     0
  0
CLASS
  1
ADAPPL
  2
AcAdAppl
  3
DesignerServices
 90
        0
280
     0
281
     0
  0
CLASS
  1
DEPMGR
  2
AcAdDepMgr
  3
DesignerServices
 90
        0
280
     0
281
     0
  0
CLASS
  1
PARAMMGR
  2
AcAdParamMgr
  3
DesignerServices
 90
        0
280
     0
281
     0
  0
CLASS
  1
PARAMSCOPE
  2
AcAdParamScope
  3
DesignerServices
 90
        0
280
     0
281
     0
  0
CLASS
  1
NAMEDAPPL
  2
AcAdNamedAppl
  3
DesignerServices
 90
        0
280
     0
281
     0
  0
CLASS
  1
AMDTDMMENUSTATE
  2
AmdtDmMenuState
  3
AcMechDwgViewMgmt
 90
        0
280
     0
281
     0
  0
CLASS
  1
MAPIADMODULE
  2
MApiAdModule
  3
MApiAdServices
 90
        0
280
     0
281
     0
  0
CLASS
  1
AMDTAMMENUSTATE
  2
AmdtAmMenuState
  3
DesignerAssemblies
 90
        0
280
     0
281
     0
  0
CLASS
  1
ACAMPROJECT
  2
AcAmProject
  3
DesignerAssemblies
 90
        0
280
     0
281
     0
  0
CLASS
  1
ACAMGRCOMPDEF
  2
AcAmGrCompDef
  3
DesignerAssemblies
 90
        0
280
     0
281
     0
  0
CLASS
  1
ACCMCONTEXT
  2
AcCmContext
  3
DesignerAssemblies
 90
        0
280
     0
281
     0
  0
CLASS
  1
ACAMCOMPDEF
  2
AcAmCompDef
  3
DesignerAssemblies
 90
        0
280
     0
281
     0
  0
CLASS
  1
ACAMCOMPDEFMGR
  2
AcAmCompDefMgr
  3
DesignerAssemblies
 90
        0
280
     0
281
     0
  0
CLASS
  1
AMCONTEXTMGR
  2
AcAmContextMgr
  3
DesignerAssemblies
 90
        0
280
     0
281
     0
  0
CLASS
  1
ACAMCONTEXTMODELER
  2
AcAmContextModeler
  3
DesignerAssemblies
 90
        0
280
     0
281
     0
  0
CLASS
  1
ACMDATADICTIONARY
  2
AcmDataDictionary
  3
"AcmSymBB|Product Description: AutoCAD Mechanical 2000|Company: Autodesk"
 90
        0
280
     0
281
     0
  0
CLASS
  1
ACMDATAENTRYBLOCK
  2
AcmDataEntryBlock
  3
"AcmSymBB|Product Description: AutoCAD Mechanical 2000|Company: Autodesk"
 90
        0
280
     0
281
     0
  0
CLASS
  1
CATALOGSTATE
  2
AcAmCatalogState
  3
DesignerAssemblies
 90
        0
280
     0
281
     0
  0
CLASS
  1
ACAMGRCOMPDEFSET
  2
AcAmGrCompDefSet
  3
DesignerAssemblies
 90
        0
280
     0
281
     0
  0
CLASS
  1
AMDTBROWSERDBTAB
  2
AmdtBrowserDbTab
  3
McadcomServices
 90
        0
280
     0
281
     0
  0
CLASS
  1
CBROWSERAPPOBJECT
  2
CBrowserAppObject
  3
McadcomServices
 90
        0
280
     0
281
     0
  0
CLASS
  1
DM_PLACEHOLDER
  2
AcDmSelsetPlaceholder
  3
AcMechDwgViewMgmt
 90
        0
280
     0
281
     0
  0
CLASS
  1
AMGOBJPROPCFG
  2
AmgObjPropCfg
  3
"AmgLay|Product Description: AutoCAD Mechanical 2000|Company: Autodesk"
 90
        1
280
     0
281
     0
  0
CLASS
  1
LAYER_INDEX
  2
AcDbLayerIndex
  3
AutoCAD 2000
 90
        0
280
     0
281
     0
  0
CLASS
  1
IDBUFFER
  2
AcDbIdBuffer
  3
AutoCAD 2000
 90
        0
280
     0
281
     0
  0
CLASS
  1
DICTIONARYVAR
  2
AcDbDictionaryVar
  3
AutoCAD 2000
 90
        0
280
     0
281
     0
  0
CLASS
  1
ACAMGFILTERDAT
  2
AcAmgFilterDat
  3
"AcadM|Product Description: AutoCAD Mechanical 2000|Company: Autodesk"
 90
        0
280
     0
281
     0
  0
ENDSEC
  0
SECTION
  2
TABLES
  0
TABLE
  2
VPORT
  5
A3A
330
0
100
AcDbSymbolTable
 70
     4
  0
VPORT
  5
BBE
330
A3A
100
AcDbSymbolTableRecord
100
AcDbViewportTableRecord
  2
*Active
 70
     0
 10
0.0
 20
0.0
 11
1.0
 21
1.0
 12
0.0
 22
0.0
 13
0.0
 23
0.0
 14
10.0
 24
10.0
 15
10.0
 25
10.0
 16
0.0
 26
0.0
 36
1.0
 17
243.2913669064747
 27
169.1427212392895
 37
0.0
 40
326.6782391834991
 41
1.489721886336154
 42
50.0
 43
0.0
 44
0.0
 50
0.0
 51
0.0
 71
     0
 72
   500
 73
     1
 74
     0
 75
     0
 76
     0
 77
     0
 78
     2
281
     0
 65
     0
110
0.0
120
0.0
130
0.0
111
1.0
121
0.0
131
0.0
112
0.0
122
1.0
132
0.0
 79
     0
146
0.0
  0
ENDTAB
  0
TABLE
  2
LTYPE
  5
A37
330
0
100
AcDbSymbolTable
 70
    16
  0
LTYPE
  5
A45
330
A37
100
AcDbSymbolTableRecord
100
AcDbLinetypeTableRecord
  2
ByBlock
 70
     0
  3

 72
    65
 73
     0
 40
0.0
  0
LTYPE
  5
A46
330
A37
100
AcDbSymbolTableRecord
100
AcDbLinetypeTableRecord
  2
ByLayer
 70
     0
  3

 72
    65
 73
     0
 40
0.0
  0
LTYPE
  5
A47
330
A37
100
AcDbSymbolTableRecord
100
AcDbLinetypeTableRecord
  2
CONTINUOUS
 70
     0
  3
Solid Line
 72
    65
 73
     0
 40
0.0
  0
LTYPE
  5
A55
330
A37
100
AcDbSymbolTableRecord
100
AcDbLinetypeTableRecord
  2
CENTER
 70
     0
  3
____ _ ____ _ ____ _ ____ _ ____ _ ____ _ ____
 72
    65
 73
     4
 40
2.0
 49
1.25
 74
     0
 49
-0.25
 74
     0
 49
0.25
 74
     0
 49
-0.25
 74
     0
  0
LTYPE
  5
A56
330
A37
100
AcDbSymbolTableRecord
100
AcDbLinetypeTableRecord
  2
HIDDEN
 70
     0
  3
_ _ _ _ _ _ _ _ _ _ _ _ _ _ _ _ _ _ _ _ _ _ _
 72
    65
 73
     2
 40
0.375
 49
0.25
 74
     0
 49
-0.125
 74
     0
  0
LTYPE
  5
AFB
330
A37
100
AcDbSymbolTableRecord
100
AcDbLinetypeTableRecord
  2
PHANTOM2
 70
     0
  3
Phantom (.5x) ___ _ _ ___ _ _ ___ _ _ ___ _ _
 72
    65
 73
     6
 40
1.25
 49
0.625
 74
     0
 49
-0.125
 74
     0
 49
0.125
 74
     0
 49
-0.125
 74
     0
 49
0.125
 74
     0
 49
-0.125
 74
     0
  0
LTYPE
  5
B5D
330
A37
100
AcDbSymbolTableRecord
100
AcDbLinetypeTableRecord
  2
ASULTYPE
 70
     0
  3
実線
 72
    65
 73
     2
 40
3.0
 49
2.5
 74
     0
 49
0.5
 74
     0
  0
LTYPE
  5
B5E
330
A37
100
AcDbSymbolTableRecord
100
AcDbLinetypeTableRecord
  2
ASVLTYPE
 70
     0
  3
__ __ __ __ __ __ __ __ __ __ __ __ __ __ __ __ __ __ __ __ __
 72
    65
 73
     2
 40
0.75
 49
0.5
 74
     0
 49
-0.25
 74
     0
  0
LTYPE
  5
B9F
330
A37
100
AcDbSymbolTableRecord
100
AcDbLinetypeTableRecord
  2
AM_ISO02W050
 70
     0
  3
__ __ __ __ __ __ __ __ __ __ __ __ __ __ __
 72
    65
 73
     2
 40
7.5
 49
6.0
 74
     0
 49
-1.5
 74
     0
  0
LTYPE
  5
BA0
330
A37
100
AcDbSymbolTableRecord
100
AcDbLinetypeTableRecord
  2
AM_ISO08W050
 70
     0
  3
____ . ____ . ____ . ____ . ____ . ____ . ____
 72
    65
 73
     4
 40
18.0
 49
12.0
 74
     0
 49
-1.5
 74
     0
 49
3.0
 74
     0
 49
-1.5
 74
     0
  0
LTYPE
  5
BA1
330
A37
100
AcDbSymbolTableRecord
100
AcDbLinetypeTableRecord
  2
AM_ISO09W050
 70
     0
  3
_____ . . _____ . . _____ . . ____ .. ____
 72
    65
 73
     6
 40
22.5
 49
12.0
 74
     0
 49
-1.5
 74
     0
 49
3.0
 74
     0
 49
-1.5
 74
     0
 49
3.0
 74
     0
 49
-1.5
 74
     0
  0
LTYPE
  5
BA2
330
A37
100
AcDbSymbolTableRecord
100
AcDbLinetypeTableRecord
  2
Amconstr
 70
     0
  3
_______________________
 72
    65
 73
     2
 40
9999.0
 49
9999.0
 74
     0
 49
0.0
 74
     0
  0
LTYPE
  5
BA3
330
A37
100
AcDbSymbolTableRecord
100
AcDbLinetypeTableRecord
  2
AM_ISO08W050x2
 70
     0
  3
__ . __ . __ . __ . __ . __
 72
    65
 73
     4
 40
9.0
 49
6.0
 74
     0
 49
-0.75
 74
     0
 49
1.5
 74
     0
 49
-0.75
 74
     0
  0
LTYPE
  5
BA4
330
A37
100
AcDbSymbolTableRecord
100
AcDbLinetypeTableRecord
  2
AM_ISO02W050x2
 70
     0
  3
 _ _ _ _ _ _ _ _ _ _ _ _
 72
    65
 73
     2
 40
3.75
 49
3.0
 74
     0
 49
-0.75
 74
     0
  0
LTYPE
  5
BA7
330
A37
100
AcDbSymbolTableRecord
100
AcDbLinetypeTableRecord
  2
Amzigzag
 70
     0
  3
/\/-/\/-/\/-/\/-/\/-/\/
 72
    65
 73
     2
 40
11.00009999999999
 49
0.0001
 74
     4
 75
   135
340
BA6
 46
0.04
 50
0.0
 44
0.0
 45
0.0
 49
-11.0
 74
     0
  0
LTYPE
  5
BA8
330
A37
100
AcDbSymbolTableRecord
100
AcDbLinetypeTableRecord
  2
CENTER2
 70
     0
  3
Center (.5x) ___ _ ___ _ ___ _ ___ _ ___ _ ___
 72
    65
 73
     4
 40
1.125
 49
0.75
 74
     0
 49
-0.125
 74
     0
 49
0.125
 74
     0
 49
-0.125
 74
     0
  0
LTYPE
  5
BA9
330
A37
100
AcDbSymbolTableRecord
100
AcDbLinetypeTableRecord
  2
HIDDEN2
 70
     0
  3
Hidden (.5x) _ _ _ _ _ _ _ _ _ _ _ _ _ _ _ _ _
 72
    65
 73
     2
 40
0.1875
 49
0.125
 74
     0
 49
-0.0625
 74
     0
  0
LTYPE
  5
BAA
330
A37
100
AcDbSymbolTableRecord
100
AcDbLinetypeTableRecord
  2
Amzigzag2
 70
     0
  3
/\/-/\/-/\/-/\/-/\/-/\/
 72
    65
 73
     2
 40
0.4401
 49
0.0001
 74
     4
 75
   135
340
BA6
 46
0.0016
 50
0.0
 44
0.0
 45
0.0
 49
-0.4400000000000001
 74
     0
  0
ENDTAB
  0
TABLE
  2
LAYER
  5
A34
330
0
100
AcDbSymbolTable
 70
     4
  0
LAYER
  5
A42
330
A34
100
AcDbSymbolTableRecord
100
AcDbLayerTableRecord
  2
0
 70
     0
 62
     7
  6
CONTINUOUS
370
    -3
390
A41
  0
LAYER
  5
A57
330
A34
100
AcDbSymbolTableRecord
100
AcDbLayerTableRecord
  2
1
 70
     0
 62
     1
  6
CENTER
370
    -3
390
A41
  0
LAYER
  5
A58
330
A34
100
AcDbSymbolTableRecord
100
AcDbLayerTableRecord
  2
2
 70
     0
 62
     7
  6
HIDDEN
370
    -3
390
A41
  0
LAYER
  5
A59
330
A34
100
AcDbSymbolTableRecord
100
AcDbLayerTableRecord
  2
DEFPOINTS
 70
     0
 62
     5
  6
CONTINUOUS
290
     0
370
    50
390
A41
  0
ENDTAB
  0
TABLE
  2
STYLE
  5
A35
330
0
100
AcDbSymbolTable
 70
     2
  0
STYLE
  5
A43
330
A35
100
AcDbSymbolTableRecord
100
AcDbTextStyleTableRecord
  2
STANDARD
 70
     0
 40
0.0
 41
1.0
 50
0.0
 71
     0
 42
2.0
  3
TXT
  4
BIGFONT
  0
STYLE
  5
BA6
330
A35
100
AcDbSymbolTableRecord
100
AcDbTextStyleTableRecord
  2

 70
     1
 40
0.0
 41
1.0
 50
0.0
 71
     0
 42
2.0
  3
ltypeshp.shx
  4

  0
ENDTAB
  0
TABLE
  2
VIEW
  5
A38
330
0
100
AcDbSymbolTable
 70
     1
  0
VIEW
  5
A5A
330
A38
100
AcDbSymbolTableRecord
100
AcDbViewTableRecord
  2
ALL
 70
     0
 40
270.0
 10
220.9915966386554
 20
135.0
 41
0.0
 11
0.0
 21
0.0
 31
1.0
 12
0.0
 22
0.0
 32
0.0
 42
0.0
 43
0.0
 44
0.0
 50
0.0
 71
     0
281
     0
 72
     0
  0
ENDTAB
  0
TABLE
  2
UCS
  5
A39
330
0
100
AcDbSymbolTable
 70
     0
  0
ENDTAB
  0
TABLE
  2
APPID
  5
A3B
330
0
100
AcDbSymbolTable
 70
    14
  0
APPID
  5
A44
330
A3B
100
AcDbSymbolTableRecord
100
AcDbRegAppTableRecord
  2
ACAD
 70
     0
  0
APPID
  5
A5B
330
A3B
100
AcDbSymbolTableRecord
100
AcDbRegAppTableRecord
  2
ACAD_EXEMPT_FROM_CAD_STANDARDS
 70
     0
  0
APPID
  5
A5C
330
A3B
100
AcDbSymbolTableRecord
100
AcDbRegAppTableRecord
  2
ACAD_MLEADERVER
 70
     0
  0
APPID
  5
ADA
330
A3B
100
AcDbSymbolTableRecord
100
AcDbRegAppTableRecord
  2
GENIUS_GENDIM_13
 70
     0
  0
APPID
  5
ADB
330
A3B
100
AcDbSymbolTableRecord
100
AcDbRegAppTableRecord
  2
GENIUS_GENDTOL_13
 70
     0
  0
APPID
  5
ADC
330
A3B
100
AcDbSymbolTableRecord
100
AcDbRegAppTableRecord
  2
GENIUS_GE3DTOL_13
 70
     0
  0
APPID
  5
ADE
330
A3B
100
AcDbSymbolTableRecord
100
AcDbRegAppTableRecord
  2
MCAD_NO_VIS
 70
     0
  0
APPID
  5
ADF
330
A3B
100
AcDbSymbolTableRecord
100
AcDbRegAppTableRecord
  2
ACAD_TEMP_GRAPHIC
 70
     0
  0
APPID
  5
B10
330
A3B
100
AcDbSymbolTableRecord
100
AcDbRegAppTableRecord
  2
AD_DRAW
 70
     0
  0
APPID
  5
B13
330
A3B
100
AcDbSymbolTableRecord
100
AcDbRegAppTableRecord
  2
ACATTRIBSERVICES
 70
     0
  0
APPID
  5
B5F
330
A3B
100
AcDbSymbolTableRecord
100
AcDbRegAppTableRecord
  2
ASURF_PCURVE_APPNAME
 70
     0
  0
APPID
  5
B8E
330
A3B
100
AcDbSymbolTableRecord
100
AcDbRegAppTableRecord
  2
DESIGNERASSEMBLIES
 70
     0
  0
APPID
  5
B96
330
A3B
100
AcDbSymbolTableRecord
100
AcDbRegAppTableRecord
  2
ACADM_DIM_EDIT
 70
     0
  0
APPID
  5
B97
330
A3B
100
AcDbSymbolTableRecord
100
AcDbRegAppTableRecord
  2
AMDT_DM_ADJ
 70
     0
  0
ENDTAB
  0
TABLE
  2
DIMSTYLE
  5
A3C
330
0
100
AcDbSymbolTable
 70
     1
100
AcDbDimStyleTable
 71
     0
  0
DIMSTYLE
105
A5D
330
A3C
100
AcDbSymbolTableRecord
100
AcDbDimStyleTableRecord
  2
STANDARD
 70
     0
279
     2
340
A43
  0
ENDTAB
  0
TABLE
  2
BLOCK_RECORD
  5
A33
330
0
100
AcDbSymbolTable
 70
     3
  0
BLOCK_RECORD
  5
A50
102
{ACAD_XDICTIONARY
360
BAC
102
}
330
A33
100
AcDbSymbolTableRecord
100
AcDbBlockTableRecord
  2
*Model_Space
340
A53
  0
BLOCK_RECORD
  5
A4C
330
A33
100
AcDbSymbolTableRecord
100
AcDbBlockTableRecord
  2
*Paper_Space
340
A4F
  0
BLOCK_RECORD
  5
A60
330
A33
100
AcDbSymbolTableRecord
100
AcDbBlockTableRecord
  2
$MODEL_SPACE
340
0
  0
BLOCK_RECORD
  5
A63
330
A33
100
AcDbSymbolTableRecord
100
AcDbBlockTableRecord
  2
$PAPER_SPACE
340
0
  0
BLOCK_RECORD
  5
B85
330
A33
100
AcDbSymbolTableRecord
100
AcDbBlockTableRecord
  2
*U2
340
0
  0
ENDTAB
  0
ENDSEC
  0
SECTION
  2
BLOCKS
  0
BLOCK
  5
A51
330
A50
100
AcDbEntity
  8
0
100
AcDbBlockBegin
  2
*Model_Space
 70
     0
 10
0.0
 20
0.0
 30
0.0
  3
*Model_Space
  1

  0
ENDBLK
  5
A52
330
A50
100
AcDbEntity
  8
0
100
AcDbBlockEnd
  0
BLOCK
  5
A4D
330
A4C
100
AcDbEntity
 67
     1
  8
0
100
AcDbBlockBegin
  2
*Paper_Space
 70
     0
 10
0.0
 20
0.0
 30
0.0
  3
*Paper_Space
  1

  0
ENDBLK
  5
A4E
330
A4C
100
AcDbEntity
 67
     1
  8
0
100
AcDbBlockEnd
  0
BLOCK
  5
A61
330
A60
100
AcDbEntity
  8
0
100
AcDbBlockBegin
  2
$MODEL_SPACE
 70
     0
 10
0.0
 20
0.0
 30
0.0
  3
$MODEL_SPACE
  1

  0
ENDBLK
  5
A62
330
A60
100
AcDbEntity
  8
0
100
AcDbBlockEnd
  0
BLOCK
  5
A64
330
A63
100
AcDbEntity
  8
0
100
AcDbBlockBegin
  2
$PAPER_SPACE
 70
     0
 10
0.0
 20
0.0
 30
0.0
  3
$PAPER_SPACE
  1

  0
ENDBLK
  5
A65
330
A63
100
AcDbEntity
  8
0
100
AcDbBlockEnd
  0
BLOCK
  5
B86
330
B85
100
AcDbEntity
  8
0
100
AcDbBlockBegin
  2
*U2
 70
     1
 10
0.0
 20
0.0
 30
0.0
  3
*U2
  1

  0
ENDBLK
  5
B87
330
B85
100
AcDbEntity
  8
0
100
AcDbBlockEnd
  0
ENDSEC
  0
SECTION
  2
ENTITIES
  0
LINE
  5
A66
330
A50
100
AcDbEntity
  8
0
100
AcDbLine
 10
111.8657148681873
 20
75.44781337470926
 30
0.0
 11
129.3657148681874
 21
75.44781337470926
 31
0.0
  0
LINE
  5
A67
330
A50
100
AcDbEntity
  8
0
100
AcDbLine
 10
220.8657148681874
 20
75.44781337470926
 30
0.0
 11
220.8657148681874
 21
88.44781337470925
 31
0.0
  0
LINE
  5
A68
330
A50
100
AcDbEntity
  8
0
100
AcDbLine
 10
111.8657148681873
 20
88.44781337470925
 30
0.0
 11
111.8657148681873
 21
75.44781337470926
 31
0.0
  0
LINE
  5
A69
330
A50
100
AcDbEntity
  8
0
100
AcDbLine
 10
132.3657148681874
 20
107.4478133747092
 30
0.0
 11
200.3657148681873
 21
107.4478133747092
 31
0.0
  0
LINE
  5
A6A
330
A50
100
AcDbEntity
  8
0
100
AcDbLine
 10
129.3657148681874
 20
75.44781337470926
 30
0.0
 11
129.3657148681874
 21
104.4478133747092
 31
0.0
  0
LINE
  5
A6B
330
A50
100
AcDbEntity
  8
0
100
AcDbLine
 10
203.3657148681873
 20
75.44781337470926
 30
0.0
 11
203.3657148681873
 21
104.4478133747092
 31
0.0
  0
LINE
  5
A6C
330
A50
100
AcDbEntity
  8
0
100
AcDbLine
 10
220.8657148681874
 20
88.44781337470925
 30
0.0
 11
207.2561540424947
 21
110.6273289601085
 31
0.0
  0
LINE
  5
A6D
330
A50
100
AcDbEntity
  8
0
100
AcDbLine
 10
125.4752756938799
 20
110.6273289601085
 30
0.0
 11
111.8657148681873
 21
88.44781337470925
 31
0.0
  0
LINE
  5
A6E
330
A50
100
AcDbEntity
  8
0
100
AcDbLine
 10
203.3657148681873
 20
75.44781337470926
 30
0.0
 11
220.8657148681874
 21
75.44781337470926
 31
0.0
  0
LINE
  5
A6F
330
A50
100
AcDbEntity
  8
1
100
AcDbLine
 10
166.3657148681873
 20
118.4478133747092
 30
0.0
 11
166.3657148681873
 21
102.4478133747093
 31
0.0
  0
ARC
  5
A70
330
A50
100
AcDbEntity
  8
0
100
AcDbCircle
 10
202.1678654655561
 20
107.4478133747092
 30
0.0
 40
6.0
100
AcDbArc
 50
31.99999999999962
 51
90.0
  0
ARC
  5
A71
330
A50
100
AcDbEntity
  8
0
100
AcDbCircle
 10
130.5635642708186
 20
107.4478133747092
 30
0.0
 40
6.0
100
AcDbArc
 50
90.0
 51
148.0000000000003
  0
ARC
  5
A72
330
A50
100
AcDbEntity
  8
0
100
AcDbCircle
 10
132.3657148681874
 20
104.4478133747092
 30
0.0
 40
3.0
100
AcDbArc
 50
90.0
 51
180.0
  0
ARC
  5
A73
330
A50
100
AcDbEntity
  8
0
100
AcDbCircle
 10
200.3657148681873
 20
104.4478133747092
 30
0.0
 40
3.0
100
AcDbArc
 50
0.0
 51
90.0
  0
LINE
  5
A74
330
A50
100
AcDbEntity
  8
2
100
AcDbLine
 10
206.3657148681873
 20
88.44781337470925
 30
0.0
 11
206.3657148681873
 21
110.1982963884023
 31
0.0
  0
ARC
  5
A75
330
A50
100
AcDbEntity
  8
2
100
AcDbCircle
 10
203.3657148681873
 20
110.1982963884023
 30
0.0
 40
3.0
100
AcDbArc
 50
0.0
 51
66.46662861613859
  0
LINE
  5
A76
330
A50
100
AcDbEntity
  8
1
100
AcDbLine
 10
213.1157148681873
 20
70.44781337470926
 30
0.0
 11
213.1157148681873
 21
106.0779965223051
 31
0.0
  0
LINE
  5
A77
330
A50
100
AcDbEntity
  8
2
100
AcDbLine
 10
216.3657148681874
 20
75.44781337470926
 30
0.0
 11
216.3657148681874
 21
81.44781337470927
 31
0.0
  0
LINE
  5
A78
330
A50
100
AcDbEntity
  8
2
100
AcDbLine
 10
218.3657148681873
 20
81.44781337470927
 30
0.0
 11
218.3657148681873
 21
88.44781337470925
 31
0.0
  0
LINE
  5
A79
330
A50
100
AcDbEntity
  8
2
100
AcDbLine
 10
209.8657148681873
 20
81.44781337470927
 30
0.0
 11
209.8657148681873
 21
75.44781337470926
 31
0.0
  0
LINE
  5
A7A
330
A50
100
AcDbEntity
  8
2
100
AcDbLine
 10
207.8657148681873
 20
81.44781337470927
 30
0.0
 11
218.3657148681873
 21
81.44781337470927
 31
0.0
  0
LINE
  5
A7B
330
A50
100
AcDbEntity
  8
0
100
AcDbLine
 10
132.3657148681874
 20
108.4478133747092
 30
0.0
 11
200.3657148681873
 21
108.4478133747092
 31
0.0
  0
ARC
  5
A7C
330
A50
100
AcDbEntity
  8
0
100
AcDbCircle
 10
132.3657148681874
 20
104.4478133747092
 30
0.0
 40
4.0
100
AcDbArc
 50
90.0
 51
180.0
  0
LINE
  5
A7D
330
A50
100
AcDbEntity
  8
0
100
AcDbLine
 10
128.3657148681874
 20
75.44781337470926
 30
0.0
 11
128.3657148681874
 21
104.4478133747092
 31
0.0
  0
LINE
  5
A7E
330
A50
100
AcDbEntity
  8
0
100
AcDbLine
 10
202.1678654655561
 20
113.4478133747092
 30
0.0
 11
130.5635642708186
 21
113.4478133747092
 31
0.0
  0
LINE
  5
A7F
330
A50
100
AcDbEntity
  8
2
100
AcDbLine
 10
206.3657148681873
 20
88.44781337470925
 30
0.0
 11
220.8657148681874
 21
88.44781337470925
 31
0.0
  0
LINE
  5
A80
330
A50
100
AcDbEntity
  8
1
100
AcDbLine
 10
119.6157148681874
 20
70.44781337470926
 30
0.0
 11
119.6157148681874
 21
106.0779965223051
 31
0.0
  0
ARC
  5
A81
330
A50
100
AcDbEntity
  8
2
100
AcDbCircle
 10
129.3657148681874
 20
110.1982963884023
 30
0.0
 40
3.0
100
AcDbArc
 50
113.5333713838614
 51
180.0
  0
LINE
  5
A82
330
A50
100
AcDbEntity
  8
2
100
AcDbLine
 10
126.3657148681873
 20
88.44781337470925
 30
0.0
 11
126.3657148681873
 21
110.1982963884023
 31
0.0
  0
LINE
  5
A83
330
A50
100
AcDbEntity
  8
2
100
AcDbLine
 10
126.3657148681873
 20
88.44781337470925
 30
0.0
 11
111.8657148681873
 21
88.44781337470925
 31
0.0
  0
LINE
  5
A84
330
A50
100
AcDbEntity
  8
2
100
AcDbLine
 10
124.8657148681874
 20
81.44781337470927
 30
0.0
 11
114.3657148681874
 21
81.44781337470927
 31
0.0
  0
LINE
  5
A85
330
A50
100
AcDbEntity
  8
2
100
AcDbLine
 10
122.8657148681874
 20
81.44781337470927
 30
0.0
 11
122.8657148681874
 21
75.44781337470926
 31
0.0
  0
LINE
  5
A86
330
A50
100
AcDbEntity
  8
2
100
AcDbLine
 10
116.3657148681874
 20
75.44781337470926
 30
0.0
 11
116.3657148681874
 21
81.44781337470927
 31
0.0
  0
LINE
  5
A87
330
A50
100
AcDbEntity
  8
0
100
AcDbLine
 10
204.3657148681873
 20
75.44781337470926
 30
0.0
 11
204.3657148681873
 21
104.4478133747092
 31
0.0
  0
ARC
  5
A88
330
A50
100
AcDbEntity
  8
0
100
AcDbCircle
 10
200.3657148681873
 20
104.4478133747092
 30
0.0
 40
4.0
100
AcDbArc
 50
0.0
 51
90.0
  0
LINE
  5
A89
330
A50
100
AcDbEntity
  8
1
100
AcDbLine
 10
106.8657148681875
 20
174.1276700904237
 30
0.0
 11
225.8657148681873
 21
174.1276700904237
 31
0.0
  0
LINE
  5
A8A
330
A50
100
AcDbEntity
  8
0
100
AcDbLine
 10
220.8657148681873
 20
174.1276700904237
 30
0.0
 11
220.1467427113508
 21
182.3455594472928
 31
0.0
  0
LINE
  5
A8B
330
A50
100
AcDbEntity
  8
0
100
AcDbLine
 10
220.8657148681873
 20
174.1276700904237
 30
0.0
 11
220.1467427113509
 21
165.9097807335546
 31
0.0
  0
LINE
  5
A8C
330
A50
100
AcDbEntity
  8
1
100
AcDbLine
 10
213.1157148681873
 20
182.3776700904235
 30
0.0
 11
213.1157148681873
 21
165.8776700904237
 31
0.0
  0
CIRCLE
  5
A8D
330
A50
100
AcDbEntity
  8
0
100
AcDbCircle
 10
213.1157148681873
 20
174.1276700904237
 30
0.0
 40
3.25
  0
LINE
  5
A8E
330
A50
100
AcDbEntity
  8
1
100
AcDbLine
 10
166.3657148681873
 20
189.1276700904238
 30
0.0
 11
166.3657148681873
 21
159.1276700904238
 31
0.0
  0
LINE
  5
A8F
330
A50
100
AcDbEntity
  8
0
100
AcDbLine
 10
206.3657148681873
 20
170.1276700904237
 30
0.0
 11
206.3657148681873
 21
178.1276700904237
 31
0.0
  0
LINE
  5
A90
330
A50
100
AcDbEntity
  8
0
100
AcDbLine
 10
208.8657148681873
 20
180.6276700904237
 30
0.0
 11
219.7513843047341
 21
180.6276700904237
 31
0.0
  0
LINE
  5
A91
330
A50
100
AcDbEntity
  8
0
100
AcDbLine
 10
208.8657148681873
 20
167.6276700904237
 30
0.0
 11
219.7513843047342
 21
167.6276700904237
 31
0.0
  0
ARC
  5
A92
330
A50
100
AcDbEntity
  8
0
100
AcDbCircle
 10
208.8657148681873
 20
178.1276700904237
 30
0.0
 40
2.5
100
AcDbArc
 50
90.0
 51
180.0
  0
ARC
  5
A93
330
A50
100
AcDbEntity
  8
0
100
AcDbCircle
 10
208.8657148681873
 20
170.1276700904237
 30
0.0
 40
2.5
100
AcDbArc
 50
180.0
 51
270.0
  0
ARC
  5
A94
330
A50
100
AcDbEntity
  8
0
100
AcDbCircle
 10
219.7513843047341
 20
181.1276700904237
 30
0.0
 40
0.5
100
AcDbArc
 50
270.0
 51
4.999999999999793
  0
ARC
  5
A95
330
A50
100
AcDbEntity
  8
0
100
AcDbCircle
 10
219.7513843047342
 20
167.1276700904237
 30
0.0
 40
0.5
100
AcDbArc
 50
354.9999999999985
 51
90.0
  0
LINE
  5
A96
330
A50
100
AcDbEntity
  8
0
100
AcDbLine
 10
203.3657148681873
 20
184.6276700904237
 30
0.0
 11
216.6562559661215
 21
184.6276700904237
 31
0.0
  0
LINE
  5
A97
330
A50
100
AcDbEntity
  8
0
100
AcDbLine
 10
129.3657148681874
 20
184.1276700904238
 30
0.0
 11
203.3657148681872
 21
184.1276700904238
 31
0.0
  0
LINE
  5
A98
330
A50
100
AcDbEntity
  8
0
100
AcDbLine
 10
129.3657148681874
 20
164.1276700904237
 30
0.0
 11
203.3657148681873
 21
164.1276700904238
 31
0.0
  0
LINE
  5
A99
330
A50
100
AcDbEntity
  8
0
100
AcDbLine
 10
203.3657148681872
 20
184.1276700904238
 30
0.0
 11
203.3657148681872
 21
184.6276700904237
 31
0.0
  0
LINE
  5
A9A
330
A50
100
AcDbEntity
  8
0
100
AcDbLine
 10
203.3657148681872
 20
184.1276700904238
 30
0.0
 11
214.6426426404703
 21
184.6276700904237
 31
0.0
  0
LINE
  5
A9B
330
A50
100
AcDbEntity
  8
2
100
AcDbLine
 10
267.3703168263812
 20
107.4478133747092
 30
0.0
 11
275.0911644514618
 21
108.1233000147149
 31
0.0
  0
LINE
  5
A9C
330
A50
100
AcDbEntity
  8
2
100
AcDbLine
 10
267.3703168263813
 20
107.4478133747092
 30
0.0
 11
259.6494692012999
 21
108.1233000147149
 31
0.0
  0
ARC
  5
A9D
330
A50
100
AcDbEntity
  8
2
100
AcDbCircle
 10
274.8732750945927
 20
110.6137867599442
 30
0.0
 40
2.5
100
AcDbArc
 50
274.9999999999997
 51
356.193370389763
  0
ARC
  5
A9E
330
A50
100
AcDbEntity
  8
2
100
AcDbCircle
 10
259.867358558169
 20
110.6137867599443
 30
0.0
 40
2.5
100
AcDbArc
 50
183.8066296102386
 51
265.0000000000003
  0
LINE
  5
A9F
330
A50
100
AcDbEntity
  8
0
100
AcDbLine
 10
267.3703168263809
 20
88.44781337470925
 30
0.0
 11
267.3703168263809
 21
75.44781337470926
 31
0.0
  0
LINE
  5
AA0
330
A50
100
AcDbEntity
  8
0
100
AcDbLine
 10
273.8703168263813
 20
88.44781337470925
 30
0.0
 11
260.8703168263813
 21
88.44781337470925
 31
0.0
  0
LINE
  5
AA1
330
A50
100
AcDbEntity
  8
0
100
AcDbLine
 10
273.8703168263814
 20
108.0514931941608
 30
0.0
 11
273.8703168263813
 21
88.44781337470925
 31
0.0
  0
LINE
  5
AA2
330
A50
100
AcDbEntity
  8
0
100
AcDbLine
 10
260.8703168263814
 20
108.0514931941608
 30
0.0
 11
260.8703168263813
 21
88.44781337470925
 31
0.0
  0
POLYLINE
  5
AA3
330
A50
100
AcDbEntity
  8
0
100
AcDb2dPolyline
 66
     1
 10
0.0
 20
0.0
 30
0.0
  0
VERTEX
  5
AA4
330
AA3
100
AcDbEntity
  8
0
100
AcDbVertex
100
AcDb2dVertex
 10
271.3703168263814
 20
110.1982963884024
 30
0.0
 42
-0.0856430709373415
  0
VERTEX
  5
AA5
330
AA3
100
AcDbEntity
  8
0
100
AcDbVertex
100
AcDb2dVertex
 10
272.3436359378131
 20
110.0303484593382
 30
0.0
 42
-0.0922092839784777
  0
VERTEX
  5
AA6
330
AA3
100
AcDbEntity
  8
0
100
AcDbVertex
100
AcDb2dVertex
 10
273.1380837793478
 20
109.5695122906819
 30
0.0
 42
-0.103321285014218
  0
VERTEX
  5
AA7
330
AA3
100
AcDbEntity
  8
0
100
AcDbVertex
100
AcDb2dVertex
 10
273.6863715448675
 20
108.8562266242397
 30
0.0
 42
-0.1128344823430784
  0
VERTEX
  5
AA8
330
AA3
100
AcDbEntity
  8
0
100
AcDbVertex
100
AcDb2dVertex
 10
273.8703168263814
 20
108.0514931941608
 30
0.0
 42
-0.1128344823430791
  0
SEQEND
  5
AA9
330
AA3
100
AcDbEntity
  8
0
  0
POLYLINE
  5
AAA
330
A50
100
AcDbEntity
  8
0
100
AcDb2dPolyline
 66
     1
 10
0.0
 20
0.0
 30
0.0
  0
VERTEX
  5
AAB
330
AAA
100
AcDbEntity
  8
0
100
AcDbVertex
100
AcDb2dVertex
 10
263.3703168263812
 20
110.1982963884024
 30
0.0
 42
0.0856430709373415
  0
VERTEX
  5
AAC
330
AAA
100
AcDbEntity
  8
0
100
AcDbVertex
100
AcDb2dVertex
 10
262.3969977149495
 20
110.0303484593382
 30
0.0
 42
0.0922092839784777
  0
VERTEX
  5
AAD
330
AAA
100
AcDbEntity
  8
0
100
AcDbVertex
100
AcDb2dVertex
 10
261.6025498734147
 20
109.5695122906819
 30
0.0
 42
0.103321285014218
  0
VERTEX
  5
AAE
330
AAA
100
AcDbEntity
  8
0
100
AcDbVertex
100
AcDb2dVertex
 10
261.054262107895
 20
108.8562266242397
 30
0.0
 42
0.1128344823430784
  0
VERTEX
  5
AAF
330
AAA
100
AcDbEntity
  8
0
100
AcDbVertex
100
AcDb2dVertex
 10
260.8703168263811
 20
108.0514931941608
 30
0.0
 42
0.1128344823430791
  0
SEQEND
  5
AB0
330
AAA
100
AcDbEntity
  8
0
  0
ARC
  5
AB1
330
A50
100
AcDbEntity
  8
0
100
AcDbCircle
 10
259.867358558169
 20
110.2818399894742
 30
0.0
 40
2.5
100
AcDbArc
 50
94.99999999999966
 51
178.7848172169814
  0
ARC
  5
AB2
330
A50
100
AcDbEntity
  8
0
100
AcDbCircle
 10
274.8732750945927
 20
110.2818399894742
 30
0.0
 40
2.5
100
AcDbArc
 50
1.215182783018601
 51
85.0000000000003
  0
LINE
  5
AB3
330
A50
100
AcDbEntity
  8
0
100
AcDbLine
 10
267.3703168263813
 20
113.4478133747092
 30
0.0
 11
259.6494692012999
 21
112.7723267347036
 31
0.0
  0
LINE
  5
AB4
330
A50
100
AcDbEntity
  8
0
100
AcDbLine
 10
267.3703168263812
 20
113.4478133747092
 30
0.0
 11
275.0911644514618
 21
112.7723267347036
 31
0.0
  0
LINE
  5
AB5
330
A50
100
AcDbEntity
  8
0
100
AcDbLine
 10
257.3679208110431
 20
110.3348583659284
 30
0.0
 11
256.8703168263808
 21
75.44781337470926
 31
0.0
  0
LINE
  5
AB6
330
A50
100
AcDbEntity
  8
0
100
AcDbLine
 10
277.3727128417186
 20
110.3348583659284
 30
0.0
 11
277.8703168263808
 21
75.44781337470926
 31
0.0
  0
LINE
  5
AB7
330
A50
100
AcDbEntity
  8
1
100
AcDbLine
 10
267.3703168263809
 20
118.4478133747092
 30
0.0
 11
267.3703168263809
 21
70.44781337470926
 31
0.0
  0
LINE
  5
AB8
330
A50
100
AcDbEntity
  8
0
100
AcDbLine
 10
277.8703168263808
 20
75.44781337470926
 30
0.0
 11
256.8703168263809
 21
75.44781337470926
 31
0.0
  0
ARC
  5
AB9
330
A50
100
AcDbEntity
  8
0
100
AcDbCircle
 10
216.7699622332892
 20
180.9911798266244
 30
0.0
 40
3.638267520936345
100
AcDbArc
 50
21.85503368795014
 51
91.79094863201711
  0
LINE
  5
ABA
330
A50
100
AcDbEntity
  8
0
100
AcDbLine
 10
203.3657148681872
 20
164.1276700904237
 30
0.0
 11
214.6426426404703
 21
163.6276700904238
 31
0.0
  0
LINE
  5
ABB
330
A50
100
AcDbEntity
  8
0
100
AcDbLine
 10
203.3657148681872
 20
164.1276700904237
 30
0.0
 11
203.3657148681872
 21
163.6276700904238
 31
0.0
  0
LINE
  5
ABC
330
A50
100
AcDbEntity
  8
0
100
AcDbLine
 10
203.3657148681873
 20
163.6276700904238
 30
0.0
 11
216.6562559661215
 21
163.6276700904238
 31
0.0
  0
ARC
  5
ABD
330
A50
100
AcDbEntity
  8
0
100
AcDbCircle
 10
216.7699622332892
 20
167.2641603542231
 30
0.0
 40
3.638267520936335
100
AcDbArc
 50
268.2090513679828
 51
338.1449663120499
  0
ARC
  5
ABE
330
A50
100
AcDbEntity
  8
0
100
AcDbCircle
 10
115.9614675030856
 20
167.2641603542231
 30
0.0
 40
3.638267520936345
100
AcDbArc
 50
201.8550336879501
 51
271.790948632017
  0
LINE
  5
ABF
330
A50
100
AcDbEntity
  8
0
100
AcDbLine
 10
129.3657148681874
 20
163.6276700904238
 30
0.0
 11
116.0751737702532
 21
163.6276700904238
 31
0.0
  0
LINE
  5
AC0
330
A50
100
AcDbEntity
  8
0
100
AcDbLine
 10
129.3657148681874
 20
164.1276700904237
 30
0.0
 11
129.3657148681874
 21
163.6276700904238
 31
0.0
  0
LINE
  5
AC1
330
A50
100
AcDbEntity
  8
0
100
AcDbLine
 10
129.3657148681874
 20
164.1276700904237
 30
0.0
 11
118.0887870959045
 21
163.6276700904238
 31
0.0
  0
ARC
  5
AC2
330
A50
100
AcDbEntity
  8
0
100
AcDbCircle
 10
115.9614675030856
 20
180.9911798266244
 30
0.0
 40
3.638267520936335
100
AcDbArc
 50
88.20905136798288
 51
158.1449663120498
  0
LINE
  5
AC3
330
A50
100
AcDbEntity
  8
0
100
AcDbLine
 10
129.3657148681874
 20
184.1276700904238
 30
0.0
 11
118.0887870959045
 21
184.6276700904237
 31
0.0
  0
LINE
  5
AC4
330
A50
100
AcDbEntity
  8
0
100
AcDbLine
 10
129.3657148681874
 20
184.1276700904238
 30
0.0
 11
129.3657148681874
 21
184.6276700904237
 31
0.0
  0
LINE
  5
AC5
330
A50
100
AcDbEntity
  8
0
100
AcDbLine
 10
129.3657148681874
 20
184.6276700904237
 30
0.0
 11
116.0751737702532
 21
184.6276700904237
 31
0.0
  0
ARC
  5
AC6
330
A50
100
AcDbEntity
  8
0
100
AcDbCircle
 10
112.9800454316405
 20
167.1276700904237
 30
0.0
 40
0.5
100
AcDbArc
 50
90.0
 51
185.0000000000013
  0
ARC
  5
AC7
330
A50
100
AcDbEntity
  8
0
100
AcDbCircle
 10
112.9800454316406
 20
181.1276700904237
 30
0.0
 40
0.5
100
AcDbArc
 50
174.9999999999984
 51
270.0
  0
ARC
  5
AC8
330
A50
100
AcDbEntity
  8
0
100
AcDbCircle
 10
123.8657148681874
 20
170.1276700904237
 30
0.0
 40
2.5
100
AcDbArc
 50
270.0
 51
0.0
  0
ARC
  5
AC9
330
A50
100
AcDbEntity
  8
0
100
AcDbCircle
 10
123.8657148681874
 20
178.1276700904237
 30
0.0
 40
2.5
100
AcDbArc
 50
0.0
 51
90.0
  0
LINE
  5
ACA
330
A50
100
AcDbEntity
  8
0
100
AcDbLine
 10
123.8657148681874
 20
167.6276700904237
 30
0.0
 11
112.9800454316405
 21
167.6276700904237
 31
0.0
  0
LINE
  5
ACB
330
A50
100
AcDbEntity
  8
0
100
AcDbLine
 10
123.8657148681874
 20
180.6276700904237
 30
0.0
 11
112.9800454316406
 21
180.6276700904237
 31
0.0
  0
LINE
  5
ACC
330
A50
100
AcDbEntity
  8
0
100
AcDbLine
 10
126.3657148681873
 20
170.1276700904237
 30
0.0
 11
126.3657148681873
 21
178.1276700904237
 31
0.0
  0
CIRCLE
  5
ACD
330
A50
100
AcDbEntity
  8
0
100
AcDbCircle
 10
119.6157148681874
 20
174.1276700904237
 30
0.0
 40
3.25
  0
LINE
  5
ACE
330
A50
100
AcDbEntity
  8
1
100
AcDbLine
 10
119.6157148681874
 20
182.3776700904235
 30
0.0
 11
119.6157148681874
 21
165.8776700904237
 31
0.0
  0
LINE
  5
ACF
330
A50
100
AcDbEntity
  8
0
100
AcDbLine
 10
111.8657148681875
 20
174.1276700904237
 30
0.0
 11
112.5846870250237
 21
165.9097807335546
 31
0.0
  0
LINE
  5
AD0
330
A50
100
AcDbEntity
  8
0
100
AcDbLine
 10
111.8657148681875
 20
174.1276700904237
 30
0.0
 11
112.5846870250239
 21
182.3455594472928
 31
0.0
  0
LINE
  5
AD1
330
A50
100
AcDbEntity
  8
2
100
AcDbLine
 10
207.8657148681873
 20
81.44781337470927
 30
0.0
 11
207.8657148681873
 21
88.44781337470925
 31
0.0
  0
LINE
  5
AD2
330
A50
100
AcDbEntity
  8
2
100
AcDbLine
 10
114.3657148681874
 20
81.44781337470929
 30
0.0
 11
114.3657148681874
 21
88.44781337470928
 31
0.0
  0
LINE
  5
AD3
330
A50
100
AcDbEntity
  8
2
100
AcDbLine
 10
124.8657148681874
 20
81.44781337470927
 30
0.0
 11
124.8657148681874
 21
88.44781337470925
 31
0.0
  0
CIRCLE
  5
AD4
330
A50
100
AcDbEntity
  8
0
100
AcDbCircle
 10
213.1157148681873
 20
174.1276700904237
 30
0.0
 40
5.25
  0
CIRCLE
  5
AD5
330
A50
100
AcDbEntity
  8
0
100
AcDbCircle
 10
119.6157148681874
 20
174.1276700904237
 30
0.0
 40
5.25
  0
ENDSEC
  0
SECTION
  2
OBJECTS
  0
DICTIONARY
  5
A3E
330
0
100
AcDbDictionary
281
     1
  3
ACAD_GROUP
350
A3F
  3
ACAD_LAYOUT
350
A4B
  3
ACAD_MLINESTYLE
350
A48
  3
ACAD_PLOTSETTINGS
350
A4A
  3
ACAD_PLOTSTYLENAME
350
A40
  3
AcDbVariableDictionary
350
BB3
  3
AcmDictionary
350
B8F
  3
AMG
350
AD7
  3
AMGSNAPSETTINGS
350
BB7
  3
DWGPROPS
350
B92
  3
MAPISURF_MODULE
350
B62
  0
DICTIONARY
  5
BAC
330
A50
100
AcDbDictionary
280
     1
281
     1
  3
ACAD_INDEX
360
BAD
  0
DICTIONARY
  5
A3F
102
{ACAD_REACTORS
330
A3E
102
}
330
A3E
100
AcDbDictionary
281
     1
  0
DICTIONARY
  5
A4B
102
{ACAD_REACTORS
330
A3E
102
}
330
A3E
100
AcDbDictionary
281
     1
  3
Model
350
A53
  3
ﾚｲｱｳﾄ1
350
A4F
  0
DICTIONARY
  5
A48
102
{ACAD_REACTORS
330
A3E
102
}
330
A3E
100
AcDbDictionary
281
     1
  3
Standard
350
A49
  0
DICTIONARY
  5
A4A
102
{ACAD_REACTORS
330
A3E
102
}
330
A3E
100
AcDbDictionary
281
     1
  0
ACDBDICTIONARYWDFLT
  5
A40
102
{ACAD_REACTORS
330
A3E
102
}
330
A3E
100
AcDbDictionary
281
     1
  3
Normal
350
A41
100
AcDbDictionaryWithDefault
340
A41
  0
DICTIONARY
  5
BB3
102
{ACAD_REACTORS
330
A3E
102
}
330
A3E
100
AcDbDictionary
281
     1
  3
DIMASSOC
350
BB5
  3
INDEXCTL
350
BB4
  0
DICTIONARY
  5
B8F
102
{ACAD_REACTORS
330
A3E
102
}
330
A3E
100
AcDbDictionary
281
     1
  3
AcmBOMDATA
350
B90
  0
DICTIONARY
  5
AD7
102
{ACAD_REACTORS
330
A3E
102
}
330
A3E
100
AcDbDictionary
281
     1
  3
AcMgSettings
350
AD8
  3
AMGLAYCFG
350
B9C
  0
DICTIONARY
  5
BB7
102
{ACAD_REACTORS
330
A3E
102
}
330
A3E
100
AcDbDictionary
281
     1
  3
DIMENSION
350
BBC
  3
FEA
350
BBB
  3
HATCH (1)
350
BB8
  3
HATCH (2)
350
BB9
  3
SIMPLE WELD
350
BBD
  3
SYMBOLS
350
BBA
  0
XRECORD
  5
B92
102
{ACAD_REACTORS
330
A3E
102
}
330
A3E
100
AcDbXrecord
280
     1
  1
DWGPROPS COOKIE
  2

  3

  4

  6

  7

  8

  9

300
AmdtFileType=84
301
=
302
=
303
=
304
=
305
=
306
=
307
=
308
=
309
=
 40
0.0713449768518519
 41
2448650.567878472
 42
2456115.414493634
  1

 90
        1
  0
DICTIONARY
  5
BAD
102
{ACAD_REACTORS
330
BAC
102
}
330
BAC
100
AcDbDictionary
281
     1
  3
*A1
350
BAE
  0
LAYOUT
  5
A53
102
{ACAD_REACTORS
330
A4B
102
}
330
A4B
100
AcDbPlotSettings
  1

  2
\\KONISHIDENXP\SHARP MX-2700FG
  4

  6

 40
0.0
 41
0.0
 42
0.0
 43
0.0
 44
0.0
 45
0.0
 46
0.0
 47
0.0
 48
0.0
 49
0.0
140
0.0
141
0.0
142
1.0
143
1.0
 70
  1712
 72
     0
 73
     0
 74
     0
  7

 75
     0
147
1.0
148
0.0
149
0.0
100
AcDbLayout
  1
Model
 70
     1
 71
     0
 10
0.0
 20
0.0
 11
12.0
 21
9.0
 12
0.0
 22
0.0
 32
0.0
 14
0.0
 24
0.0
 34
0.0
 15
0.0
 25
0.0
 35
0.0
146
0.0
 13
0.0
 23
0.0
 33
0.0
 16
1.0
 26
0.0
 36
0.0
 17
0.0
 27
1.0
 37
0.0
 76
     0
330
A50
  0
LAYOUT
  5
A4F
102
{ACAD_REACTORS
330
A4B
102
}
330
A4B
100
AcDbPlotSettings
  1

  2
\\KONISHIDENXP\SHARP MX-2700FG
  4

  6

 40
0.0
 41
0.0
 42
0.0
 43
0.0
 44
0.0
 45
0.0
 46
0.0
 47
0.0
 48
0.0
 49
0.0
140
0.0
141
0.0
142
1.0
143
1.0
 70
   688
 72
     0
 73
     0
 74
     5
  7

 75
    16
147
1.0
148
0.0
149
0.0
100
AcDbLayout
  1
ﾚｲｱｳﾄ1
 70
     0
 71
     1
 10
0.0
 20
0.0
 11
12.0
 21
9.0
 12
0.0
 22
0.0
 32
0.0
 14
1.000000000000000E+20
 24
1.000000000000000E+20
 34
1.000000000000000E+20
 15
-1.000000000000000E+20
 25
-1.000000000000000E+20
 35
-1.000000000000000E+20
146
0.0
 13
0.0
 23
0.0
 33
0.0
 16
1.0
 26
0.0
 36
0.0
 17
0.0
 27
1.0
 37
0.0
 76
     0
330
A4C
  0
MLINESTYLE
  5
A49
102
{ACAD_REACTORS
330
A48
102
}
330
A48
100
AcDbMlineStyle
  2
STANDARD
 70
     0
  3

 62
   256
 51
90.0
 52
90.0
 71
     2
 49
0.5
 62
   256
  6
BYLAYER
 49
-0.5
 62
   256
  6
BYLAYER
  0
ACDBPLACEHOLDER
  5
A41
102
{ACAD_REACTORS
330
A40
102
}
330
A40
  0
DICTIONARYVAR
  5
BB5
102
{ACAD_REACTORS
330
BB3
102
}
330
BB3
100
DictionaryVariables
280
     0
  1
1
  0
DICTIONARYVAR
  5
BB4
102
{ACAD_REACTORS
330
BB3
102
}
330
BB3
100
DictionaryVariables
280
     0
  1
1
  0
ACMDATADICTIONARY
  5
B90
102
{ACAD_REACTORS
330
B8F
102
}
330
B8F
100
AcDbDictionary
281
     1
  3
*A1
350
B91
100
AcmDataDictionary
  0
DICTIONARY
  5
AD8
102
{ACAD_REACTORS
330
AD7
102
}
330
AD7
100
AcDbDictionary
281
     1
  3
DWGSETTINGS
350
AD9
  0
ACAMGFILTERDAT
  5
BBC
102
{ACAD_REACTORS
330
BB7
102
}
330
BB7
100
AcAmgFilterDat
 70
    15
  1
DIMENSION,AMDT_*_DIM
  2
*
  3
*
  4
*
  5
*
290
     1
  0
ACAMGFILTERDAT
  5
BBB
102
{ACAD_REACTORS
330
BB7
102
}
330
BB7
100
AcAmgFilterDat
 70
    15
  1
*
  2
AM_FEA-AM_*
  3
*
  4
*
  5
*
290
     1
  0
ACAMGFILTERDAT
  5
BB8
102
{ACAD_REACTORS
330
BB7
102
}
330
BB7
100
AcAmgFilterDat
 70
    15
  1
HATCH
  2
*
  3
*
  4
*
  5
*
290
     1
  0
ACAMGFILTERDAT
  5
BB9
102
{ACAD_REACTORS
330
BB7
102
}
330
BB7
100
AcAmgFilterDat
 70
    15
  1
LINE
  2
8,8N,*-8,*-8N,AM_8,AM_8N,*-AM_8,*-AM_8N
  3
*
  4
*
  5
INSERT,STDPART2D
290
     1
  0
ACAMGFILTERDAT
  5
BBD
102
{ACAD_REACTORS
330
BB7
102
}
330
BB7
100
AcAmgFilterDat
 70
    15
  1
ARC
  2
AM_5
  3
*
  4
2
  5
INSERT
290
     0
  0
ACAMGFILTERDAT
  5
BBA
102
{ACAD_REACTORS
330
BB7
102
}
330
BB7
100
AcAmgFilterDat
 70
    15
  1
ACMFCFRAME,ACMDATUMTARGET,ACMDATUMID,ACMWELDSYM,ACMSURFSYM,ACMFEATID,ACMPARTREF,ACMBALLOON,AMDTEDGESYM,AMGSCREWCALCTABLE
  2
*
  3
*
  4
*
  5
*
290
     1
  0
LAYER_INDEX
  5
BAE
102
{ACAD_REACTORS
330
BAD
102
}
330
BAD
100
AcDbIndex
 40
2456447.697496736
100
AcDbLayerIndex
  8
0
360
BAF
 90
       72
  8
1
360
BB0
 90
        8
  8
2
360
BB1
 90
       20
  8
DEFPOINTS
360
BB2
 90
        0
  0
ACMDATAENTRYBLOCK
  5
B91
102
{ACAD_REACTORS
330
B90
102
}
330
B90
100
AcmDataEntry
100
AcmDataEntryBlock
  0
IDBUFFER
  5
BAF
330
0
100
AcDbIdBuffer
330
A66
330
A67
330
A68
330
A69
330
A6A
330
A6B
330
A6C
330
A6D
330
A6E
330
A70
330
A71
330
A72
330
A73
330
A7B
330
A7C
330
A7D
330
A7E
330
A87
330
A88
330
A8A
330
A8B
330
A8D
330
A8F
330
A90
330
A91
330
A92
330
A93
330
A94
330
A95
330
A96
330
A97
330
A98
330
A99
330
A9A
330
A9F
330
AA0
330
AA1
330
AA2
330
AA3
330
AAA
330
AB1
330
AB2
330
AB3
330
AB4
330
AB5
330
AB6
330
AB8
330
AB9
330
ABA
330
ABB
330
ABC
330
ABD
330
ABE
330
ABF
330
AC0
330
AC1
330
AC2
330
AC3
330
AC4
330
AC5
330
AC6
330
AC7
330
AC8
330
AC9
330
ACA
330
ACB
330
ACC
330
ACD
330
ACF
330
AD0
330
AD4
330
AD5
  0
IDBUFFER
  5
BB0
330
0
100
AcDbIdBuffer
330
A6F
330
A76
330
A80
330
A89
330
A8C
330
A8E
330
AB7
330
ACE
  0
IDBUFFER
  5
BB1
330
0
100
AcDbIdBuffer
330
A74
330
A75
330
A77
330
A78
330
A79
330
A7A
330
A7F
330
A81
330
A82
330
A83
330
A84
330
A85
330
A86
330
A9B
330
A9C
330
A9D
330
A9E
330
AD1
330
AD2
330
AD3
  0
IDBUFFER
  5
BB2
330
0
100
AcDbIdBuffer
  0
ENDSEC
  0
EOF
