  0
SECTION
  2
HEADER
  9
$ACADVER
  1
AC1009
  9
$INSBASE
 10
0.0
 20
0.0
 30
0.0
  9
$EXTMIN
 10
102.3843083370873
 20
161.84541063248921
 30
-0.0015258207003583
  9
$EXTMAX
 10
559.49826750893635
 20
391.3597931838961
 30
0.0000000349246037
  9
$LIMMIN
 10
0.0
 20
0.0
  9
$LIMMAX
 10
275.0
 20
175.0
  9
$ORTHOMODE
 70
     1
  9
$REGENMODE
 70
     1
  9
$FILLMODE
 70
     1
  9
$QTEXTMODE
 70
     0
  9
$MIRRTEXT
 70
     0
  9
$DRAGMODE
 70
     2
  9
$LTSCALE
 40
10.0
  9
$OSMODE
 70
   231
  9
$ATTMODE
 70
     1
  9
$TEXTSIZE
 40
0.2
  9
$TRACEWID
 40
0.05
  9
$TEXTSTYLE
  7
STANDARD
  9
$CLAYER
  8
0
  9
$CELTYPE
  6
BYLAYER
  9
$CECOLOR
 62
   256
  9
$DIMSCALE
 40
1.0
  9
$DIMASZ
 40
3.0
  9
$DIMEXO
 40
0.0625
  9
$DIMDLI
 40
0.38
  9
$DIMRND
 40
0.0
  9
$DIMDLE
 40
0.0
  9
$DIMEXE
 40
0.18
  9
$DIMTP
 40
0.0
  9
$DIMTM
 40
0.0
  9
$DIMTXT
 40
3.0
  9
$DIMCEN
 40
0.09
  9
$DIMTSZ
 40
0.0
  9
$DIMTOL
 70
     0
  9
$DIMLIM
 70
     0
  9
$DIMTIH
 70
     1
  9
$DIMTOH
 70
     1
  9
$DIMSE1
 70
     0
  9
$DIMSE2
 70
     0
  9
$DIMTAD
 70
     0
  9
$DIMZIN
 70
     0
  9
$DIMBLK
  1

  9
$DIMASO
 70
     1
  9
$DIMSHO
 70
     1
  9
$DIMPOST
  1

  9
$DIMAPOST
  1

  9
$DIMALT
 70
     0
  9
$DIMALTD
 70
     2
  9
$DIMALTF
 40
25.399999999999999
  9
$DIMLFAC
 40
1.0
  9
$DIMTOFL
 70
     0
  9
$DIMTVP
 40
0.0
  9
$DIMTIX
 70
     0
  9
$DIMSOXD
 70
     0
  9
$DIMSAH
 70
     0
  9
$DIMBLK1
  1

  9
$DIMBLK2
  1

  9
$DIMSTYLE
  2
STANDARD
  9
$DIMCLRD
 70
     0
  9
$DIMCLRE
 70
     0
  9
$DIMCLRT
 70
     0
  9
$DIMTFAC
 40
1.0
  9
$DIMGAP
 40
0.09
  9
$LUNITS
 70
     2
  9
$LUPREC
 70
     4
  9
$SKETCHINC
 40
0.1
  9
$FILLETRAD
 40
0.0
  9
$AUNITS
 70
     0
  9
$AUPREC
 70
     0
  9
$MENU
  1
E:\r13\win\SUPPORT\ACAD
  9
$ELEVATION
 40
0.0
  9
$PELEVATION
 40
0.0
  9
$THICKNESS
 40
0.0
  9
$LIMCHECK
 70
     0
  9
$BLIPMODE
 70
     1
  9
$CHAMFERA
 40
0.0
  9
$CHAMFERB
 40
0.0
  9
$SKPOLY
 70
     0
  9
$TDCREATE
 40
2450476.5659966432
  9
$TDUPDATE
 40
2453236.8364861808
  9
$TDINDWG
 40
0.0002321991
  9
$TDUSRTIMER
 40
0.0002321991
  9
$USRTIMER
 70
     1
  9
$ANGBASE
 50
0.0
  9
$ANGDIR
 70
     0
  9
$PDMODE
 70
     0
  9
$PDSIZE
 40
0.0
  9
$PLINEWID
 40
0.0
  9
$COORDS
 70
     0
  9
$SPLFRAME
 70
     0
  9
$SPLINETYPE
 70
     6
  9
$SPLINESEGS
 70
     8
  9
$ATTDIA
 70
     0
  9
$ATTREQ
 70
     1
  9
$HANDLING
 70
-16383
  9
$HANDSEED
  5
FD8
  9
$SURFTAB1
 70
     6
  9
$SURFTAB2
 70
     6
  9
$SURFTYPE
 70
     6
  9
$SURFU
 70
     6
  9
$SURFV
 70
     6
  9
$UCSNAME
  2

  9
$UCSORG
 10
0.0
 20
0.0
 30
0.0
  9
$UCSXDIR
 10
1.0
 20
0.0
 30
0.0
  9
$UCSYDIR
 10
0.0
 20
1.0
 30
0.0
  9
$PUCSNAME
  2

  9
$PUCSORG
 10
0.0
 20
0.0
 30
0.0
  9
$PUCSXDIR
 10
1.0
 20
0.0
 30
0.0
  9
$PUCSYDIR
 10
0.0
 20
1.0
 30
0.0
  9
$USERI1
 70
     4
  9
$USERI2
 70
     1
  9
$USERI3
 70
     1
  9
$USERI4
 70
     0
  9
$USERI5
 70
     0
  9
$USERR1
 40
1.0
  9
$USERR2
 40
3.0
  9
$USERR3
 40
3.0
  9
$USERR4
 40
3.0
  9
$USERR5
 40
10.0
  9
$WORLDVIEW
 70
     1
  9
$SHADEDGE
 70
     3
  9
$SHADEDIF
 70
    70
  9
$TILEMODE
 70
     1
  9
$MAXACTVP
 70
    16
  9
$PLIMCHECK
 70
     0
  9
$PEXTMIN
 10
1.0000000000000000E+020
 20
1.0000000000000000E+020
 30
1.0000000000000000E+020
  9
$PEXTMAX
 10
-1.0000000000000000E+020
 20
-1.0000000000000000E+020
 30
-1.0000000000000000E+020
  9
$PLIMMIN
 10
0.0
 20
0.0
  9
$PLIMMAX
 10
12.0
 20
9.0
  9
$UNITMODE
 70
     0
  9
$VISRETAIN
 70
     0
  9
$PLINEGEN
 70
     0
  9
$PSLTSCALE
 70
     1
  0
ENDSEC
  0
SECTION
  2
TABLES
  0
TABLE
  2
VPORT
 70
     3
  0
VPORT
  2
*ACTIVE
 70
     0
 10
0.0
 20
0.0
 11
1.0
 21
1.0
 12
330.94128792301183
 22
276.60260190819258
 13
0.0
 23
0.0
 14
5.0
 24
5.0
 15
0.0
 25
0.0
 16
0.0
 26
0.0
 36
1.0
 17
0.0
 27
0.0
 37
0.0
 40
544.44631302035293
 41
0.9407114624505929
 42
50.0
 43
0.0
 44
0.0
 50
0.0
 51
0.0
 71
     0
 72
   100
 73
     1
 74
     0
 75
     0
 76
     0
 77
     0
 78
     0
  0
ENDTAB
  0
TABLE
  2
LTYPE
 70
     3
  0
LTYPE
  2
CONTINUOUS
 70
     0
  3
Solid Line
 72
    65
 73
     0
 40
0.0
  0
LTYPE
  2
CENTER
 70
     0
  3
____ _ ____ _ ____ _ ____ _ ____ _ ____ _ ____
 72
    65
 73
     4
 40
2.0
 49
1.25
 49
-0.25
 49
0.25
 49
-0.25
  0
LTYPE
  2
HIDDEN
 70
     0
  3
_ _ _ _ _ _ _ _ _ _ _ _ _ _ _ _ _ _ _ _ _ _ _
 72
    65
 73
     2
 40
0.375
 49
0.25
 49
-0.125
  0
ENDTAB
  0
TABLE
  2
LAYER
 70
     3
  0
LAYER
  2
0
 70
     0
 62
     7
  6
CONTINUOUS
  0
LAYER
  2
1
 70
     0
 62
     1
  6
CENTER
  0
LAYER
  2
2
 70
     0
 62
     2
  6
HIDDEN
  0
ENDTAB
  0
TABLE
  2
STYLE
 70
     1
  0
STYLE
  2
STANDARD
 70
     0
 40
0.0
 41
1.0
 50
0.0
 71
     0
 42
0.2
  3
SIMPLEX
  4
BIGFONT
  0
ENDTAB
  0
TABLE
  2
VIEW
 70
     0
  0
ENDTAB
  0
TABLE
  2
UCS
 70
     0
  0
ENDTAB
  0
TABLE
  2
APPID
 70
     1
  0
APPID
  2
ACAD
 70
     0
  0
ENDTAB
  0
TABLE
  2
DIMSTYLE
 70
     1
  0
DIMSTYLE
  2
STANDARD
 70
     0
  3

  4

  5

  6

  7

 40
1.0
 41
0.18
 42
0.0625
 43
0.38
 44
0.18
 45
0.0
 46
0.0
 47
0.0
 48
0.0
140
0.18
141
0.09
142
0.0
143
25.399999999999999
144
1.0
145
0.0
146
1.0
147
0.09
 71
     0
 72
     0
 73
     1
 74
     1
 75
     0
 76
     0
 77
     0
 78
     0
170
     0
171
     2
172
     0
173
     0
174
     0
175
     0
176
     0
177
     0
178
     0
  0
ENDTAB
  0
ENDSEC
  0
SECTION
  2
BLOCKS
  0
BLOCK
  8
0
  2
$MODEL_SPACE
 70
     0
 10
0.0
 20
0.0
 30
0.0
  3
$MODEL_SPACE
  1

  0
ENDBLK
  5
F87
  8
0
  0
BLOCK
 67
     1
  8
0
  2
$PAPER_SPACE
 70
     0
 10
0.0
 20
0.0
 30
0.0
  3
$PAPER_SPACE
  1

  0
ENDBLK
  5
F85
 67
     1
  8
0
  0
ENDSEC
  0
SECTION
  2
ENTITIES
  0
LINE
  5
EDF
  8
0
 10
392.13933186056329
 20
211.84860532417139
 30
0.0
 11
265.13933186056278
 21
211.84860532417139
 31
0.0
  0
LINE
  5
EDE
  8
0
 10
392.13933186056329
 20
233.8486053241717
 30
0.0
 11
257.53933186056321
 21
233.84860532417139
 31
0.0
  0
LINE
  5
E9E
  8
1
 10
224.79747152584639
 20
364.81736746594288
 30
0.0
 11
392.1393318605634
 21
364.81736746594288
 31
0.0
  0
LINE
  5
E9D
  8
0
 10
242.13588961024411
 20
348.78482392769502
 30
0.0
 11
392.1393318605634
 21
348.78482392769502
 31
0.0
  0
LINE
  5
E9C
  8
0
 10
242.13588961024411
 20
380.78482392769502
 30
0.0
 11
392.1393318605634
 21
380.78482392769502
 31
0.0
  0
LINE
  5
EF4
  8
2
 10
122.4836071210468
 20
170.76094049254459
 30
0.0
 11
122.4836071210468
 21
188.84078799254459
 31
0.0
  0
LINE
  5
EF3
  8
2
 10
114.3239121210467
 20
170.76094049254459
 30
0.0
 11
114.3239121210467
 21
188.84078799254459
 31
0.0
  0
LINE
  5
EED
  8
2
 10
123.4037596210467
 20
169.84078799254459
 30
0.0
 11
123.4037596210467
 21
186.84078799254459
 31
0.0
  0
LINE
  5
EEB
  8
2
 10
113.4037596210467
 20
169.84078799254459
 30
0.0
 11
113.4037596210467
 21
186.84078799254459
 31
0.0
  0
LINE
  5
EEA
  8
2
 10
124.9037596210467
 20
169.84078799254459
 30
0.0
 11
124.9037596210467
 21
190.68608745416529
 31
0.0
  0
LINE
  5
EE5
  8
2
 10
111.9037596210467
 20
169.84078799254459
 30
0.0
 11
111.9037596210467
 21
190.68608745416529
 31
0.0
  0
LINE
  5
EE2
  8
0
 10
102.4037596210465
 20
169.8407879925447
 30
0.0
 11
102.4037596210465
 21
222.84519561895789
 31
0.0
  0
LINE
  5
EAD
  8
1
 10
118.4037596210467
 20
233.8486053241711
 30
0.0
 11
118.4037596210467
 21
161.84860532417139
 31
0.0
  0
LINE
  5
EA5
  8
0
 10
134.4037596210467
 20
169.8407879925447
 30
0.0
 11
134.4037596210467
 21
222.84519561895789
 31
0.0
  0
LINE
  5
EA3
  8
0
 10
102.4037596210467
 20
169.8407879925447
 30
0.0
 11
118.4037596210467
 21
169.8407879925447
 31
0.0
  0
LINE
  5
EA4
  8
0
 10
134.4037596210467
 20
169.8407879925447
 30
0.0
 11
118.4037596210467
 21
169.8407879925447
 31
0.0
  0
LINE
  5
EF0
  8
2
 10
114.3239121210467
 20
170.76094049254459
 30
0.0
 11
122.4836071210468
 21
170.76094049254459
 31
0.0
  0
LINE
  5
EEF
  8
2
 10
113.4037596210467
 20
169.84078799254459
 30
0.0
 11
114.3239121210467
 21
170.76094049254459
 31
0.0
  0
LINE
  5
EF1
  8
2
 10
122.4836071210468
 20
170.76094049254459
 30
0.0
 11
123.4037596210467
 21
169.84078799254459
 31
0.0
  0
ARC
  5
EFC
  8
0
 10
124.999884090159
 20
222.84519561895789
 30
0.0
 40
9.4038755326444594
 50
359.9988925172641
 51
63.688726970303271
  0
ARC
  5
EF8
  8
0
 10
111.80763515193451
 20
222.84519561895789
 30
0.0
 40
9.4038755326444594
 50
116.31127302969669
 51
180.0011074069956
  0
ARC
  5
EE4
  8
2
 10
118.6245919575593
 20
236.63143007996351
 30
0.0
 40
24.783445120366078
 50
243.68872697030349
 51
269.48946047501568
  0
ARC
  5
EFD
  8
2
 10
111.80763515193451
 20
222.84519561895789
 30
0.0
 40
9.4038755326444594
 50
180.0011074069956
 51
243.68872697030349
  0
LINE
  5
EF7
  8
2
 10
122.4836071210468
 20
188.84078799254459
 30
0.0
 11
118.4037596210467
 21
191.1962890449222
 31
0.0
  0
LINE
  5
EF5
  8
2
 10
114.3239121210467
 20
188.84078799254459
 30
0.0
 11
122.4836071210468
 21
188.84078799254459
 31
0.0
  0
LINE
  5
EF2
  8
2
 10
113.4037596210467
 20
186.84078799254459
 30
0.0
 11
123.4037596210467
 21
186.84078799254459
 31
0.0
  0
LINE
  5
EE9
  8
2
 10
122.9037596210467
 20
191.84078799254459
 30
0.0
 11
118.4037596210467
 21
191.84078799254459
 31
0.0
  0
LINE
  5
EF6
  8
2
 10
114.3239121210467
 20
188.84078799254459
 30
0.0
 11
118.4037596210467
 21
191.1962890449222
 31
0.0
  0
LINE
  5
EEC
  8
2
 10
113.4037596210467
 20
186.84078799254459
 30
0.0
 11
114.3239121210467
 21
188.43453887325609
 31
0.0
  0
LINE
  5
EE7
  8
2
 10
113.9037596210467
 20
191.84078799254459
 30
0.0
 11
111.9037596210467
 21
190.68608745416529
 31
0.0
  0
LINE
  5
EE6
  8
2
 10
113.9037596210467
 20
191.84078799254459
 30
0.0
 11
118.4037596210467
 21
191.84078799254459
 31
0.0
  0
LINE
  5
EEE
  8
2
 10
123.4037596210467
 20
186.84078799254459
 30
0.0
 11
122.4836071210468
 21
188.43453887325609
 31
0.0
  0
LINE
  5
EE8
  8
2
 10
122.9037596210467
 20
191.84078799254459
 30
0.0
 11
124.9037596210467
 21
190.68608745416529
 31
0.0
  0
ARC
  5
EFA
  8
2
 10
118.1829272845342
 20
236.63143007996351
 30
0.0
 40
24.783445120366078
 50
270.51053952498421
 51
296.31127302969628
  0
ARC
  5
EF9
  8
2
 10
124.999884090159
 20
222.84519561895789
 30
0.0
 40
9.4038755326444594
 50
296.31127302969628
 51
359.9988925172641
  0
ARC
  5
EE3
  8
0
 10
118.6245919575593
 20
209.0589611579523
 30
0.0
 40
24.783445120366089
 50
90.510539524984296
 51
116.31127302969649
  0
ARC
  5
EFB
  8
0
 10
118.1829272845342
 20
209.0589611579523
 30
0.0
 40
24.783445120366089
 50
63.68872697030347
 51
89.489460475015704
  0
LINE
  5
EDD
  8
0
 10
257.13933186056329
 20
233.8486053241715
 30
0.0
 11
258.53933186056321
 21
233.8486053241715
 31
0.0
  0
ARC
  5
ED5
  8
0
 10
265.13933186056278
 20
199.84860532417139
 30
0.0
 40
12.0
 50
90.0
 51
180.0
  0
LINE
  5
EE0
  8
0
 10
231.1393318605634
 20
169.84078799254459
 30
0.0
 11
231.1393318605634
 21
207.84860532417139
 31
0.0
  0
LINE
  5
EDB
  8
1
 10
242.13933186056329
 20
198.2122454892704
 30
0.0
 11
242.13933186056329
 21
162.9562523708255
 31
0.0
  0
LINE
  5
EDA
  8
2
 10
235.6393318605632
 20
169.84078799254459
 30
0.0
 11
235.6393318605632
 21
190.68608745416529
 31
0.0
  0
LINE
  5
ED7
  8
0
 10
253.13933186056289
 20
169.84078799254459
 30
0.0
 11
253.13933186056281
 21
199.84860532417139
 31
0.0
  0
LINE
  5
ED2
  8
2
 10
248.63933186056329
 20
169.84078799254459
 30
0.0
 11
248.63933186056329
 21
190.68608745416529
 31
0.0
  0
LINE
  5
ED1
  8
2
 10
237.1393318605632
 20
169.84078799254459
 30
0.0
 11
237.1393318605632
 21
186.84078799254459
 31
0.0
  0
LINE
  5
ECF
  8
2
 10
247.1393318605632
 20
169.84078799254459
 30
0.0
 11
247.1393318605632
 21
186.84078799254459
 31
0.0
  0
LINE
  5
EC9
  8
2
 10
238.0594843605632
 20
170.76094049254459
 30
0.0
 11
238.0594843605632
 21
188.84078799254459
 31
0.0
  0
LINE
  5
EC8
  8
2
 10
246.21917936056329
 20
170.76094049254459
 30
0.0
 11
246.21917936056329
 21
188.84078799254459
 31
0.0
  0
LINE
  5
ED6
  8
0
 10
242.13933186056309
 20
169.84078799254459
 30
0.0
 11
253.13933186056289
 21
169.84078799254459
 31
0.0
  0
LINE
  5
ECC
  8
2
 10
238.0594843605632
 20
170.76094049254459
 30
0.0
 11
246.21917936056329
 21
170.76094049254459
 31
0.0
  0
LINE
  5
EE1
  8
0
 10
242.13933186056309
 20
169.84078799254459
 30
0.0
 11
231.1393318605634
 21
169.84078799254459
 31
0.0
  0
LINE
  5
ECD
  8
2
 10
237.1393318605632
 20
169.84078799254459
 30
0.0
 11
238.0594843605632
 21
170.76094049254459
 31
0.0
  0
LINE
  5
ECB
  8
2
 10
246.21917936056329
 20
170.76094049254459
 30
0.0
 11
247.1393318605632
 21
169.84078799254459
 31
0.0
  0
ARC
  5
EDC
  8
0
 10
257.13933186056329
 20
207.84860532417139
 30
0.0
 40
26.0
 50
90.000000000000099
 51
180.0
  0
LINE
  5
ED3
  8
2
 10
246.63933186056329
 20
191.84078799254459
 30
0.0
 11
242.13933186056329
 21
191.84078799254459
 31
0.0
  0
LINE
  5
ECA
  8
2
 10
237.1393318605632
 20
186.84078799254459
 30
0.0
 11
247.1393318605632
 21
186.84078799254459
 31
0.0
  0
LINE
  5
EC7
  8
2
 10
238.0594843605632
 20
188.84078799254459
 30
0.0
 11
246.21917936056329
 21
188.84078799254459
 31
0.0
  0
LINE
  5
EC5
  8
2
 10
246.21917936056329
 20
188.84078799254459
 30
0.0
 11
242.13933186056329
 21
191.1962890449222
 31
0.0
  0
LINE
  5
ED8
  8
2
 10
237.6393318605632
 20
191.84078799254459
 30
0.0
 11
235.6393318605632
 21
190.68608745416529
 31
0.0
  0
LINE
  5
ED9
  8
2
 10
237.6393318605632
 20
191.84078799254459
 30
0.0
 11
242.13933186056329
 21
191.84078799254459
 31
0.0
  0
LINE
  5
ED0
  8
2
 10
237.1393318605632
 20
186.84078799254459
 30
0.0
 11
238.0594843605632
 21
188.43453887325609
 31
0.0
  0
LINE
  5
EC6
  8
2
 10
238.0594843605632
 20
188.84078799254459
 30
0.0
 11
242.13933186056329
 21
191.1962890449222
 31
0.0
  0
LINE
  5
ED4
  8
2
 10
246.63933186056329
 20
191.84078799254459
 30
0.0
 11
248.63933186056329
 21
190.68608745416529
 31
0.0
  0
LINE
  5
ECE
  8
2
 10
247.1393318605632
 20
186.84078799254459
 30
0.0
 11
246.21917936056329
 21
188.43453887325609
 31
0.0
  0
ARC
  5
EFF
  8
0
 10
255.92194230166919
 20
365.00565626420757
 30
0.0
 40
24.783445120366089
 50
180.51053952498421
 51
206.31127302969639
  0
LINE
  5
E9B
  8
1
 10
242.13933186056329
 20
377.36649424468919
 30
0.0
 11
242.13933186056329
 21
351.78013149638531
 31
0.0
  0
ARC
  5
EFE
  8
0
 10
242.13570784066371
 20
358.18869945858268
 30
0.0
 40
9.4038755326444594
 50
206.31127302969671
 51
270.00110740699557
  0
ARC
  5
F00
  8
0
 10
255.92194230166919
 20
364.56399159118251
 30
0.0
 40
24.783445120366089
 50
153.68872697030341
 51
179.4894604750157
  0
ARC
  5
F01
  8
0
 10
242.13570784066371
 20
371.3809483968073
 30
0.0
 40
9.4038755326444594
 50
89.998892517264167
 51
153.68872697030321
  0
LINE
  5
EA9
  8
0
 10
392.13933186056329
 20
233.8486053241717
 30
0.0
 11
526.73933186056308
 21
233.84860532417139
 31
0.0
  0
LINE
  5
EA8
  8
0
 10
392.13933186056329
 20
211.84860532417139
 30
0.0
 11
519.13933186056374
 21
211.84860532417139
 31
0.0
  0
LINE
  5
EAC
  8
1
 10
392.13933186056329
 20
245.6307345605631
 30
0.0
 11
392.13933186056329
 21
182.78580284078041
 31
0.0
  0
LINE
  5
EC1
  8
2
 10
538.05948436056315
 20
170.76094049254459
 30
0.0
 11
538.05948436056315
 21
188.84078799254459
 31
0.0
  0
LINE
  5
EC0
  8
2
 10
546.2191793605632
 20
170.76094049254459
 30
0.0
 11
546.2191793605632
 21
188.84078799254459
 31
0.0
  0
LINE
  5
EBA
  8
2
 10
537.13933186056317
 20
169.84078799254459
 30
0.0
 11
537.13933186056317
 21
186.84078799254459
 31
0.0
  0
LINE
  5
EB8
  8
2
 10
547.13933186056329
 20
169.84078799254459
 30
0.0
 11
547.13933186056329
 21
186.84078799254459
 31
0.0
  0
LINE
  5
EB7
  8
2
 10
535.63933186056329
 20
169.84078799254459
 30
0.0
 11
535.63933186056329
 21
190.68608745416529
 31
0.0
  0
LINE
  5
EB2
  8
0
 10
531.13933186056352
 20
169.84078799254459
 30
0.0
 11
531.13933186056374
 21
199.84860532417139
 31
0.0
  0
LINE
  5
EAF
  8
2
 10
548.63933186056329
 20
169.84078799254459
 30
0.0
 11
548.63933186056329
 21
190.68608745416529
 31
0.0
  0
LINE
  5
EAE
  8
1
 10
542.13933186056317
 20
198.2122454892704
 30
0.0
 11
542.13933186056317
 21
162.9562523708255
 31
0.0
  0
LINE
  5
EA7
  8
0
 10
553.13933186056295
 20
169.84078799254459
 30
0.0
 11
553.13933186056295
 21
207.84860532417139
 31
0.0
  0
LINE
  5
EA6
  8
0
 10
542.13933186056317
 20
169.84078799254459
 30
0.0
 11
553.13933186056295
 21
169.84078799254459
 31
0.0
  0
LINE
  5
EB3
  8
0
 10
542.13933186056317
 20
169.84078799254459
 30
0.0
 11
531.13933186056352
 21
169.84078799254459
 31
0.0
  0
LINE
  5
EBD
  8
2
 10
546.2191793605632
 20
170.76094049254459
 30
0.0
 11
538.05948436056315
 21
170.76094049254459
 31
0.0
  0
LINE
  5
EBE
  8
2
 10
538.05948436056315
 20
170.76094049254459
 30
0.0
 11
537.13933186056317
 21
169.84078799254459
 31
0.0
  0
LINE
  5
EBC
  8
2
 10
547.13933186056329
 20
169.84078799254459
 30
0.0
 11
546.2191793605632
 21
170.76094049254459
 31
0.0
  0
ARC
  5
EAB
  8
0
 10
527.13933186056295
 20
207.84860532417139
 30
0.0
 40
26.0
 50
0.0
 51
89.999999999999915
  0
ARC
  5
EB4
  8
0
 10
519.13933186056374
 20
199.84860532417139
 30
0.0
 40
12.0
 50
0.0
 51
90.0
  0
LINE
  5
EB5
  8
2
 10
537.63933186056317
 20
191.84078799254459
 30
0.0
 11
535.63933186056329
 21
190.68608745416529
 31
0.0
  0
LINE
  5
EC3
  8
2
 10
546.2191793605632
 20
188.84078799254459
 30
0.0
 11
542.13933186056317
 21
191.1962890449222
 31
0.0
  0
LINE
  5
EC2
  8
2
 10
546.2191793605632
 20
188.84078799254459
 30
0.0
 11
538.05948436056315
 21
188.84078799254459
 31
0.0
  0
LINE
  5
EBF
  8
2
 10
547.13933186056329
 20
186.84078799254459
 30
0.0
 11
537.13933186056317
 21
186.84078799254459
 31
0.0
  0
LINE
  5
EB0
  8
2
 10
546.63933186056317
 20
191.84078799254459
 30
0.0
 11
542.13933186056317
 21
191.84078799254459
 31
0.0
  0
LINE
  5
EC4
  8
2
 10
538.05948436056315
 20
188.84078799254459
 30
0.0
 11
542.13933186056317
 21
191.1962890449222
 31
0.0
  0
LINE
  5
EBB
  8
2
 10
537.13933186056317
 20
186.84078799254459
 30
0.0
 11
538.05948436056315
 21
188.43453887325609
 31
0.0
  0
LINE
  5
EB6
  8
2
 10
537.63933186056317
 20
191.84078799254459
 30
0.0
 11
542.13933186056317
 21
191.84078799254459
 31
0.0
  0
LINE
  5
EB9
  8
2
 10
547.13933186056329
 20
186.84078799254459
 30
0.0
 11
546.2191793605632
 21
188.43453887325609
 31
0.0
  0
LINE
  5
EB1
  8
2
 10
546.63933186056317
 20
191.84078799254459
 30
0.0
 11
548.63933186056329
 21
190.68608745416529
 31
0.0
  0
LINE
  5
EAA
  8
0
 10
527.13933186056295
 20
233.8486053241715
 30
0.0
 11
525.7393318605632
 21
233.8486053241715
 31
0.0
  0
LINE
  5
EA1
  8
0
 10
542.14277411088278
 20
380.78482392769502
 30
0.0
 11
392.1393318605634
 21
380.78482392769502
 31
0.0
  0
LINE
  5
EA0
  8
0
 10
542.14277411088278
 20
348.78482392769502
 30
0.0
 11
392.1393318605634
 21
348.78482392769502
 31
0.0
  0
LINE
  5
E9F
  8
1
 10
559.48119219528053
 20
364.81736746594288
 30
0.0
 11
392.1393318605634
 21
364.81736746594288
 31
0.0
  0
LINE
  5
E9A
  8
1
 10
392.13933186056329
 20
391.34784928413978
 30
0.0
 11
392.13933186056329
 21
340.56628339479261
 31
0.0
  0
ARC
  5
F03
  8
0
 10
528.35672141945736
 20
365.00565626420757
 30
0.0
 40
24.783445120366089
 50
333.68872697031321
 51
359.48946047501568
  0
LINE
  5
EA2
  8
1
 10
542.13933186056352
 20
377.36649424468919
 30
0.0
 11
542.13933186056352
 21
351.78013149638531
 31
0.0
  0
ARC
  5
F04
  8
0
 10
542.14295588046286
 20
358.18869945858268
 30
0.0
 40
9.4038755326444594
 50
269.99889259300431
 51
333.68872697031298
  0
ARC
  5
F05
  8
0
 10
528.35672141945736
 20
364.56399159118251
 30
0.0
 40
24.783445120366089
 50
0.5105395249842771
 51
26.31127302968677
  0
ARC
  5
F02
  8
0
 10
542.14295588046286
 20
371.3809483968073
 30
0.0
 40
9.4038755326444594
 50
26.311273029686969
 51
90.001107482735819
  0
ENDSEC
  0
EOF
