  0
SECTION
  2
HEADER
  9
$ACADVER
  1
AC1009
  9
$INSBASE
 10
0.0
 20
0.0
 30
0.0
  9
$EXTMIN
 10
59.812546719113008
 20
77.754364732832641
 30
-0.0015258207003583
  9
$EXTMAX
 10
296.84829790127492
 20
226.77017269745721
 30
0.0000000349246037
  9
$LIMMIN
 10
0.0
 20
0.0
  9
$LIMMAX
 10
375.0
 20
270.0
  9
$ORTHOMODE
 70
     0
  9
$REGENMODE
 70
     1
  9
$FILLMODE
 70
     1
  9
$QTEXTMODE
 70
     0
  9
$MIRRTEXT
 70
     0
  9
$DRAGMODE
 70
     2
  9
$LTSCALE
 40
10.0
  9
$OSMODE
 70
   231
  9
$ATTMODE
 70
     1
  9
$TEXTSIZE
 40
5.0
  9
$TRACEWID
 40
0.05
  9
$TEXTSTYLE
  7
STANDARD
  9
$CLAYER
  8
0
  9
$CELTYPE
  6
BYLAYER
  9
$CECOLOR
 62
   256
  9
$DIMSCALE
 40
1.0
  9
$DIMASZ
 40
3.0
  9
$DIMEXO
 40
2.0
  9
$DIMDLI
 40
0.38
  9
$DIMRND
 40
0.0
  9
$DIMDLE
 40
0.0
  9
$DIMEXE
 40
2.0
  9
$DIMTP
 40
0.0
  9
$DIMTM
 40
0.0
  9
$DIMTXT
 40
3.2000000000000002
  9
$DIMCEN
 40
0.09
  9
$DIMTSZ
 40
0.0
  9
$DIMTOL
 70
     0
  9
$DIMLIM
 70
     0
  9
$DIMTIH
 70
     0
  9
$DIMTOH
 70
     0
  9
$DIMSE1
 70
     0
  9
$DIMSE2
 70
     0
  9
$DIMTAD
 70
     1
  9
$DIMZIN
 70
     0
  9
$DIMBLK
  1

  9
$DIMASO
 70
     1
  9
$DIMSHO
 70
     0
  9
$DIMPOST
  1

  9
$DIMAPOST
  1

  9
$DIMALT
 70
     0
  9
$DIMALTD
 70
     2
  9
$DIMALTF
 40
25.399999999999999
  9
$DIMLFAC
 40
1.0
  9
$DIMTOFL
 70
     0
  9
$DIMTVP
 40
1.6000000000000001
  9
$DIMTIX
 70
     1
  9
$DIMSOXD
 70
     0
  9
$DIMSAH
 70
     0
  9
$DIMBLK1
  1

  9
$DIMBLK2
  1

  9
$DIMSTYLE
  2
STANDARD
  9
$DIMCLRD
 70
     0
  9
$DIMCLRE
 70
     0
  9
$DIMCLRT
 70
     0
  9
$DIMTFAC
 40
1.0
  9
$DIMGAP
 40
0.09
  9
$LUNITS
 70
     2
  9
$LUPREC
 70
     4
  9
$SKETCHINC
 40
0.1
  9
$FILLETRAD
 40
0.75
  9
$AUNITS
 70
     0
  9
$AUPREC
 70
     0
  9
$MENU
  1
E:\r13\win\SUPPORT\ACAD
  9
$ELEVATION
 40
0.0
  9
$PELEVATION
 40
0.0
  9
$THICKNESS
 40
0.0
  9
$LIMCHECK
 70
     0
  9
$BLIPMODE
 70
     1
  9
$CHAMFERA
 40
0.0
  9
$CHAMFERB
 40
0.0
  9
$SKPOLY
 70
     0
  9
$TDCREATE
 40
2449839.7831365741
  9
$TDUPDATE
 40
2453236.836264641
  9
$TDINDWG
 40
0.0130834722
  9
$TDUSRTIMER
 40
0.0130834722
  9
$USRTIMER
 70
     1
  9
$ANGBASE
 50
0.0
  9
$ANGDIR
 70
     0
  9
$PDMODE
 70
     0
  9
$PDSIZE
 40
0.0
  9
$PLINEWID
 40
0.0
  9
$COORDS
 70
     0
  9
$SPLFRAME
 70
     0
  9
$SPLINETYPE
 70
     6
  9
$SPLINESEGS
 70
     8
  9
$ATTDIA
 70
     0
  9
$ATTREQ
 70
     1
  9
$HANDLING
 70
-16383
  9
$HANDSEED
  5
4CE
  9
$SURFTAB1
 70
     6
  9
$SURFTAB2
 70
     6
  9
$SURFTYPE
 70
     6
  9
$SURFU
 70
     6
  9
$SURFV
 70
     6
  9
$UCSNAME
  2

  9
$UCSORG
 10
0.0
 20
0.0
 30
0.0
  9
$UCSXDIR
 10
1.0
 20
0.0
 30
0.0
  9
$UCSYDIR
 10
0.0
 20
1.0
 30
0.0
  9
$PUCSNAME
  2

  9
$PUCSORG
 10
0.0
 20
0.0
 30
0.0
  9
$PUCSXDIR
 10
1.0
 20
0.0
 30
0.0
  9
$PUCSYDIR
 10
0.0
 20
1.0
 30
0.0
  9
$USERI1
 70
     0
  9
$USERI2
 70
     1
  9
$USERI3
 70
     1
  9
$USERI4
 70
     0
  9
$USERI5
 70
     0
  9
$USERR1
 40
0.0
  9
$USERR2
 40
0.0
  9
$USERR3
 40
0.0
  9
$USERR4
 40
0.0
  9
$USERR5
 40
0.0
  9
$WORLDVIEW
 70
     1
  9
$SHADEDGE
 70
     3
  9
$SHADEDIF
 70
    70
  9
$TILEMODE
 70
     1
  9
$MAXACTVP
 70
    16
  9
$PLIMCHECK
 70
     0
  9
$PEXTMIN
 10
1.0000000000000000E+020
 20
1.0000000000000000E+020
 30
1.0000000000000000E+020
  9
$PEXTMAX
 10
-1.0000000000000000E+020
 20
-1.0000000000000000E+020
 30
-1.0000000000000000E+020
  9
$PLIMMIN
 10
0.0
 20
0.0
  9
$PLIMMAX
 10
12.0
 20
9.0
  9
$UNITMODE
 70
     0
  9
$VISRETAIN
 70
     0
  9
$PLINEGEN
 70
     0
  9
$PSLTSCALE
 70
     0
  0
ENDSEC
  0
SECTION
  2
TABLES
  0
TABLE
  2
VPORT
 70
     3
  0
VPORT
  2
*ACTIVE
 70
     0
 10
0.0
 20
0.0
 11
1.0
 21
1.0
 12
178.33042231019391
 22
152.2622687151449
 13
0.0
 23
0.0
 14
10.0
 24
10.0
 15
10.0
 25
10.0
 16
0.0
 26
0.0
 36
1.0
 17
0.0
 27
0.0
 37
0.0
 40
282.32181099641508
 41
0.9407114624505929
 42
50.0
 43
0.0
 44
0.0
 50
0.0
 51
0.0
 71
     0
 72
   500
 73
     1
 74
     0
 75
     0
 76
     0
 77
     0
 78
     2
  0
ENDTAB
  0
TABLE
  2
LTYPE
 70
     3
  0
LTYPE
  2
CONTINUOUS
 70
     0
  3
Solid Line
 72
    65
 73
     0
 40
0.0
  0
LTYPE
  2
CENTER
 70
     0
  3
____ _ ____ _ ____ _ ____ _ ____ _ ____ _ ____
 72
    65
 73
     4
 40
2.0
 49
1.25
 49
-0.25
 49
0.25
 49
-0.25
  0
LTYPE
  2
HIDDEN
 70
     0
  3
_ _ _ _ _ _ _ _ _ _ _ _ _ _ _ _ _ _ _ _ _ _ _
 72
    65
 73
     2
 40
0.375
 49
0.25
 49
-0.125
  0
ENDTAB
  0
TABLE
  2
LAYER
 70
     3
  0
LAYER
  2
0
 70
     0
 62
     7
  6
CONTINUOUS
  0
LAYER
  2
1
 70
     0
 62
     1
  6
CENTER
  0
LAYER
  2
2
 70
     0
 62
     2
  6
HIDDEN
  0
ENDTAB
  0
TABLE
  2
STYLE
 70
     1
  0
STYLE
  2
STANDARD
 70
     0
 40
0.0
 41
1.0
 50
0.0
 71
     0
 42
5.0
  3
TXT
  4
BIGFONT
  0
ENDTAB
  0
TABLE
  2
VIEW
 70
     1
  0
VIEW
  2
ALL
 70
     0
 40
270.0
 10
220.99159663865541
 20
135.0
 41
0.0
 11
0.0
 21
0.0
 31
1.0
 12
0.0
 22
0.0
 32
0.0
 42
0.0
 43
0.0
 44
0.0
 50
0.0
 71
     0
  0
ENDTAB
  0
TABLE
  2
UCS
 70
     0
  0
ENDTAB
  0
TABLE
  2
APPID
 70
     3
  0
APPID
  2
ACAD
 70
     0
  0
APPID
  2
GENIUS_GENODEF_13
 70
     0
  0
APPID
  2
GENIUS_GENOBJ-N-FIL_13
 70
     0
  0
ENDTAB
  0
TABLE
  2
DIMSTYLE
 70
     1
  0
DIMSTYLE
  2
STANDARD
 70
     0
  3

  4

  5

  6

  7

 40
1.0
 41
0.18
 42
0.0625
 43
0.38
 44
0.18
 45
0.0
 46
0.0
 47
0.0
 48
0.0
140
0.18
141
0.09
142
0.0
143
25.399999999999999
144
1.0
145
0.0
146
1.0
147
0.09
 71
     0
 72
     0
 73
     1
 74
     1
 75
     0
 76
     0
 77
     0
 78
     0
170
     0
171
     2
172
     0
173
     0
174
     0
175
     0
176
     0
177
     0
178
     0
  0
ENDTAB
  0
ENDSEC
  0
SECTION
  2
BLOCKS
  0
BLOCK
  8
0
  2
$MODEL_SPACE
 70
     0
 10
0.0
 20
0.0
 30
0.0
  3
$MODEL_SPACE
  1

  0
ENDBLK
  5
476
  8
0
  0
BLOCK
 67
     1
  8
0
  2
$PAPER_SPACE
 70
     0
 10
0.0
 20
0.0
 30
0.0
  3
$PAPER_SPACE
  1

  0
ENDBLK
  5
474
 67
     1
  8
0
  0
ENDSEC
  0
SECTION
  2
ENTITIES
  0
LINE
  5
3A4
  8
0
 10
218.83369941149741
 20
195.7668840786454
 30
0.0
 11
283.9536994114975
 21
195.7668840786454
 31
0.0
  0
LINE
  5
3A5
  8
0
 10
218.83369941149741
 20
221.7668840786454
 30
0.0
 11
283.9536994114975
 21
221.7668840786454
 31
0.0
  0
LINE
  5
3A6
  8
1
 10
140.83369941149749
 20
208.7668840786454
 30
0.0
 11
296.83369941149749
 21
208.7668840786454
 31
0.0
  0
ARC
  5
3A7
  8
0
 10
264.8380550644797
 20
109.7668840786454
 30
0.0
 40
11.0
 50
359.99999999999972
 51
89.999999999999915
1001
GENIUS_GENODEF_13
1002
{
1000
HIER
1070
     0
1002
}
1002
{
1000
MANEDIT
1070
     0
1002
}
1002
{
1000
NOSEL
1070
     0
1002
}
1002
{
1000
BEHIND
1070
     0
1002
}
1002
{
1000
REACTOR
1002
}
1001
GENIUS_GENOBJ-N-FIL_13
1002
{
1000
OWNER
1000
GEN
1002
}
  0
LINE
  5
3A8
  8
0
 10
218.83369941149741
 20
135.76688407864549
 30
0.0
 11
270.82934375851539
 21
135.76688407864549
 31
0.0
  0
LINE
  5
3A9
  8
1
 10
218.83369941149741
 20
140.90938795943029
 30
0.0
 11
218.83369941149741
 21
114.82127949784289
 31
0.0
  0
ARC
  5
3AA
  8
0
 10
166.83805506447951
 20
114.7668840786454
 30
0.0
 40
21.0
 50
90.000000000000071
 51
180.0
1001
GENIUS_GENODEF_13
1002
{
1000
HIER
1070
     0
1002
}
1002
{
1000
MANEDIT
1070
     0
1002
}
1002
{
1000
NOSEL
1070
     0
1002
}
1002
{
1000
BEHIND
1070
     0
1002
}
1002
{
1000
REACTOR
1002
}
1001
GENIUS_GENOBJ-N-FIL_13
1002
{
1000
OWNER
1000
GEN
1002
}
  0
LINE
  5
3AB
  8
1
 10
72.838055064479605
 20
141.621561333301
 30
0.0
 11
72.838055064479605
 21
77.766884078645404
 31
0.0
  0
ARC
  5
3AC
  8
0
 10
172.82934375851519
 20
109.7668840786454
 30
0.0
 40
11.0
 50
90.000000000000071
 51
180.0000000000002
1001
GENIUS_GENODEF_13
1002
{
1000
HIER
1070
     0
1002
}
1002
{
1000
MANEDIT
1070
     0
1002
}
1002
{
1000
NOSEL
1070
     0
1002
}
1002
{
1000
BEHIND
1070
     0
1002
}
1002
{
1000
REACTOR
1002
}
1001
GENIUS_GENOBJ-N-FIL_13
1002
{
1000
OWNER
1000
GEN
1002
}
  0
LINE
  5
3AD
  8
0
 10
218.83369941149741
 20
135.76688407864549
 30
0.0
 11
166.83805506447951
 21
135.76688407864549
 31
0.0
  0
LINE
  5
3AE
  8
2
 10
148.68369941149729
 20
99.766884078645504
 30
0.0
 11
148.68369941149729
 21
82.766884078645489
 31
0.0
  0
LINE
  5
3AF
  8
2
 10
158.9836994114975
 20
99.766884078645504
 30
0.0
 11
158.9836994114975
 21
82.766884078645489
 31
0.0
  0
LINE
  5
3B0
  8
2
 10
150.6004931614975
 20
97.766884078645489
 30
0.0
 11
153.83369941149741
 21
99.633576577428585
 31
0.0
  0
LINE
  5
3B1
  8
2
 10
157.0669056614974
 20
97.766884078645489
 30
0.0
 11
153.83369941149741
 21
99.633576577428585
 31
0.0
  0
LINE
  5
3B2
  8
2
 10
76.071261314479585
 20
97.766884078645404
 30
0.0
 11
72.838055064479605
 21
99.633576577428499
 31
0.0
  0
LINE
  5
3B3
  8
2
 10
69.604848814479652
 20
97.766884078645404
 30
0.0
 11
72.838055064479605
 21
99.633576577428499
 31
0.0
  0
LINE
  5
3B4
  8
2
 10
77.98805506447971
 20
99.766884078645404
 30
0.0
 11
77.98805506447971
 21
82.766884078645404
 31
0.0
  0
LINE
  5
3B5
  8
2
 10
67.688055064479528
 20
99.766884078645404
 30
0.0
 11
67.688055064479528
 21
82.766884078645404
 31
0.0
  0
LINE
  5
3B6
  8
1
 10
153.83369941149741
 20
77.766884078645489
 30
0.0
 11
153.83369941149741
 21
105.7668840786454
 31
0.0
  0
LINE
  5
3B7
  8
0
 10
85.838055064479619
 20
127.7769975286227
 30
0.0
 11
85.838055064479619
 21
82.766884078645404
 31
0.0
  0
LINE
  5
3B8
  8
0
 10
59.838055064479619
 20
127.7769975286227
 30
0.0
 11
59.838055064479619
 21
82.766884078645404
 31
0.0
  0
LINE
  5
3B9
  8
0
 10
161.82934375851531
 20
82.766884078645489
 30
0.0
 11
161.82934375851519
 21
109.7668840786453
 31
0.0
  0
LINE
  5
3BA
  8
0
 10
145.8380550644797
 20
82.766884078645489
 30
0.0
 11
145.83805506447951
 21
114.7668840786454
 31
0.0
  0
LINE
  5
3BB
  8
0
 10
85.838055064479619
 20
82.766884078645404
 30
0.0
 11
59.838055064479619
 21
82.766884078645404
 31
0.0
  0
LINE
  5
3BC
  8
2
 10
68.838055064479619
 20
82.766884078645404
 30
0.0
 11
68.838055064479619
 21
95.766884078645404
 31
0.0
  0
LINE
  5
3BD
  8
2
 10
76.838055064479619
 20
82.766884078645404
 30
0.0
 11
76.838055064479619
 21
95.766884078645404
 31
0.0
  0
LINE
  5
3BE
  8
2
 10
69.604848814479652
 20
83.533677828645381
 30
0.0
 11
69.604848814479652
 21
97.766884078645404
 31
0.0
  0
LINE
  5
3BF
  8
2
 10
76.071261314479585
 20
83.533677828645381
 30
0.0
 11
76.071261314479585
 21
97.766884078645404
 31
0.0
  0
LINE
  5
3C0
  8
2
 10
76.838055064479619
 20
82.766884078645404
 30
0.0
 11
76.071261314479585
 21
83.533677828645381
 31
0.0
  0
LINE
  5
3C1
  8
2
 10
69.604848814479652
 20
83.533677828645381
 30
0.0
 11
68.838055064479619
 21
82.766884078645404
 31
0.0
  0
LINE
  5
3C2
  8
2
 10
76.071261314479585
 20
83.533677828645381
 30
0.0
 11
69.604848814479652
 21
83.533677828645381
 31
0.0
  0
LINE
  5
3C3
  8
2
 10
76.071261314479585
 20
97.766884078645404
 30
0.0
 11
69.604848814479652
 21
97.766884078645404
 31
0.0
  0
LINE
  5
3C4
  8
2
 10
76.838055064479619
 20
95.766884078645404
 30
0.0
 11
76.071261314479585
 21
97.095009812571647
 31
0.0
  0
LINE
  5
3C5
  8
2
 10
68.838055064479619
 20
95.766884078645404
 30
0.0
 11
69.604848814479652
 21
97.095009812571647
 31
0.0
  0
LINE
  5
3C6
  8
2
 10
76.838055064479619
 20
95.766884078645404
 30
0.0
 11
68.838055064479619
 21
95.766884078645404
 31
0.0
  0
LINE
  5
3C7
  8
2
 10
157.0669056614974
 20
83.533677828645466
 30
0.0
 11
157.0669056614974
 21
97.766884078645489
 31
0.0
  0
LINE
  5
3C8
  8
2
 10
150.6004931614975
 20
83.533677828645466
 30
0.0
 11
150.6004931614975
 21
97.766884078645489
 31
0.0
  0
LINE
  5
3C9
  8
2
 10
157.83369941149741
 20
82.766884078645489
 30
0.0
 11
157.83369941149741
 21
95.766884078645504
 31
0.0
  0
LINE
  5
3CA
  8
2
 10
149.83369941149741
 20
82.766884078645489
 30
0.0
 11
149.83369941149741
 21
95.766884078645504
 31
0.0
  0
LINE
  5
3CB
  8
2
 10
157.0669056614974
 20
83.533677828645466
 30
0.0
 11
150.6004931614975
 21
83.533677828645466
 31
0.0
  0
LINE
  5
3CC
  8
0
 10
161.82934375851551
 20
82.766884078645489
 30
0.0
 11
145.8380550644797
 21
82.766884078645489
 31
0.0
  0
LINE
  5
3CD
  8
2
 10
150.6004931614975
 20
83.533677828645466
 30
0.0
 11
149.83369941149741
 21
82.766884078645489
 31
0.0
  0
LINE
  5
3CE
  8
2
 10
157.83369941149741
 20
82.766884078645489
 30
0.0
 11
157.0669056614974
 21
83.533677828645466
 31
0.0
  0
LINE
  5
3CF
  8
2
 10
157.83369941149741
 20
95.766884078645504
 30
0.0
 11
149.83369941149741
 21
95.766884078645504
 31
0.0
  0
LINE
  5
3D0
  8
2
 10
157.0669056614974
 20
97.766884078645489
 30
0.0
 11
150.6004931614975
 21
97.766884078645489
 31
0.0
  0
LINE
  5
3D1
  8
2
 10
149.83369941149741
 20
95.766884078645504
 30
0.0
 11
150.6004931614975
 21
97.095009812571732
 31
0.0
  0
LINE
  5
3D2
  8
2
 10
157.83369941149741
 20
95.766884078645504
 30
0.0
 11
157.0669056614974
 21
97.095009812571732
 31
0.0
  0
ARC
  5
3D3
  8
0
 10
72.838055064479605
 20
116.5168840786453
 30
0.0
 40
19.25
 50
58.109208198154242
 51
121.89079180184569
  0
ARC
  5
3D4
  8
2
 10
72.838055064479605
 20
140.01688407864521
 30
0.0
 40
19.25
 50
238.10920819815419
 51
301.89079180184569
  0
LINE
  5
3D5
  8
2
 10
76.98805506447971
 20
100.7668840786454
 30
0.0
 11
77.98805506447971
 21
99.766884078645404
 31
0.0
  0
LINE
  5
3D6
  8
2
 10
72.838055064479605
 20
100.7668840786454
 30
0.0
 11
76.98805506447971
 21
100.7668840786454
 31
0.0
  0
LINE
  5
3D7
  8
2
 10
68.688055064479514
 20
100.7668840786454
 30
0.0
 11
67.688055064479528
 21
99.766884078645404
 31
0.0
  0
LINE
  5
3D8
  8
2
 10
72.838055064479605
 20
100.7668840786454
 30
0.0
 11
68.688055064479514
 21
100.7668840786454
 31
0.0
  0
ARC
  5
3D9
  8
2
 10
65.838055064479619
 20
128.76688407864521
 30
0.0
 40
6.0
 50
184.78019184719909
 51
238.10920819815411
  0
ARC
  5
3DA
  8
0
 10
65.838055064479619
 20
127.7668840786453
 30
0.0
 40
6.0
 50
121.89079180184579
 51
180.0
  0
LINE
  5
3DB
  8
2
 10
153.83369941149741
 20
100.7668840786454
 30
0.0
 11
157.9836994114975
 21
100.7668840786454
 31
0.0
  0
LINE
  5
3DC
  8
2
 10
153.83369941149741
 20
100.7668840786454
 30
0.0
 11
149.68369941149729
 21
100.7668840786454
 31
0.0
  0
LINE
  5
3DD
  8
2
 10
149.68369941149729
 20
100.7668840786454
 30
0.0
 11
148.68369941149729
 21
99.766884078645504
 31
0.0
  0
LINE
  5
3DE
  8
2
 10
157.9836994114975
 20
100.7668840786454
 30
0.0
 11
158.9836994114975
 21
99.766884078645504
 31
0.0
  0
ARC
  5
3DF
  8
2
 10
79.838055064479619
 20
128.76688407864521
 30
0.0
 40
6.0
 50
301.89079180184581
 51
355.21980815280079
  0
ARC
  5
3E0
  8
0
 10
79.838055064479619
 20
127.7668840786453
 30
0.0
 40
6.0
 50
0.0
 51
58.109208198154143
  0
LINE
  5
3E1
  8
0
 10
218.83369941149741
 20
120.7668840786454
 30
0.0
 11
172.82934375851519
 21
120.7668840786454
 31
0.0
  0
LINE
  5
3E2
  8
0
 10
218.83369941149741
 20
120.7668840786454
 30
0.0
 11
264.8380550644797
 21
120.7668840786454
 31
0.0
  0
LINE
  5
3E3
  8
0
 10
218.83369941149741
 20
195.7668840786454
 30
0.0
 11
153.7136994114974
 21
195.7668840786454
 31
0.0
  0
LINE
  5
3E4
  8
0
 10
218.83369941149741
 20
221.7668840786454
 30
0.0
 11
153.7136994114974
 21
221.7668840786454
 31
0.0
  0
ARC
  5
3E5
  8
0
 10
165.08369941149749
 20
208.7668840786454
 30
0.0
 40
19.25
 50
148.10920819815419
 51
211.89079180184569
  0
LINE
  5
3E6
  8
1
 10
153.83369941149741
 20
198.76688407864509
 30
0.0
 11
153.83369941149741
 21
218.76688407864549
 31
0.0
  0
ARC
  5
3E7
  8
0
 10
153.83369941149741
 20
201.76688407864549
 30
0.0
 40
6.0
 50
211.89079180184581
 51
270.0
  0
ARC
  5
3E8
  8
0
 10
153.83369941149741
 20
215.7668840786454
 30
0.0
 40
6.0
 50
90.0
 51
148.10920819815411
  0
LINE
  5
3E9
  8
1
 10
218.83369941149741
 20
226.76688407864549
 30
0.0
 11
218.83369941149741
 21
190.7668840786454
 31
0.0
  0
ARC
  5
3EA
  8
0
 10
270.82934375851539
 20
114.7668840786454
 30
0.0
 40
21.0
 50
0.000000000000007
 51
89.999999999999915
1001
GENIUS_GENODEF_13
1002
{
1000
HIER
1070
     0
1002
}
1002
{
1000
MANEDIT
1070
     0
1002
}
1002
{
1000
NOSEL
1070
     0
1002
}
1002
{
1000
BEHIND
1070
     0
1002
}
1002
{
1000
REACTOR
1002
}
1001
GENIUS_GENOBJ-N-FIL_13
1002
{
1000
OWNER
1000
GEN
1002
}
  0
LINE
  5
3EB
  8
2
 10
287.0669056614974
 20
97.766884078645489
 30
0.0
 11
283.83369941149738
 21
99.633576577428585
 31
0.0
  0
LINE
  5
3EC
  8
2
 10
280.60049316149752
 20
97.766884078645489
 30
0.0
 11
283.83369941149738
 21
99.633576577428585
 31
0.0
  0
LINE
  5
3ED
  8
2
 10
288.98369941149753
 20
99.766884078645504
 30
0.0
 11
288.98369941149753
 21
82.766884078645489
 31
0.0
  0
LINE
  5
3EE
  8
2
 10
278.68369941149729
 20
99.766884078645504
 30
0.0
 11
278.68369941149729
 21
82.766884078645489
 31
0.0
  0
LINE
  5
3EF
  8
1
 10
283.83369941149738
 20
77.766884078645489
 30
0.0
 11
283.83369941149738
 21
105.7668840786454
 31
0.0
  0
LINE
  5
3F0
  8
0
 10
275.83805506447948
 20
82.766884078645489
 30
0.0
 11
275.8380550644797
 21
109.7668840786453
 31
0.0
  0
LINE
  5
3F1
  8
0
 10
291.82934375851522
 20
82.766884078645489
 30
0.0
 11
291.82934375851539
 21
114.7668840786454
 31
0.0
  0
LINE
  5
3F2
  8
0
 10
275.83805506447942
 20
82.766884078645489
 30
0.0
 11
291.82934375851522
 21
82.766884078645489
 31
0.0
  0
LINE
  5
3F3
  8
2
 10
279.83369941149749
 20
82.766884078645489
 30
0.0
 11
279.83369941149749
 21
95.766884078645504
 31
0.0
  0
LINE
  5
3F4
  8
2
 10
287.83369941149738
 20
82.766884078645489
 30
0.0
 11
287.83369941149738
 21
95.766884078645504
 31
0.0
  0
LINE
  5
3F5
  8
2
 10
280.60049316149752
 20
83.533677828645466
 30
0.0
 11
280.60049316149752
 21
97.766884078645489
 31
0.0
  0
LINE
  5
3F6
  8
2
 10
287.0669056614974
 20
83.533677828645466
 30
0.0
 11
287.0669056614974
 21
97.766884078645489
 31
0.0
  0
LINE
  5
3F7
  8
2
 10
287.83369941149738
 20
82.766884078645489
 30
0.0
 11
287.0669056614974
 21
83.533677828645466
 31
0.0
  0
LINE
  5
3F8
  8
2
 10
280.60049316149752
 20
83.533677828645466
 30
0.0
 11
279.83369941149749
 21
82.766884078645489
 31
0.0
  0
LINE
  5
3F9
  8
2
 10
287.0669056614974
 20
83.533677828645466
 30
0.0
 11
280.60049316149752
 21
83.533677828645466
 31
0.0
  0
LINE
  5
3FA
  8
2
 10
287.83369941149738
 20
95.766884078645504
 30
0.0
 11
287.0669056614974
 21
97.095009812571732
 31
0.0
  0
LINE
  5
3FB
  8
2
 10
279.83369941149749
 20
95.766884078645504
 30
0.0
 11
280.60049316149752
 21
97.095009812571732
 31
0.0
  0
LINE
  5
3FC
  8
2
 10
287.0669056614974
 20
97.766884078645489
 30
0.0
 11
280.60049316149752
 21
97.766884078645489
 31
0.0
  0
LINE
  5
3FD
  8
2
 10
287.83369941149738
 20
95.766884078645504
 30
0.0
 11
279.83369941149749
 21
95.766884078645504
 31
0.0
  0
LINE
  5
3FE
  8
2
 10
287.98369941149753
 20
100.7668840786454
 30
0.0
 11
288.98369941149753
 21
99.766884078645504
 31
0.0
  0
LINE
  5
3FF
  8
2
 10
279.6836994114974
 20
100.7668840786454
 30
0.0
 11
278.68369941149729
 21
99.766884078645504
 31
0.0
  0
LINE
  5
400
  8
2
 10
283.83369941149738
 20
100.7668840786454
 30
0.0
 11
279.6836994114974
 21
100.7668840786454
 31
0.0
  0
LINE
  5
401
  8
2
 10
283.83369941149738
 20
100.7668840786454
 30
0.0
 11
287.98369941149753
 21
100.7668840786454
 31
0.0
  0
ARC
  5
402
  8
0
 10
272.58369941149738
 20
208.7668840786454
 30
0.0
 40
19.25
 50
328.10920819815419
 51
31.890791801845761
  0
LINE
  5
403
  8
1
 10
283.83369941149738
 20
198.76688407864509
 30
0.0
 11
283.83369941149738
 21
218.76688407864549
 31
0.0
  0
ARC
  5
404
  8
0
 10
283.83369941149738
 20
201.76688407864549
 30
0.0
 40
6.0
 50
270.0
 51
328.10920819815419
  0
ARC
  5
405
  8
0
 10
283.83369941149738
 20
215.7668840786454
 30
0.0
 40
6.0
 50
31.89079180184585
 51
90.0
  0
ENDSEC
  0
EOF
