  0
SECTION
  2
HEADER
  9
$ACADVER
  1
AC1015
  9
$ACADMAINTVER
 70
    13
  9
$DWGCODEPAGE
  3
ANSI_932
  9
$INSBASE
 10
0.0
 20
0.0
 30
0.0
  9
$EXTMIN
 10
-0.082464248553606
 20
-0.0499354895355282
 30
-0.0000000349181948
  9
$EXTMAX
 10
1343.0452026252
 20
265.9373483887113
 30
0.0000000814935747
  9
$LIMMIN
 10
0.0
 20
0.0
  9
$LIMMAX
 10
1125.0
 20
810.0
  9
$ORTHOMODE
 70
     1
  9
$REGENMODE
 70
     1
  9
$FILLMODE
 70
     1
  9
$QTEXTMODE
 70
     0
  9
$MIRRTEXT
 70
     0
  9
$LTSCALE
 40
30.0
  9
$ATTMODE
 70
     1
  9
$TEXTSIZE
 40
0.2
  9
$TRACEWID
 40
0.05
  9
$TEXTSTYLE
  7
STANDARD
  9
$CLAYER
  8
0
  9
$CELTYPE
  6
ByLayer
  9
$CECOLOR
 62
   256
  9
$CELTSCALE
 40
1.0
  9
$DISPSILH
 70
     0
  9
$DIMSCALE
 40
3.0
  9
$DIMASZ
 40
3.0
  9
$DIMEXO
 40
2.0
  9
$DIMDLI
 40
0.38
  9
$DIMRND
 40
0.0
  9
$DIMDLE
 40
0.0
  9
$DIMEXE
 40
2.0
  9
$DIMTP
 40
0.0
  9
$DIMTM
 40
0.0
  9
$DIMTXT
 40
3.2
  9
$DIMCEN
 40
0.0
  9
$DIMTSZ
 40
0.0
  9
$DIMTOL
 70
     0
  9
$DIMLIM
 70
     0
  9
$DIMTIH
 70
     0
  9
$DIMTOH
 70
     0
  9
$DIMSE1
 70
     0
  9
$DIMSE2
 70
     0
  9
$DIMTAD
 70
     1
  9
$DIMZIN
 70
     0
  9
$DIMBLK
  1

  9
$DIMASO
 70
     0
  9
$DIMSHO
 70
     0
  9
$DIMPOST
  1

  9
$DIMAPOST
  1

  9
$DIMALT
 70
     0
  9
$DIMALTD
 70
     2
  9
$DIMALTF
 40
25.4
  9
$DIMLFAC
 40
1.0
  9
$DIMTOFL
 70
     1
  9
$DIMTVP
 40
1.6
  9
$DIMTIX
 70
     1
  9
$DIMSOXD
 70
     0
  9
$DIMSAH
 70
     0
  9
$DIMBLK1
  1

  9
$DIMBLK2
  1

  9
$DIMSTYLE
  2
STANDARD
  9
$DIMCLRD
 70
     0
  9
$DIMCLRE
 70
     0
  9
$DIMCLRT
 70
     0
  9
$DIMTFAC
 40
1.0
  9
$DIMGAP
 40
0.09
  9
$DIMJUST
 70
     0
  9
$DIMSD1
 70
     0
  9
$DIMSD2
 70
     0
  9
$DIMTOLJ
 70
     1
  9
$DIMTZIN
 70
     0
  9
$DIMALTZ
 70
     0
  9
$DIMALTTZ
 70
     0
  9
$DIMUPT
 70
     0
  9
$DIMDEC
 70
     4
  9
$DIMTDEC
 70
     4
  9
$DIMALTU
 70
     2
  9
$DIMALTTD
 70
     2
  9
$DIMTXSTY
  7
STANDARD
  9
$DIMAUNIT
 70
     0
  9
$DIMADEC
 70
     0
  9
$DIMALTRND
 40
0.0
  9
$DIMAZIN
 70
     0
  9
$DIMDSEP
 70
    46
  9
$DIMATFIT
 70
     3
  9
$DIMFRAC
 70
     0
  9
$DIMLDRBLK
  1

  9
$DIMLUNIT
 70
     2
  9
$DIMLWD
 70
    -2
  9
$DIMLWE
 70
    -2
  9
$DIMTMOVE
 70
     0
  9
$LUNITS
 70
     2
  9
$LUPREC
 70
     4
  9
$SKETCHINC
 40
0.1
  9
$FILLETRAD
 40
0.0
  9
$AUNITS
 70
     0
  9
$AUPREC
 70
     4
  9
$MENU
  1
E:\r13\win\SUPPORT\ACAD
  9
$ELEVATION
 40
0.0
  9
$PELEVATION
 40
0.0
  9
$THICKNESS
 40
0.0
  9
$LIMCHECK
 70
     0
  9
$CHAMFERA
 40
0.0
  9
$CHAMFERB
 40
0.0
  9
$CHAMFERC
 40
0.0
  9
$CHAMFERD
 40
0.0
  9
$SKPOLY
 70
     0
  9
$TDCREATE
 40
2449839.627581018
  9
$TDUCREATE
 40
2449839.252581018
  9
$TDUPDATE
 40
2457462.549677002
  9
$TDUUPDATE
 40
2457462.174677002
  9
$TDINDWG
 40
0.0998381944
  9
$TDUSRTIMER
 40
0.0998381944
  9
$USRTIMER
 70
     1
  9
$ANGBASE
 50
0.0
  9
$ANGDIR
 70
     0
  9
$PDMODE
 70
     0
  9
$PDSIZE
 40
0.0
  9
$PLINEWID
 40
0.0
  9
$SPLFRAME
 70
     0
  9
$SPLINETYPE
 70
     6
  9
$SPLINESEGS
 70
     8
  9
$HANDSEED
  5
124C
  9
$SURFTAB1
 70
     6
  9
$SURFTAB2
 70
     6
  9
$SURFTYPE
 70
     6
  9
$SURFU
 70
     6
  9
$SURFV
 70
     6
  9
$UCSBASE
  2

  9
$UCSNAME
  2

  9
$UCSORG
 10
0.0
 20
0.0
 30
0.0
  9
$UCSXDIR
 10
1.0
 20
0.0
 30
0.0
  9
$UCSYDIR
 10
0.0
 20
1.0
 30
0.0
  9
$UCSORTHOREF
  2

  9
$UCSORTHOVIEW
 70
     0
  9
$UCSORGTOP
 10
0.0
 20
0.0
 30
0.0
  9
$UCSORGBOTTOM
 10
0.0
 20
0.0
 30
0.0
  9
$UCSORGLEFT
 10
0.0
 20
0.0
 30
0.0
  9
$UCSORGRIGHT
 10
0.0
 20
0.0
 30
0.0
  9
$UCSORGFRONT
 10
0.0
 20
0.0
 30
0.0
  9
$UCSORGBACK
 10
0.0
 20
0.0
 30
0.0
  9
$PUCSBASE
  2

  9
$PUCSNAME
  2

  9
$PUCSORG
 10
0.0
 20
0.0
 30
0.0
  9
$PUCSXDIR
 10
1.0
 20
0.0
 30
0.0
  9
$PUCSYDIR
 10
0.0
 20
1.0
 30
0.0
  9
$PUCSORTHOREF
  2

  9
$PUCSORTHOVIEW
 70
     0
  9
$PUCSORGTOP
 10
0.0
 20
0.0
 30
0.0
  9
$PUCSORGBOTTOM
 10
0.0
 20
0.0
 30
0.0
  9
$PUCSORGLEFT
 10
0.0
 20
0.0
 30
0.0
  9
$PUCSORGRIGHT
 10
0.0
 20
0.0
 30
0.0
  9
$PUCSORGFRONT
 10
0.0
 20
0.0
 30
0.0
  9
$PUCSORGBACK
 10
0.0
 20
0.0
 30
0.0
  9
$USERI1
 70
     0
  9
$USERI2
 70
     1
  9
$USERI3
 70
     0
  9
$USERI4
 70
     0
  9
$USERI5
 70
     0
  9
$USERR1
 40
0.0
  9
$USERR2
 40
0.0
  9
$USERR3
 40
0.0
  9
$USERR4
 40
0.0
  9
$USERR5
 40
0.0
  9
$WORLDVIEW
 70
     1
  9
$SHADEDGE
 70
     3
  9
$SHADEDIF
 70
    70
  9
$TILEMODE
 70
     1
  9
$MAXACTVP
 70
    16
  9
$PINSBASE
 10
0.0
 20
0.0
 30
0.0
  9
$PLIMCHECK
 70
     0
  9
$PEXTMIN
 10
1.000000000000000E+20
 20
1.000000000000000E+20
 30
1.000000000000000E+20
  9
$PEXTMAX
 10
-1.000000000000000E+20
 20
-1.000000000000000E+20
 30
-1.000000000000000E+20
  9
$PLIMMIN
 10
0.0
 20
0.0
  9
$PLIMMAX
 10
12.0
 20
9.0
  9
$UNITMODE
 70
     0
  9
$VISRETAIN
 70
     0
  9
$PLINEGEN
 70
     0
  9
$PSLTSCALE
 70
     0
  9
$TREEDEPTH
 70
  3020
  9
$CMLSTYLE
  2
Standard
  9
$CMLJUST
 70
     0
  9
$CMLSCALE
 40
1.0
  9
$PROXYGRAPHICS
 70
     1
  9
$MEASUREMENT
 70
     0
  9
$CELWEIGHT
370
    -1
  9
$ENDCAPS
280
     0
  9
$JOINSTYLE
280
     0
  9
$LWDISPLAY
290
     0
  9
$INSUNITS
 70
     0
  9
$HYPERLINKBASE
  1

  9
$STYLESHEET
  1

  9
$XEDIT
290
     1
  9
$CEPSNTYPE
380
     0
  9
$PSTYLEMODE
290
     1
  9
$FINGERPRINTGUID
  2
{DE00DD9E-1FC8-4CC4-B0F7-67BAE383C0FC}
  9
$VERSIONGUID
  2
{4259F455-C3DD-42F9-B548-468EC4AC11FE}
  9
$EXTNAMES
290
     1
  9
$PSVPSCALE
 40
0.0
  9
$OLESTARTUP
290
     0
  0
ENDSEC
  0
SECTION
  2
CLASSES
  0
CLASS
  1
ACDBDICTIONARYWDFLT
  2
AcDbDictionaryWithDefault
  3
AutoCAD 2000
 90
        0
280
     0
281
     0
  0
CLASS
  1
ACDBPLACEHOLDER
  2
AcDbPlaceHolder
  3
AutoCAD 2000
 90
        0
280
     0
281
     0
  0
CLASS
  1
LAYOUT
  2
AcDbLayout
  3
AutoCAD 2000
 90
        0
280
     0
281
     0
  0
CLASS
  1
AMGSETTINGSOBJ
  2
AmgSettingsObj
  3
"AcadM|Product Description: AutoCAD Mechanical 2000|Company: Autodesk"
 90
        0
280
     0
281
     0
  0
CLASS
  1
ACME_DOCUMENT
  2
AcMeDbDoc
  3
AcMeServices
 90
        0
280
     0
281
     0
  0
CLASS
  1
ACMESCOPE
  2
AcMeScope
  3
AcMeServices
 90
        0
280
     0
281
     0
  0
CLASS
  1
ACMECOMMANDHISTORY
  2
AcMeCommandHistory
  3
AcMeServices
 90
        0
280
     0
281
     0
  0
CLASS
  1
ACIMSYSVARMAN
  2
AcImSysVarManager
  3
AcMeServices
 90
        0
280
     0
281
     0
  0
CLASS
  1
ACIMREALSYSVAR
  2
AcImRealSysVar
  3
AcMeServices
 90
        0
280
     0
281
     0
  0
CLASS
  1
ACIMINTSYSVAR
  2
AcImIntSysVar
  3
AcMeServices
 90
        0
280
     0
281
     0
  0
CLASS
  1
ACMEDRAWINGMAN
  2
AcMeDrawingMan
  3
AcMeServices
 90
        0
280
     0
281
     0
  0
CLASS
  1
ACMEVIEW
  2
AcMeView
  3
AcMeServices
 90
        0
280
     0
281
     0
  0
CLASS
  1
ACDBENTITYCACHE
  2
AcMeEntityCache
  3
AcMeServices
 90
        0
280
     0
281
     0
  0
CLASS
  1
GSMANAGER
  2
AcMeGSManager
  3
AcMeServices
 90
        0
280
     0
281
     0
  0
CLASS
  1
AMDTINTERNALREACTOR
  2
AmdtInternalReactor
  3
AcMeServices
 90
        0
280
     0
281
     0
  0
CLASS
  1
ACMESTATEMGR
  2
AcMeStateMgr
  3
AcMeServices
 90
        0
280
     0
281
     0
  0
CLASS
  1
ACGREFMASTER
  2
AcGrefMaster
  3
AcAttribServices
 90
        0
280
     0
281
     0
  0
CLASS
  1
AM_DRAWING_MGR
  2
AcDmDwgMgr
  3
AcMechDwgViewMgmt
 90
        0
280
     0
281
     0
  0
CLASS
  1
AM_DWG_DOCUMENT
  2
AcDmDwgDocument
  3
AcMechDwgViewMgmt
 90
        0
280
     0
281
     0
  0
CLASS
  1
AM_DWG_SHEET
  2
AcDmSheet
  3
AcMechDwgViewMgmt
 90
        0
280
     0
281
     0
  0
CLASS
  1
AM_VIEWDIMPARMAP
  2
AcDmViewDimParMap
  3
AcMechDwgViewMgmt
 90
        0
280
     0
281
     0
  0
CLASS
  1
AM_DWGMGR_NAME
  2
AcDmDwgMgrName
  3
AcMechDwgViewMgmt
 90
        0
280
     0
281
     0
  0
CLASS
  1
ACME_DATABASE
  2
AcMeDbDatabase
  3
AcMeServices
 90
        0
280
     0
281
     0
  0
CLASS
  1
ACRFINSADJUSTERMGR
  2
AcRfInsAdjusterMgr
  3
AcMeServices
 90
        0
280
     0
281
     0
  0
CLASS
  1
ACGREFACADMASTER
  2
AcGrefacadMaster
  3
AcGrefServices
 90
        0
280
     0
281
     0
  0
CLASS
  1
AMDTMENUSTATEMGR
  2
AmdtMenuStateMgr
  3
McadcomServices
 90
        0
280
     0
281
     0
  0
CLASS
  1
AMDTMCOMMENUSTATE
  2
AmdtMcomMenuState
  3
McadcomServices
 90
        0
280
     0
281
     0
  0
CLASS
  1
AMIMASTER
  2
AmiMaster
  3
AmiServices
 90
        0
280
     0
281
     0
  0
CLASS
  1
ASAPP
  2
AcAsAppObject
  3
AutoSurfServices
 90
        0
280
     0
281
     0
  0
CLASS
  1
IM_STATIC_MAN
  2
AcImStaticVarManager
  3
AcMeServices
 90
        0
280
     0
281
     0
  0
CLASS
  1
ACIMSTRSYSVAR
  2
AcImStrSysVar
  3
AcMeServices
 90
        0
280
     0
281
     0
  0
CLASS
  1
ACIMDBLSTATICVAR
  2
AcImDblStaticVar
  3
AcMeServices
 90
        0
280
     0
281
     0
  0
CLASS
  1
ACIMSTRSTATICVAR
  2
AcImStrStaticVar
  3
AcMeServices
 90
        0
280
     0
281
     0
  0
CLASS
  1
ACIMINTSTATICVAR
  2
AcImIntStaticVar
  3
AcMeServices
 90
        0
280
     0
281
     0
  0
CLASS
  1
ACASGREFMASTER
  2
AcAsGrefMaster
  3
AutoSurfResolverServices
 90
        0
280
     0
281
     0
  0
CLASS
  1
ACADGREFMODULE
  2
AcAdGrefModule
  3
AdGrefServices
 90
        0
280
     0
281
     0
  0
CLASS
  1
AMDTMAPISURFMOUDULE
  2
AmdtMApiSurfModule
  3
MApiSurfServices
 90
        0
280
     0
281
     0
  0
CLASS
  1
MAPIAMMOUDLE
  2
MApiAmModule
  3
MApiAmServices
 90
        0
280
     0
281
     0
  0
CLASS
  1
AMDTADMENUSTATE
  2
AmdtAdMenuState
  3
DesignerServices
 90
        0
280
     0
281
     0
  0
CLASS
  1
ADAPPL
  2
AcAdAppl
  3
DesignerServices
 90
        0
280
     0
281
     0
  0
CLASS
  1
DEPMGR
  2
AcAdDepMgr
  3
DesignerServices
 90
        0
280
     0
281
     0
  0
CLASS
  1
PARAMMGR
  2
AcAdParamMgr
  3
DesignerServices
 90
        0
280
     0
281
     0
  0
CLASS
  1
PARAMSCOPE
  2
AcAdParamScope
  3
DesignerServices
 90
        0
280
     0
281
     0
  0
CLASS
  1
NAMEDAPPL
  2
AcAdNamedAppl
  3
DesignerServices
 90
        0
280
     0
281
     0
  0
CLASS
  1
AMDTDMMENUSTATE
  2
AmdtDmMenuState
  3
AcMechDwgViewMgmt
 90
        0
280
     0
281
     0
  0
CLASS
  1
MAPIADMODULE
  2
MApiAdModule
  3
MApiAdServices
 90
        0
280
     0
281
     0
  0
CLASS
  1
AMDTAMMENUSTATE
  2
AmdtAmMenuState
  3
DesignerAssemblies
 90
        0
280
     0
281
     0
  0
CLASS
  1
ACAMPROJECT
  2
AcAmProject
  3
DesignerAssemblies
 90
        0
280
     0
281
     0
  0
CLASS
  1
ACAMGRCOMPDEF
  2
AcAmGrCompDef
  3
DesignerAssemblies
 90
        0
280
     0
281
     0
  0
CLASS
  1
ACCMCONTEXT
  2
AcCmContext
  3
DesignerAssemblies
 90
        0
280
     0
281
     0
  0
CLASS
  1
ACAMCOMPDEF
  2
AcAmCompDef
  3
DesignerAssemblies
 90
        0
280
     0
281
     0
  0
CLASS
  1
ACAMCOMPDEFMGR
  2
AcAmCompDefMgr
  3
DesignerAssemblies
 90
        0
280
     0
281
     0
  0
CLASS
  1
AMCONTEXTMGR
  2
AcAmContextMgr
  3
DesignerAssemblies
 90
        0
280
     0
281
     0
  0
CLASS
  1
ACAMCONTEXTMODELER
  2
AcAmContextModeler
  3
DesignerAssemblies
 90
        0
280
     0
281
     0
  0
CLASS
  1
ACMDATADICTIONARY
  2
AcmDataDictionary
  3
"AcmSymBB|Product Description: AutoCAD Mechanical 2000|Company: Autodesk"
 90
        0
280
     0
281
     0
  0
CLASS
  1
ACMDATAENTRYBLOCK
  2
AcmDataEntryBlock
  3
"AcmSymBB|Product Description: AutoCAD Mechanical 2000|Company: Autodesk"
 90
        0
280
     0
281
     0
  0
CLASS
  1
CATALOGSTATE
  2
AcAmCatalogState
  3
DesignerAssemblies
 90
        0
280
     0
281
     0
  0
CLASS
  1
ACAMGRCOMPDEFSET
  2
AcAmGrCompDefSet
  3
DesignerAssemblies
 90
        0
280
     0
281
     0
  0
CLASS
  1
AMDTBROWSERDBTAB
  2
AmdtBrowserDbTab
  3
McadcomServices
 90
        0
280
     0
281
     0
  0
CLASS
  1
CBROWSERAPPOBJECT
  2
CBrowserAppObject
  3
McadcomServices
 90
        0
280
     0
281
     0
  0
CLASS
  1
DM_PLACEHOLDER
  2
AcDmSelsetPlaceholder
  3
AcMechDwgViewMgmt
 90
        0
280
     0
281
     0
  0
CLASS
  1
AMGOBJPROPCFG
  2
AmgObjPropCfg
  3
"AmgLay|Product Description: AutoCAD Mechanical 2000|Company: Autodesk"
 90
        1
280
     0
281
     0
  0
CLASS
  1
ACAMGFILTERDAT
  2
AcAmgFilterDat
  3
"AcadM|Product Description: AutoCAD Mechanical 2000|Company: Autodesk"
 90
        0
280
     0
281
     0
  0
CLASS
  1
LAYER_INDEX
  2
AcDbLayerIndex
  3
AutoCAD 2000
 90
        0
280
     0
281
     0
  0
CLASS
  1
IDBUFFER
  2
AcDbIdBuffer
  3
AutoCAD 2000
 90
        0
280
     0
281
     0
  0
CLASS
  1
DICTIONARYVAR
  2
AcDbDictionaryVar
  3
AutoCAD 2000
 90
        0
280
     0
281
     0
  0
ENDSEC
  0
SECTION
  2
TABLES
  0
TABLE
  2
VPORT
  5
10B2
330
0
100
AcDbSymbolTable
 70
     3
  0
VPORT
  5
124B
330
10B2
100
AcDbSymbolTableRecord
100
AcDbViewportTableRecord
  2
*Active
 70
     0
 10
0.0
 20
0.0
 11
1.0
 21
1.0
 12
-439.1086148867011
 22
272.0106658941237
 13
0.0
 23
0.0
 14
30.0
 24
30.0
 15
30.0
 25
30.0
 16
0.0
 26
0.0
 36
1.0
 17
1110.589984075024
 27
132.9643663611084
 37
0.0
 40
905.9818382312416
 41
1.489721886336154
 42
50.0
 43
0.0
 44
0.0
 50
0.0
 51
0.0
 71
     0
 72
   500
 73
     1
 74
     0
 75
     0
 76
     0
 77
     0
 78
     2
281
     0
 65
     0
110
0.0
120
0.0
130
0.0
111
1.0
121
0.0
131
0.0
112
0.0
122
1.0
132
0.0
 79
     0
146
0.0
  0
ENDTAB
  0
TABLE
  2
LTYPE
  5
10AF
330
0
100
AcDbSymbolTable
 70
    16
  0
LTYPE
  5
10BD
330
10AF
100
AcDbSymbolTableRecord
100
AcDbLinetypeTableRecord
  2
ByBlock
 70
     0
  3

 72
    65
 73
     0
 40
0.0
  0
LTYPE
  5
10BE
330
10AF
100
AcDbSymbolTableRecord
100
AcDbLinetypeTableRecord
  2
ByLayer
 70
     0
  3

 72
    65
 73
     0
 40
0.0
  0
LTYPE
  5
10BF
330
10AF
100
AcDbSymbolTableRecord
100
AcDbLinetypeTableRecord
  2
CONTINUOUS
 70
     0
  3
Solid Line
 72
    65
 73
     0
 40
0.0
  0
LTYPE
  5
10CD
330
10AF
100
AcDbSymbolTableRecord
100
AcDbLinetypeTableRecord
  2
CENTER
 70
     0
  3
____ _ ____ _ ____ _ ____ _ ____ _ ____ _ ____
 72
    65
 73
     4
 40
2.0
 49
1.25
 74
     0
 49
-0.25
 74
     0
 49
0.25
 74
     0
 49
-0.25
 74
     0
  0
LTYPE
  5
10CE
330
10AF
100
AcDbSymbolTableRecord
100
AcDbLinetypeTableRecord
  2
HIDDEN
 70
     0
  3
_ _ _ _ _ _ _ _ _ _ _ _ _ _ _ _ _ _ _ _ _ _ _
 72
    65
 73
     2
 40
0.375
 49
0.25
 74
     0
 49
-0.125
 74
     0
  0
LTYPE
  5
1178
330
10AF
100
AcDbSymbolTableRecord
100
AcDbLinetypeTableRecord
  2
PHANTOM2
 70
     0
  3
Phantom (.5x) ___ _ _ ___ _ _ ___ _ _ ___ _ _
 72
    65
 73
     6
 40
1.25
 49
0.625
 74
     0
 49
-0.125
 74
     0
 49
0.125
 74
     0
 49
-0.125
 74
     0
 49
0.125
 74
     0
 49
-0.125
 74
     0
  0
LTYPE
  5
11DA
330
10AF
100
AcDbSymbolTableRecord
100
AcDbLinetypeTableRecord
  2
ASULTYPE
 70
     0
  3
実線
 72
    65
 73
     2
 40
3.0
 49
2.5
 74
     0
 49
0.5
 74
     0
  0
LTYPE
  5
11DB
330
10AF
100
AcDbSymbolTableRecord
100
AcDbLinetypeTableRecord
  2
ASVLTYPE
 70
     0
  3
__ __ __ __ __ __ __ __ __ __ __ __ __ __ __ __ __ __ __ __ __
 72
    65
 73
     2
 40
0.75
 49
0.5
 74
     0
 49
-0.25
 74
     0
  0
LTYPE
  5
121C
330
10AF
100
AcDbSymbolTableRecord
100
AcDbLinetypeTableRecord
  2
AM_ISO02W050
 70
     0
  3
__ __ __ __ __ __ __ __ __ __ __ __ __ __ __
 72
    65
 73
     2
 40
7.5
 49
6.0
 74
     0
 49
-1.5
 74
     0
  0
LTYPE
  5
121D
330
10AF
100
AcDbSymbolTableRecord
100
AcDbLinetypeTableRecord
  2
AM_ISO08W050
 70
     0
  3
____ . ____ . ____ . ____ . ____ . ____ . ____
 72
    65
 73
     4
 40
18.0
 49
12.0
 74
     0
 49
-1.5
 74
     0
 49
3.0
 74
     0
 49
-1.5
 74
     0
  0
LTYPE
  5
121E
330
10AF
100
AcDbSymbolTableRecord
100
AcDbLinetypeTableRecord
  2
AM_ISO09W050
 70
     0
  3
_____ . . _____ . . _____ . . ____ .. ____
 72
    65
 73
     6
 40
22.5
 49
12.0
 74
     0
 49
-1.5
 74
     0
 49
3.0
 74
     0
 49
-1.5
 74
     0
 49
3.0
 74
     0
 49
-1.5
 74
     0
  0
LTYPE
  5
121F
330
10AF
100
AcDbSymbolTableRecord
100
AcDbLinetypeTableRecord
  2
Amconstr
 70
     0
  3
_______________________
 72
    65
 73
     2
 40
9999.0
 49
9999.0
 74
     0
 49
0.0
 74
     0
  0
LTYPE
  5
1220
330
10AF
100
AcDbSymbolTableRecord
100
AcDbLinetypeTableRecord
  2
AM_ISO08W050x2
 70
     0
  3
__ . __ . __ . __ . __ . __
 72
    65
 73
     4
 40
9.0
 49
6.0
 74
     0
 49
-0.75
 74
     0
 49
1.5
 74
     0
 49
-0.75
 74
     0
  0
LTYPE
  5
1221
330
10AF
100
AcDbSymbolTableRecord
100
AcDbLinetypeTableRecord
  2
AM_ISO02W050x2
 70
     0
  3
 _ _ _ _ _ _ _ _ _ _ _ _
 72
    65
 73
     2
 40
3.75
 49
3.0
 74
     0
 49
-0.75
 74
     0
  0
LTYPE
  5
1224
330
10AF
100
AcDbSymbolTableRecord
100
AcDbLinetypeTableRecord
  2
Amzigzag
 70
     0
  3
/\/-/\/-/\/-/\/-/\/-/\/
 72
    65
 73
     2
 40
11.00009999999999
 49
0.0001
 74
     4
 75
   135
340
1223
 46
0.04
 50
0.0
 44
0.0
 45
0.0
 49
-11.0
 74
     0
  0
LTYPE
  5
1225
330
10AF
100
AcDbSymbolTableRecord
100
AcDbLinetypeTableRecord
  2
CENTER2
 70
     0
  3
Center (.5x) ___ _ ___ _ ___ _ ___ _ ___ _ ___
 72
    65
 73
     4
 40
1.125
 49
0.75
 74
     0
 49
-0.125
 74
     0
 49
0.125
 74
     0
 49
-0.125
 74
     0
  0
LTYPE
  5
1226
330
10AF
100
AcDbSymbolTableRecord
100
AcDbLinetypeTableRecord
  2
HIDDEN2
 70
     0
  3
Hidden (.5x) _ _ _ _ _ _ _ _ _ _ _ _ _ _ _ _ _
 72
    65
 73
     2
 40
0.1875
 49
0.125
 74
     0
 49
-0.0625
 74
     0
  0
LTYPE
  5
1227
330
10AF
100
AcDbSymbolTableRecord
100
AcDbLinetypeTableRecord
  2
Amzigzag2
 70
     0
  3
/\/-/\/-/\/-/\/-/\/-/\/
 72
    65
 73
     2
 40
0.4401
 49
0.0001
 74
     4
 75
   135
340
1223
 46
0.0016
 50
0.0
 44
0.0
 45
0.0
 49
-0.4400000000000001
 74
     0
  0
ENDTAB
  0
TABLE
  2
LAYER
  5
10AC
330
0
100
AcDbSymbolTable
 70
     5
  0
LAYER
  5
10BA
330
10AC
100
AcDbSymbolTableRecord
100
AcDbLayerTableRecord
  2
0
 70
     0
 62
     7
  6
CONTINUOUS
370
    -3
390
10B9
  0
LAYER
  5
10CF
330
10AC
100
AcDbSymbolTableRecord
100
AcDbLayerTableRecord
  2
1
 70
     0
 62
     1
  6
CENTER
370
    -3
390
10B9
  0
LAYER
  5
10D0
330
10AC
100
AcDbSymbolTableRecord
100
AcDbLayerTableRecord
  2
11
 70
     0
 62
     3
  6
CONTINUOUS
370
    -3
390
10B9
  0
LAYER
  5
10D1
330
10AC
100
AcDbSymbolTableRecord
100
AcDbLayerTableRecord
  2
ITTEN
 70
     0
 62
     1
  6
CENTER
370
    -3
390
10B9
  0
LAYER
  5
10D2
330
10AC
100
AcDbSymbolTableRecord
100
AcDbLayerTableRecord
  2
2
 70
     0
 62
     2
  6
HIDDEN
370
    -3
390
10B9
  0
ENDTAB
  0
TABLE
  2
STYLE
  5
10AD
330
0
100
AcDbSymbolTable
 70
     2
  0
STYLE
  5
10BB
330
10AD
100
AcDbSymbolTableRecord
100
AcDbTextStyleTableRecord
  2
STANDARD
 70
     0
 40
0.0
 41
1.0
 50
0.0
 71
     0
 42
0.2
  3
TXT
  4
BIGFONT
  0
STYLE
  5
1223
330
10AD
100
AcDbSymbolTableRecord
100
AcDbTextStyleTableRecord
  2

 70
     1
 40
0.0
 41
1.0
 50
0.0
 71
     0
 42
0.2
  3
ltypeshp.shx
  4

  0
ENDTAB
  0
TABLE
  2
VIEW
  5
10B0
330
0
100
AcDbSymbolTable
 70
     1
  0
VIEW
  5
10D3
330
10B0
100
AcDbSymbolTableRecord
100
AcDbViewTableRecord
  2
ALL
 70
     0
 40
810.0
 10
662.9747899159663
 20
405.0
 41
0.0
 11
0.0
 21
0.0
 31
1.0
 12
0.0
 22
0.0
 32
0.0
 42
0.0
 43
0.0
 44
0.0
 50
0.0
 71
     0
281
     0
 72
     0
  0
ENDTAB
  0
TABLE
  2
UCS
  5
10B1
330
0
100
AcDbSymbolTable
 70
     0
  0
ENDTAB
  0
TABLE
  2
APPID
  5
10B3
330
0
100
AcDbSymbolTable
 70
    13
  0
APPID
  5
10BC
330
10B3
100
AcDbSymbolTableRecord
100
AcDbRegAppTableRecord
  2
ACAD
 70
     0
  0
APPID
  5
10D4
330
10B3
100
AcDbSymbolTableRecord
100
AcDbRegAppTableRecord
  2
DCO15
 70
     0
  0
APPID
  5
1157
330
10B3
100
AcDbSymbolTableRecord
100
AcDbRegAppTableRecord
  2
GENIUS_GENDIM_13
 70
     0
  0
APPID
  5
1158
330
10B3
100
AcDbSymbolTableRecord
100
AcDbRegAppTableRecord
  2
GENIUS_GENDTOL_13
 70
     0
  0
APPID
  5
1159
330
10B3
100
AcDbSymbolTableRecord
100
AcDbRegAppTableRecord
  2
GENIUS_GE3DTOL_13
 70
     0
  0
APPID
  5
115B
330
10B3
100
AcDbSymbolTableRecord
100
AcDbRegAppTableRecord
  2
MCAD_NO_VIS
 70
     0
  0
APPID
  5
115C
330
10B3
100
AcDbSymbolTableRecord
100
AcDbRegAppTableRecord
  2
ACAD_TEMP_GRAPHIC
 70
     0
  0
APPID
  5
118D
330
10B3
100
AcDbSymbolTableRecord
100
AcDbRegAppTableRecord
  2
AD_DRAW
 70
     0
  0
APPID
  5
1190
330
10B3
100
AcDbSymbolTableRecord
100
AcDbRegAppTableRecord
  2
ACATTRIBSERVICES
 70
     0
  0
APPID
  5
11DC
330
10B3
100
AcDbSymbolTableRecord
100
AcDbRegAppTableRecord
  2
ASURF_PCURVE_APPNAME
 70
     0
  0
APPID
  5
120B
330
10B3
100
AcDbSymbolTableRecord
100
AcDbRegAppTableRecord
  2
DESIGNERASSEMBLIES
 70
     0
  0
APPID
  5
1213
330
10B3
100
AcDbSymbolTableRecord
100
AcDbRegAppTableRecord
  2
ACADM_DIM_EDIT
 70
     0
  0
APPID
  5
1214
330
10B3
100
AcDbSymbolTableRecord
100
AcDbRegAppTableRecord
  2
AMDT_DM_ADJ
 70
     0
  0
ENDTAB
  0
TABLE
  2
DIMSTYLE
  5
10B4
330
0
100
AcDbSymbolTable
 70
     1
100
AcDbDimStyleTable
 71
     1
340
10D5
  0
DIMSTYLE
105
10D5
330
10B4
100
AcDbSymbolTableRecord
100
AcDbDimStyleTableRecord
  2
STANDARD
 70
     0
279
     2
340
10BB
  0
ENDTAB
  0
TABLE
  2
BLOCK_RECORD
  5
10AB
330
0
100
AcDbSymbolTable
 70
     5
  0
BLOCK_RECORD
  5
10C8
102
{ACAD_XDICTIONARY
360
1240
102
}
330
10AB
100
AcDbSymbolTableRecord
100
AcDbBlockTableRecord
  2
*Model_Space
340
10CB
  0
BLOCK_RECORD
  5
10C4
330
10AB
100
AcDbSymbolTableRecord
100
AcDbBlockTableRecord
  2
*Paper_Space
340
10C7
  0
BLOCK_RECORD
  5
10D8
330
10AB
100
AcDbSymbolTableRecord
100
AcDbBlockTableRecord
  2
$MODEL_SPACE
340
0
  0
BLOCK_RECORD
  5
10DB
330
10AB
100
AcDbSymbolTableRecord
100
AcDbBlockTableRecord
  2
$PAPER_SPACE
340
0
  0
BLOCK_RECORD
  5
10DE
330
10AB
100
AcDbSymbolTableRecord
100
AcDbBlockTableRecord
  2
STDGX5
340
0
102
{BLKREFS
331
10E6
331
10E7
331
10E8
331
10E9
331
10EA
331
10EB
331
10EC
102
}
  0
BLOCK_RECORD
  5
10E1
330
10AB
100
AcDbSymbolTableRecord
100
AcDbBlockTableRecord
  2
BATU
340
0
102
{BLKREFS
331
10ED
102
}
  0
BLOCK_RECORD
  5
1202
330
10AB
100
AcDbSymbolTableRecord
100
AcDbBlockTableRecord
  2
*U4
340
0
  0
ENDTAB
  0
ENDSEC
  0
SECTION
  2
BLOCKS
  0
BLOCK
  5
10C9
330
10C8
100
AcDbEntity
  8
0
100
AcDbBlockBegin
  2
*Model_Space
 70
     0
 10
0.0
 20
0.0
 30
0.0
  3
*Model_Space
  1

  0
ENDBLK
  5
10CA
330
10C8
100
AcDbEntity
  8
0
100
AcDbBlockEnd
  0
BLOCK
  5
10C5
330
10C4
100
AcDbEntity
 67
     1
  8
0
100
AcDbBlockBegin
  2
*Paper_Space
 70
     0
 10
0.0
 20
0.0
 30
0.0
  3
*Paper_Space
  1

  0
ENDBLK
  5
10C6
330
10C4
100
AcDbEntity
 67
     1
  8
0
100
AcDbBlockEnd
  0
BLOCK
  5
10D9
330
10D8
100
AcDbEntity
  8
0
100
AcDbBlockBegin
  2
$MODEL_SPACE
 70
     0
 10
0.0
 20
0.0
 30
0.0
  3
$MODEL_SPACE
  1

  0
ENDBLK
  5
10DA
330
10D8
100
AcDbEntity
  8
0
100
AcDbBlockEnd
  0
BLOCK
  5
10DC
330
10DB
100
AcDbEntity
  8
0
100
AcDbBlockBegin
  2
$PAPER_SPACE
 70
     0
 10
0.0
 20
0.0
 30
0.0
  3
$PAPER_SPACE
  1

  0
ENDBLK
  5
10DD
330
10DB
100
AcDbEntity
  8
0
100
AcDbBlockEnd
  0
BLOCK
  5
10DF
330
10DE
100
AcDbEntity
  8
0
100
AcDbBlockBegin
  2
STDGX5
 70
     0
 10
0.0
 20
0.0
 30
0.0
  3
STDGX5
  1

  0
ENDBLK
  5
10E0
330
10DE
100
AcDbEntity
  8
0
100
AcDbBlockEnd
  0
BLOCK
  5
10E2
330
10E1
100
AcDbEntity
  8
0
100
AcDbBlockBegin
  2
BATU
 70
     0
 10
0.0
 20
0.0
 30
0.0
  3
BATU
  1

  0
LINE
  5
10E3
330
10E1
100
AcDbEntity
  8
ITTEN
100
AcDbLine
 10
0.5
 20
0.0
 30
0.0
 11
-0.5
 21
0.0
 31
0.0
  0
LINE
  5
10E4
330
10E1
100
AcDbEntity
  8
ITTEN
100
AcDbLine
 10
0.0
 20
0.5
 30
0.0
 11
0.0
 21
-0.5
 31
0.0
  0
ENDBLK
  5
10E5
330
10E1
100
AcDbEntity
  8
0
100
AcDbBlockEnd
  0
BLOCK
  5
1203
330
1202
100
AcDbEntity
  8
0
100
AcDbBlockBegin
  2
*U4
 70
     1
 10
0.0
 20
0.0
 30
0.0
  3
*U4
  1

  0
ENDBLK
  5
1204
330
1202
100
AcDbEntity
  8
0
100
AcDbBlockEnd
  0
ENDSEC
  0
SECTION
  2
ENTITIES
  0
INSERT
  5
10E6
330
10C8
100
AcDbEntity
  8
11
100
AcDbBlockReference
  2
STDGX5
 10
1334.515506342469
 20
-1.458255648327394
 30
0.0
  0
INSERT
  5
10E7
330
10C8
100
AcDbEntity
  8
11
100
AcDbBlockReference
  2
STDGX5
 10
1334.515506342469
 20
-1.458255648327394
 30
0.0
  0
INSERT
  5
10E8
330
10C8
100
AcDbEntity
  8
11
100
AcDbBlockReference
  2
STDGX5
 10
1334.515506342469
 20
-1.458255648327394
 30
0.0
  0
INSERT
  5
10E9
330
10C8
100
AcDbEntity
  8
11
100
AcDbBlockReference
  2
STDGX5
 10
1334.515506342469
 20
-1.458255648327394
 30
0.0
  0
INSERT
  5
10EA
330
10C8
100
AcDbEntity
  8
11
100
AcDbBlockReference
  2
STDGX5
 10
1334.515506342469
 20
-1.458255648327394
 30
0.0
  0
INSERT
  5
10EB
330
10C8
100
AcDbEntity
  8
11
100
AcDbBlockReference
  2
STDGX5
 10
1334.515506342469
 20
-1.458255648327394
 30
0.0
  0
INSERT
  5
10EC
330
10C8
100
AcDbEntity
  8
11
100
AcDbBlockReference
  2
STDGX5
 10
1334.515506342469
 20
-1.458255648327394
 30
0.0
  0
INSERT
  5
10ED
330
10C8
100
AcDbEntity
  8
0
100
AcDbBlockReference
  2
BATU
 10
1342.96272586894
 20
265.8963418488655
 30
0.0
 41
0.0009999999999764
 42
0.0009999999999999
 43
0.001
  0
LINE
  5
10EE
330
10C8
100
AcDbEntity
  8
0
100
AcDbLine
 10
148.3194952191363
 20
195.6602480388688
 30
0.0
 11
266.9194952191361
 21
195.6602480388688
 31
0.0
  0
LINE
  5
10EF
330
10C8
100
AcDbEntity
  8
0
100
AcDbLine
 10
148.3194952191363
 20
170.6602480388689
 30
0.0
 11
266.9194952191361
 21
170.6602480388688
 31
0.0
  0
LINE
  5
10F0
330
10C8
100
AcDbEntity
  8
1
100
AcDbLine
 10
135.6194952191362
 20
183.1602480388688
 30
0.0
 11
279.6194952191362
 21
183.1602480388688
 31
0.0
  0
ARC
  5
10F1
330
10C8
100
AcDbEntity
  8
0
100
AcDbCircle
 10
74.46503476947356
 20
99.69562383839329
 30
0.0
 40
21.19077524123992
100
AcDbArc
 50
90.0
 51
117.0313716227151
  0
LINE
  5
10F2
330
10C8
100
AcDbEntity
  8
0
100
AcDbLine
 10
86.21503476947358
 20
65.88639907963318
 30
0.0
 11
62.71503476947356
 21
65.88639907963318
 31
0.0
  0
ARC
  5
10F3
330
10C8
100
AcDbEntity
  8
2
100
AcDbCircle
 10
74.46503476947356
 20
128.0771743208731
 30
0.0
 40
21.19077524123992
100
AcDbArc
 50
242.9686283772848
 51
270.0
  0
LINE
  5
10F4
330
10C8
100
AcDbEntity
  8
2
100
AcDbLine
 10
70.31503476947347
 20
83.8863990796332
 30
0.0
 11
69.31503476947347
 21
82.8863990796332
 31
0.0
  0
LINE
  5
10F5
330
10C8
100
AcDbEntity
  8
0
100
AcDbLine
 10
61.96503476947356
 20
113.886399079633
 30
0.0
 11
61.96503476947356
 21
66.63639907963318
 31
0.0
  0
LINE
  5
10F6
330
10C8
100
AcDbEntity
  8
2
100
AcDbLine
 10
69.31503476947347
 20
82.8863990796332
 30
0.0
 11
69.31503476947347
 21
65.88639907963318
 31
0.0
  0
ARC
  5
10F7
330
10C8
100
AcDbEntity
  8
0
100
AcDbCircle
 10
62.71503476947356
 20
66.63639907963318
 30
0.0
 40
0.75
100
AcDbArc
 50
180.0
 51
269.9999999999998
  0
ARC
  5
10F8
330
10C8
100
AcDbEntity
  8
2
100
AcDbCircle
 10
67.22468369834837
 20
113.886399079633
 30
0.0
 40
5.259648928874835
100
AcDbArc
 50
180.0
 51
242.9686283772843
  0
ARC
  5
10F9
330
10C8
100
AcDbEntity
  8
0
100
AcDbCircle
 10
67.22468369834837
 20
113.886399079633
 30
0.0
 40
5.259648928874835
100
AcDbArc
 50
117.0313716227155
 51
180.0
  0
LINE
  5
10FA
330
10C8
100
AcDbEntity
  8
0
100
AcDbLine
 10
86.96503476947357
 20
113.1863990796331
 30
0.0
 11
86.96503476947357
 21
66.63639907963318
 31
0.0
  0
LINE
  5
10FB
330
10C8
100
AcDbEntity
  8
1
100
AcDbLine
 10
74.46503476947356
 20
118.886399079633
 30
0.0
 11
74.46503476947356
 21
60.88639907963318
 31
0.0
  0
LINE
  5
10FC
330
10C8
100
AcDbEntity
  8
2
100
AcDbLine
 10
79.61503476947365
 20
82.8863990796332
 30
0.0
 11
79.61503476947365
 21
65.88639907963318
 31
0.0
  0
LINE
  5
10FD
330
10C8
100
AcDbEntity
  8
2
100
AcDbLine
 10
78.46503476947356
 20
65.88639907963318
 30
0.0
 11
78.46503476947356
 21
78.8863990796332
 31
0.0
  0
LINE
  5
10FE
330
10C8
100
AcDbEntity
  8
2
100
AcDbLine
 10
77.69824101947354
 20
66.65319282963316
 30
0.0
 11
77.69824101947354
 21
80.88639907963317
 31
0.0
  0
LINE
  5
10FF
330
10C8
100
AcDbEntity
  8
2
100
AcDbLine
 10
70.46503476947356
 20
65.88639907963318
 30
0.0
 11
70.46503476947356
 21
78.8863990796332
 31
0.0
  0
LINE
  5
1100
330
10C8
100
AcDbEntity
  8
2
100
AcDbLine
 10
71.23182851947359
 20
66.65319282963316
 30
0.0
 11
71.23182851947359
 21
80.88639907963317
 31
0.0
  0
LINE
  5
1101
330
10C8
100
AcDbEntity
  8
2
100
AcDbLine
 10
77.69824101947354
 20
66.65319282963316
 30
0.0
 11
71.23182851947359
 21
66.65319282963316
 31
0.0
  0
LINE
  5
1102
330
10C8
100
AcDbEntity
  8
2
100
AcDbLine
 10
71.23182851947359
 20
66.65319282963316
 30
0.0
 11
70.46503476947356
 21
65.88639907963318
 31
0.0
  0
LINE
  5
1103
330
10C8
100
AcDbEntity
  8
2
100
AcDbLine
 10
78.46503476947356
 20
65.88639907963318
 30
0.0
 11
77.69824101947354
 21
66.65319282963316
 31
0.0
  0
ARC
  5
1104
330
10C8
100
AcDbEntity
  8
0
100
AcDbCircle
 10
86.21503476947358
 20
66.63639907963318
 30
0.0
 40
0.75
100
AcDbArc
 50
270.0
 51
0.0
  0
LINE
  5
1105
330
10C8
100
AcDbEntity
  8
2
100
AcDbLine
 10
77.69824101947354
 20
80.88639907963317
 30
0.0
 11
74.46503476947356
 21
82.75309157841626
 31
0.0
  0
LINE
  5
1106
330
10C8
100
AcDbEntity
  8
2
100
AcDbLine
 10
71.23182851947359
 20
80.88639907963317
 30
0.0
 11
74.46503476947356
 21
82.75309157841626
 31
0.0
  0
LINE
  5
1107
330
10C8
100
AcDbEntity
  8
2
100
AcDbLine
 10
78.46503476947356
 20
78.8863990796332
 30
0.0
 11
70.46503476947356
 21
78.8863990796332
 31
0.0
  0
LINE
  5
1108
330
10C8
100
AcDbEntity
  8
2
100
AcDbLine
 10
77.69824101947354
 20
80.88639907963317
 30
0.0
 11
71.23182851947359
 21
80.88639907963317
 31
0.0
  0
LINE
  5
1109
330
10C8
100
AcDbEntity
  8
2
100
AcDbLine
 10
70.46503476947356
 20
78.8863990796332
 30
0.0
 11
71.23182851947359
 21
80.2145248135594
 31
0.0
  0
LINE
  5
110A
330
10C8
100
AcDbEntity
  8
2
100
AcDbLine
 10
78.46503476947356
 20
78.8863990796332
 30
0.0
 11
77.69824101947354
 21
80.2145248135594
 31
0.0
  0
LINE
  5
110B
330
10C8
100
AcDbEntity
  8
2
100
AcDbLine
 10
70.31503476947347
 20
83.8863990796332
 30
0.0
 11
78.61503476947365
 21
83.8863990796332
 31
0.0
  0
LINE
  5
110C
330
10C8
100
AcDbEntity
  8
2
100
AcDbLine
 10
78.61503476947365
 20
83.8863990796332
 30
0.0
 11
79.61503476947365
 21
82.8863990796332
 31
0.0
  0
ARC
  5
110D
330
10C8
100
AcDbEntity
  8
0
100
AcDbCircle
 10
74.46503476947356
 20
99.69562383839329
 30
0.0
 40
21.19077524123992
100
AcDbArc
 50
62.96862837728477
 51
90.0
  0
ARC
  5
110E
330
10C8
100
AcDbEntity
  8
2
100
AcDbCircle
 10
81.70538584059874
 20
113.886399079633
 30
0.0
 40
5.259648928874835
100
AcDbArc
 50
297.0313716227154
 51
0.0
  0
ARC
  5
110F
330
10C8
100
AcDbEntity
  8
0
100
AcDbCircle
 10
81.70538584059874
 20
113.886399079633
 30
0.0
 40
5.259648928874835
100
AcDbArc
 50
0.0
 51
62.96862837728443
  0
ARC
  5
1110
330
10C8
100
AcDbEntity
  8
2
100
AcDbCircle
 10
74.46503476947356
 20
128.0771743208731
 30
0.0
 40
21.19077524123992
100
AcDbArc
 50
270.0
 51
297.0313716227152
  0
ARC
  5
1111
330
10C8
100
AcDbEntity
  8
0
100
AcDbCircle
 10
166.1194952191361
 20
98.38639907963317
 30
0.0
 40
8.5
100
AcDbArc
 50
90.0
 51
180.0
  0
ARC
  5
1112
330
10C8
100
AcDbEntity
  8
0
100
AcDbCircle
 10
162.9194952191363
 20
98.58639907963315
 30
0.0
 40
22.29999999999999
100
AcDbArc
 50
90.0
 51
180.0
  0
LINE
  5
1113
330
10C8
100
AcDbEntity
  8
1
100
AcDbLine
 10
149.1194952191363
 20
60.88639907963318
 30
0.0
 11
149.1194952191363
 21
88.88639907963318
 31
0.0
  0
LINE
  5
1114
330
10C8
100
AcDbEntity
  8
0
100
AcDbLine
 10
157.6194952191363
 20
98.38639907963317
 30
0.0
 11
157.6194952191363
 21
66.18639907963319
 31
0.0
  0
LINE
  5
1115
330
10C8
100
AcDbEntity
  8
0
100
AcDbLine
 10
140.6194952191363
 20
98.58639907963315
 30
0.0
 11
140.6194952191363
 21
66.18639907963324
 31
0.0
  0
LINE
  5
1116
330
10C8
100
AcDbEntity
  8
2
100
AcDbLine
 10
145.8862889691363
 20
66.65319282963316
 30
0.0
 11
145.8862889691363
 21
80.88639907963317
 31
0.0
  0
LINE
  5
1117
330
10C8
100
AcDbEntity
  8
2
100
AcDbLine
 10
152.3527014691361
 20
66.65319282963316
 30
0.0
 11
152.3527014691361
 21
80.88639907963317
 31
0.0
  0
LINE
  5
1118
330
10C8
100
AcDbEntity
  8
2
100
AcDbLine
 10
145.1194952191363
 20
65.88639907963318
 30
0.0
 11
145.1194952191363
 21
78.8863990796332
 31
0.0
  0
LINE
  5
1119
330
10C8
100
AcDbEntity
  8
2
100
AcDbLine
 10
153.1194952191363
 20
65.88639907963318
 30
0.0
 11
153.1194952191363
 21
78.8863990796332
 31
0.0
  0
LINE
  5
111A
330
10C8
100
AcDbEntity
  8
2
100
AcDbLine
 10
154.2694952191363
 20
82.8863990796332
 30
0.0
 11
154.2694952191363
 21
65.88639907963318
 31
0.0
  0
LINE
  5
111B
330
10C8
100
AcDbEntity
  8
2
100
AcDbLine
 10
143.9694952191361
 20
82.8863990796332
 30
0.0
 11
143.9694952191361
 21
65.88639907963318
 31
0.0
  0
LINE
  5
111C
330
10C8
100
AcDbEntity
  8
0
100
AcDbLine
 10
140.9194952191363
 20
65.88639907963318
 30
0.0
 11
157.3194952191362
 21
65.88639907963318
 31
0.0
  0
ARC
  5
111D
330
10C8
100
AcDbEntity
  8
0
100
AcDbCircle
 10
140.9194952191363
 20
66.18639907963324
 30
0.0
 40
0.3
100
AcDbArc
 50
180.0
 51
269.9999999999997
  0
LINE
  5
111E
330
10C8
100
AcDbEntity
  8
2
100
AcDbLine
 10
152.3527014691361
 20
66.65319282963316
 30
0.0
 11
145.8862889691363
 21
66.65319282963316
 31
0.0
  0
LINE
  5
111F
330
10C8
100
AcDbEntity
  8
2
100
AcDbLine
 10
145.8862889691363
 20
66.65319282963316
 30
0.0
 11
145.1194952191363
 21
65.88639907963318
 31
0.0
  0
LINE
  5
1120
330
10C8
100
AcDbEntity
  8
2
100
AcDbLine
 10
153.1194952191363
 20
65.88639907963318
 30
0.0
 11
152.3527014691361
 21
66.65319282963316
 31
0.0
  0
ARC
  5
1121
330
10C8
100
AcDbEntity
  8
0
100
AcDbCircle
 10
157.3194952191362
 20
66.18639907963319
 30
0.0
 40
0.3
100
AcDbArc
 50
270.0
 51
0.0
  0
LINE
  5
1122
330
10C8
100
AcDbEntity
  8
2
100
AcDbLine
 10
145.8862889691363
 20
80.88639907963317
 30
0.0
 11
149.1194952191363
 21
82.75309157841626
 31
0.0
  0
LINE
  5
1123
330
10C8
100
AcDbEntity
  8
2
100
AcDbLine
 10
152.3527014691361
 20
80.88639907963317
 30
0.0
 11
149.1194952191363
 21
82.75309157841626
 31
0.0
  0
LINE
  5
1124
330
10C8
100
AcDbEntity
  8
2
100
AcDbLine
 10
152.3527014691361
 20
80.88639907963317
 30
0.0
 11
145.8862889691363
 21
80.88639907963317
 31
0.0
  0
LINE
  5
1125
330
10C8
100
AcDbEntity
  8
2
100
AcDbLine
 10
153.1194952191363
 20
78.8863990796332
 30
0.0
 11
145.1194952191363
 21
78.8863990796332
 31
0.0
  0
LINE
  5
1126
330
10C8
100
AcDbEntity
  8
2
100
AcDbLine
 10
145.1194952191363
 20
78.8863990796332
 30
0.0
 11
145.8862889691363
 21
80.2145248135594
 31
0.0
  0
LINE
  5
1127
330
10C8
100
AcDbEntity
  8
2
100
AcDbLine
 10
153.1194952191363
 20
78.8863990796332
 30
0.0
 11
152.3527014691361
 21
80.2145248135594
 31
0.0
  0
LINE
  5
1128
330
10C8
100
AcDbEntity
  8
2
100
AcDbLine
 10
153.2694952191363
 20
83.8863990796332
 30
0.0
 11
144.9694952191361
 21
83.8863990796332
 31
0.0
  0
LINE
  5
1129
330
10C8
100
AcDbEntity
  8
2
100
AcDbLine
 10
144.9694952191361
 20
83.8863990796332
 30
0.0
 11
143.9694952191361
 21
82.8863990796332
 31
0.0
  0
LINE
  5
112A
330
10C8
100
AcDbEntity
  8
2
100
AcDbLine
 10
153.2694952191364
 20
83.8863990796332
 30
0.0
 11
154.2694952191363
 21
82.8863990796332
 31
0.0
  0
LINE
  5
112B
330
10C8
100
AcDbEntity
  8
1
100
AcDbLine
 10
149.1194952191363
 20
172.6787079781862
 30
0.0
 11
149.1194952191363
 21
192.8817728209939
 31
0.0
  0
ARC
  5
112C
330
10C8
100
AcDbEntity
  8
0
100
AcDbCircle
 10
161.8102704603761
 20
183.1602480388688
 30
0.0
 40
21.19077524123992
100
AcDbArc
 50
154.9816195650632
 51
205.0183804349364
  0
ARC
  5
112D
330
10C8
100
AcDbEntity
  8
0
100
AcDbCircle
 10
148.3194952191363
 20
177.0395337531546
 30
0.0
 40
6.379285714285707
100
AcDbArc
 50
206.4461353054026
 51
270.0
  0
ARC
  5
112E
330
10C8
100
AcDbEntity
  8
0
100
AcDbCircle
 10
148.3194952191363
 20
189.2809623245831
 30
0.0
 40
6.379285714285707
100
AcDbArc
 50
90.0
 51
153.5538646945973
  0
LINE
  5
112F
330
10C8
100
AcDbEntity
  8
0
100
AcDbLine
 10
252.3194952191362
 20
120.886399079633
 30
0.0
 11
162.9194952191363
 21
120.886399079633
 31
0.0
  0
LINE
  5
1130
330
10C8
100
AcDbEntity
  8
0
100
AcDbLine
 10
249.1194952191363
 20
106.8863990796331
 30
0.0
 11
166.1194952191361
 21
106.8863990796331
 31
0.0
  0
LINE
  5
1131
330
10C8
100
AcDbEntity
  8
1
100
AcDbLine
 10
207.6194952191363
 20
125.886399079633
 30
0.0
 11
207.6194952191363
 21
101.8863990796331
 31
0.0
  0
ARC
  5
1132
330
10C8
100
AcDbEntity
  8
0
100
AcDbCircle
 10
252.3194952191362
 20
98.58639907963315
 30
0.0
 40
22.29999999999999
100
AcDbArc
 50
0.0
 51
90.0
  0
ARC
  5
1133
330
10C8
100
AcDbEntity
  8
0
100
AcDbCircle
 10
249.1194952191363
 20
98.38639907963317
 30
0.0
 40
8.5
100
AcDbArc
 50
0.0
 51
90.0
  0
LINE
  5
1134
330
10C8
100
AcDbEntity
  8
1
100
AcDbLine
 10
266.1194952191363
 20
60.88639907963318
 30
0.0
 11
266.1194952191363
 21
88.88639907963318
 31
0.0
  0
LINE
  5
1135
330
10C8
100
AcDbEntity
  8
0
100
AcDbLine
 10
257.6194952191363
 20
98.38639907963317
 30
0.0
 11
257.6194952191363
 21
66.18639907963319
 31
0.0
  0
LINE
  5
1136
330
10C8
100
AcDbEntity
  8
0
100
AcDbLine
 10
274.6194952191363
 20
98.58639907963315
 30
0.0
 11
274.6194952191363
 21
66.18639907963324
 31
0.0
  0
LINE
  5
1137
330
10C8
100
AcDbEntity
  8
2
100
AcDbLine
 10
271.2694952191362
 20
82.8863990796332
 30
0.0
 11
271.2694952191362
 21
65.88639907963318
 31
0.0
  0
LINE
  5
1138
330
10C8
100
AcDbEntity
  8
2
100
AcDbLine
 10
260.9694952191361
 20
82.8863990796332
 30
0.0
 11
260.9694952191361
 21
65.88639907963318
 31
0.0
  0
LINE
  5
1139
330
10C8
100
AcDbEntity
  8
2
100
AcDbLine
 10
262.1194952191363
 20
65.88639907963318
 30
0.0
 11
262.1194952191363
 21
78.8863990796332
 31
0.0
  0
LINE
  5
113A
330
10C8
100
AcDbEntity
  8
2
100
AcDbLine
 10
270.1194952191363
 20
65.88639907963318
 30
0.0
 11
270.1194952191363
 21
78.8863990796332
 31
0.0
  0
LINE
  5
113B
330
10C8
100
AcDbEntity
  8
2
100
AcDbLine
 10
262.8862889691362
 20
66.65319282963316
 30
0.0
 11
262.8862889691362
 21
80.88639907963317
 31
0.0
  0
LINE
  5
113C
330
10C8
100
AcDbEntity
  8
2
100
AcDbLine
 10
269.3527014691361
 20
66.65319282963316
 30
0.0
 11
269.3527014691361
 21
80.88639907963317
 31
0.0
  0
LINE
  5
113D
330
10C8
100
AcDbEntity
  8
0
100
AcDbLine
 10
274.3194952191363
 20
65.88639907963318
 30
0.0
 11
257.9194952191361
 21
65.88639907963318
 31
0.0
  0
ARC
  5
113E
330
10C8
100
AcDbEntity
  8
0
100
AcDbCircle
 10
257.9194952191361
 20
66.18639907963319
 30
0.0
 40
0.3
100
AcDbArc
 50
180.0
 51
270.0
  0
LINE
  5
113F
330
10C8
100
AcDbEntity
  8
2
100
AcDbLine
 10
262.8862889691362
 20
66.65319282963316
 30
0.0
 11
269.3527014691361
 21
66.65319282963316
 31
0.0
  0
LINE
  5
1140
330
10C8
100
AcDbEntity
  8
2
100
AcDbLine
 10
262.1194952191363
 20
65.88639907963318
 30
0.0
 11
262.8862889691362
 21
66.65319282963316
 31
0.0
  0
LINE
  5
1141
330
10C8
100
AcDbEntity
  8
2
100
AcDbLine
 10
269.3527014691361
 20
66.65319282963316
 30
0.0
 11
270.1194952191363
 21
65.88639907963318
 31
0.0
  0
ARC
  5
1142
330
10C8
100
AcDbEntity
  8
0
100
AcDbCircle
 10
274.3194952191363
 20
66.18639907963324
 30
0.0
 40
0.3
100
AcDbArc
 50
270.0
 51
0.0
  0
LINE
  5
1143
330
10C8
100
AcDbEntity
  8
2
100
AcDbLine
 10
262.8862889691362
 20
80.88639907963317
 30
0.0
 11
266.1194952191363
 21
82.75309157841626
 31
0.0
  0
LINE
  5
1144
330
10C8
100
AcDbEntity
  8
2
100
AcDbLine
 10
269.3527014691361
 20
80.88639907963317
 30
0.0
 11
266.1194952191363
 21
82.75309157841626
 31
0.0
  0
LINE
  5
1145
330
10C8
100
AcDbEntity
  8
2
100
AcDbLine
 10
262.1194952191363
 20
78.8863990796332
 30
0.0
 11
270.1194952191363
 21
78.8863990796332
 31
0.0
  0
LINE
  5
1146
330
10C8
100
AcDbEntity
  8
2
100
AcDbLine
 10
262.8862889691362
 20
80.88639907963317
 30
0.0
 11
269.3527014691361
 21
80.88639907963317
 31
0.0
  0
LINE
  5
1147
330
10C8
100
AcDbEntity
  8
2
100
AcDbLine
 10
262.1194952191363
 20
78.8863990796332
 30
0.0
 11
262.8862889691362
 21
80.2145248135594
 31
0.0
  0
LINE
  5
1148
330
10C8
100
AcDbEntity
  8
2
100
AcDbLine
 10
270.1194952191363
 20
78.8863990796332
 30
0.0
 11
269.3527014691361
 21
80.2145248135594
 31
0.0
  0
LINE
  5
1149
330
10C8
100
AcDbEntity
  8
2
100
AcDbLine
 10
270.2694952191364
 20
83.8863990796332
 30
0.0
 11
261.9694952191362
 21
83.8863990796332
 31
0.0
  0
LINE
  5
114A
330
10C8
100
AcDbEntity
  8
2
100
AcDbLine
 10
261.9694952191362
 20
83.8863990796332
 30
0.0
 11
260.9694952191361
 21
82.8863990796332
 31
0.0
  0
LINE
  5
114B
330
10C8
100
AcDbEntity
  8
2
100
AcDbLine
 10
270.2694952191364
 20
83.8863990796332
 30
0.0
 11
271.2694952191362
 21
82.8863990796332
 31
0.0
  0
LINE
  5
114C
330
10C8
100
AcDbEntity
  8
1
100
AcDbLine
 10
207.6194952191363
 20
200.6602480388688
 30
0.0
 11
207.6194952191363
 21
165.6602480388688
 31
0.0
  0
ARC
  5
114D
330
10C8
100
AcDbEntity
  8
0
100
AcDbCircle
 10
253.4287199778962
 20
183.1602480388688
 30
0.0
 40
21.19077524123992
100
AcDbArc
 50
334.9816195650666
 51
25.01838043493349
  0
LINE
  5
114E
330
10C8
100
AcDbEntity
  8
1
100
AcDbLine
 10
266.1194952191363
 20
172.6787079781862
 30
0.0
 11
266.1194952191363
 21
192.8817728209939
 31
0.0
  0
ARC
  5
114F
330
10C8
100
AcDbEntity
  8
0
100
AcDbCircle
 10
266.9194952191361
 20
177.0395337531546
 30
0.0
 40
6.379285714285707
100
AcDbArc
 50
270.0
 51
333.5538646946083
  0
ARC
  5
1150
330
10C8
100
AcDbEntity
  8
0
100
AcDbCircle
 10
266.9194952191361
 20
189.2809623245831
 30
0.0
 40
6.379285714285707
100
AcDbArc
 50
26.44613530539169
 51
90.0
  0
LINE
  5
1151
330
10C8
100
AcDbEntity
  8
ITTEN
100
AcDbLine
 10
0.0005
 20
0.0
 30
0.0
 11
-0.0005
 21
0.0
 31
0.0
  0
LINE
  5
1152
330
10C8
100
AcDbEntity
  8
ITTEN
100
AcDbLine
 10
0.0
 20
0.0005
 30
0.0
 11
0.0
 21
-0.0005
 31
0.0
  0
ENDSEC
  0
SECTION
  2
OBJECTS
  0
DICTIONARY
  5
10B6
330
0
100
AcDbDictionary
281
     1
  3
ACAD_GROUP
350
10B7
  3
ACAD_LAYOUT
350
10C3
  3
ACAD_MLINESTYLE
350
10C0
  3
ACAD_PLOTSETTINGS
350
10C2
  3
ACAD_PLOTSTYLENAME
350
10B8
  3
AcDbVariableDictionary
350
1248
  3
AcmDictionary
350
120C
  3
AMG
350
1154
  3
AMGSNAPSETTINGS
350
1229
  3
DWGPROPS
350
120F
  3
MAPISURF_MODULE
350
11DF
  0
DICTIONARY
  5
1240
330
10C8
100
AcDbDictionary
280
     1
281
     1
  3
ACAD_INDEX
360
1241
  0
DICTIONARY
  5
10B7
102
{ACAD_REACTORS
330
10B6
102
}
330
10B6
100
AcDbDictionary
281
     1
  0
DICTIONARY
  5
10C3
102
{ACAD_REACTORS
330
10B6
102
}
330
10B6
100
AcDbDictionary
281
     1
  3
Model
350
10CB
  3
ﾚｲｱｳﾄ1
350
10C7
  0
DICTIONARY
  5
10C0
102
{ACAD_REACTORS
330
10B6
102
}
330
10B6
100
AcDbDictionary
281
     1
  3
Standard
350
10C1
  0
DICTIONARY
  5
10C2
102
{ACAD_REACTORS
330
10B6
102
}
330
10B6
100
AcDbDictionary
281
     1
  0
ACDBDICTIONARYWDFLT
  5
10B8
102
{ACAD_REACTORS
330
10B6
102
}
330
10B6
100
AcDbDictionary
281
     1
  3
Normal
350
10B9
100
AcDbDictionaryWithDefault
340
10B9
  0
DICTIONARY
  5
1248
102
{ACAD_REACTORS
330
10B6
102
}
330
10B6
100
AcDbDictionary
281
     1
  3
DIMASSOC
350
124A
  3
INDEXCTL
350
1249
  0
DICTIONARY
  5
120C
102
{ACAD_REACTORS
330
10B6
102
}
330
10B6
100
AcDbDictionary
281
     1
  3
AcmBOMDATA
350
120D
  0
DICTIONARY
  5
1154
102
{ACAD_REACTORS
330
10B6
102
}
330
10B6
100
AcDbDictionary
281
     1
  3
AcMgSettings
350
1155
  3
AMGLAYCFG
350
1219
  0
DICTIONARY
  5
1229
102
{ACAD_REACTORS
330
10B6
102
}
330
10B6
100
AcDbDictionary
281
     1
  3
DIMENSION
350
122E
  3
FEA
350
122D
  3
HATCH (1)
350
122A
  3
HATCH (2)
350
122B
  3
SIMPLE WELD
350
122F
  3
SYMBOLS
350
122C
  0
XRECORD
  5
120F
102
{ACAD_REACTORS
330
10B6
102
}
330
10B6
100
AcDbXrecord
280
     1
  1
DWGPROPS COOKIE
  2

  3

  4

  6

  7

  8

  9

300
AmdtFileType=84
301
=
302
=
303
=
304
=
305
=
306
=
307
=
308
=
309
=
 40
0.0245237037037037
 41
2449839.627581018
 42
2453236.836105324
  1

 90
        1
  0
DICTIONARY
  5
1241
102
{ACAD_REACTORS
330
1240
102
}
330
1240
100
AcDbDictionary
281
     1
  3
*A1
350
1242
  0
LAYOUT
  5
10CB
102
{ACAD_REACTORS
330
10C3
102
}
330
10C3
100
AcDbPlotSettings
  1

  2
\\KONISHIDENXP\SHARP MX-2700FG
  4

  6

 40
0.0
 41
0.0
 42
0.0
 43
0.0
 44
0.0
 45
0.0
 46
0.0
 47
0.0
 48
0.0
 49
0.0
140
0.0
141
0.0
142
1.0
143
1.0
 70
  1712
 72
     0
 73
     0
 74
     0
  7

 75
     0
147
1.0
148
0.0
149
0.0
100
AcDbLayout
  1
Model
 70
     1
 71
     0
 10
0.0
 20
0.0
 11
12.0
 21
9.0
 12
0.0
 22
0.0
 32
0.0
 14
0.0
 24
0.0
 34
0.0
 15
0.0
 25
0.0
 35
0.0
146
0.0
 13
0.0
 23
0.0
 33
0.0
 16
1.0
 26
0.0
 36
0.0
 17
0.0
 27
1.0
 37
0.0
 76
     0
330
10C8
  0
LAYOUT
  5
10C7
102
{ACAD_REACTORS
330
10C3
102
}
330
10C3
100
AcDbPlotSettings
  1

  2
\\KONISHIDENXP\SHARP MX-2700FG
  4

  6

 40
0.0
 41
0.0
 42
0.0
 43
0.0
 44
0.0
 45
0.0
 46
0.0
 47
0.0
 48
0.0
 49
0.0
140
0.0
141
0.0
142
1.0
143
1.0
 70
   688
 72
     0
 73
     0
 74
     5
  7

 75
    16
147
1.0
148
0.0
149
0.0
100
AcDbLayout
  1
ﾚｲｱｳﾄ1
 70
     0
 71
     1
 10
0.0
 20
0.0
 11
12.0
 21
9.0
 12
0.0
 22
0.0
 32
0.0
 14
1.000000000000000E+20
 24
1.000000000000000E+20
 34
1.000000000000000E+20
 15
-1.000000000000000E+20
 25
-1.000000000000000E+20
 35
-1.000000000000000E+20
146
0.0
 13
0.0
 23
0.0
 33
0.0
 16
1.0
 26
0.0
 36
0.0
 17
0.0
 27
1.0
 37
0.0
 76
     0
330
10C4
  0
MLINESTYLE
  5
10C1
102
{ACAD_REACTORS
330
10C0
102
}
330
10C0
100
AcDbMlineStyle
  2
STANDARD
 70
     0
  3

 62
   256
 51
90.0
 52
90.0
 71
     2
 49
0.5
 62
   256
  6
BYLAYER
 49
-0.5
 62
   256
  6
BYLAYER
  0
ACDBPLACEHOLDER
  5
10B9
102
{ACAD_REACTORS
330
10B8
102
}
330
10B8
  0
DICTIONARYVAR
  5
124A
102
{ACAD_REACTORS
330
1248
102
}
330
1248
100
DictionaryVariables
280
     0
  1
0
  0
DICTIONARYVAR
  5
1249
102
{ACAD_REACTORS
330
1248
102
}
330
1248
100
DictionaryVariables
280
     0
  1
1
  0
ACMDATADICTIONARY
  5
120D
102
{ACAD_REACTORS
330
120C
102
}
330
120C
100
AcDbDictionary
281
     1
  3
*A1
350
120E
100
AcmDataDictionary
  0
DICTIONARY
  5
1155
102
{ACAD_REACTORS
330
1154
102
}
330
1154
100
AcDbDictionary
281
     1
  3
DWGSETTINGS
350
1156
  0
ACAMGFILTERDAT
  5
122E
102
{ACAD_REACTORS
330
1229
102
}
330
1229
100
AcAmgFilterDat
 70
    15
  1
DIMENSION,AMDT_*_DIM
  2
*
  3
*
  4
*
  5
*
290
     1
  0
ACAMGFILTERDAT
  5
122D
102
{ACAD_REACTORS
330
1229
102
}
330
1229
100
AcAmgFilterDat
 70
    15
  1
*
  2
AM_FEA-AM_*
  3
*
  4
*
  5
*
290
     1
  0
ACAMGFILTERDAT
  5
122A
102
{ACAD_REACTORS
330
1229
102
}
330
1229
100
AcAmgFilterDat
 70
    15
  1
HATCH
  2
*
  3
*
  4
*
  5
*
290
     1
  0
ACAMGFILTERDAT
  5
122B
102
{ACAD_REACTORS
330
1229
102
}
330
1229
100
AcAmgFilterDat
 70
    15
  1
LINE
  2
8,8N,*-8,*-8N,AM_8,AM_8N,*-AM_8,*-AM_8N
  3
*
  4
*
  5
INSERT,STDPART2D
290
     1
  0
ACAMGFILTERDAT
  5
122F
102
{ACAD_REACTORS
330
1229
102
}
330
1229
100
AcAmgFilterDat
 70
    15
  1
ARC
  2
AM_5
  3
*
  4
2
  5
INSERT
290
     0
  0
ACAMGFILTERDAT
  5
122C
102
{ACAD_REACTORS
330
1229
102
}
330
1229
100
AcAmgFilterDat
 70
    15
  1
ACMFCFRAME,ACMDATUMTARGET,ACMDATUMID,ACMWELDSYM,ACMSURFSYM,ACMFEATID,ACMPARTREF,ACMBALLOON,AMDTEDGESYM,AMGSCREWCALCTABLE
  2
*
  3
*
  4
*
  5
*
290
     1
  0
LAYER_INDEX
  5
1242
102
{ACAD_REACTORS
330
1241
102
}
330
1241
100
AcDbIndex
 40
2457462.549677002
100
AcDbLayerIndex
  8
0
360
1243
 90
       34
  8
1
360
1244
 90
        8
  8
11
360
1245
 90
        7
  8
ITTEN
360
1246
 90
        2
  8
2
360
1247
 90
       58
  0
ACMDATAENTRYBLOCK
  5
120E
102
{ACAD_REACTORS
330
120D
102
}
330
120D
100
AcmDataEntry
100
AcmDataEntryBlock
  0
IDBUFFER
  5
1243
330
0
100
AcDbIdBuffer
330
111C
330
111D
330
1121
330
112C
330
112D
330
112E
330
112F
330
1130
330
1132
330
1133
330
1135
330
1136
330
113D
330
113E
330
1142
330
114D
330
114F
330
1150
330
10ED
330
10EE
330
10EF
330
10F1
330
10F2
330
10F5
330
10F7
330
10F9
330
10FA
330
1104
330
110D
330
110F
330
1111
330
1112
330
1114
330
1115
  0
IDBUFFER
  5
1244
330
0
100
AcDbIdBuffer
330
10F0
330
10FB
330
1113
330
112B
330
1131
330
1134
330
114C
330
114E
  0
IDBUFFER
  5
1245
330
0
100
AcDbIdBuffer
330
10E6
330
10E7
330
10E8
330
10E9
330
10EA
330
10EB
330
10EC
  0
IDBUFFER
  5
1246
330
0
100
AcDbIdBuffer
330
1151
330
1152
  0
IDBUFFER
  5
1247
330
0
100
AcDbIdBuffer
330
1141
330
1143
330
1144
330
1145
330
1146
330
1147
330
1148
330
1149
330
114A
330
114B
330
10F3
330
10F4
330
10F6
330
10F8
330
10FC
330
10FD
330
10FE
330
10FF
330
1100
330
1101
330
1102
330
1103
330
1105
330
1106
330
1107
330
1108
330
1109
330
110A
330
110B
330
110C
330
110E
330
1110
330
1116
330
1117
330
1118
330
1119
330
111A
330
111B
330
111E
330
111F
330
1120
330
1122
330
1123
330
1124
330
1125
330
1126
330
1127
330
1128
330
1129
330
112A
330
1137
330
1138
330
1139
330
113A
330
113B
330
113C
330
113F
330
1140
  0
ENDSEC
  0
EOF
