  0
SECTION
  2
HEADER
  9
$ACADVER
  1
AC1009
  9
$INSBASE
 10
0.0
 20
0.0
 30
0.0
  9
$EXTMIN
 10
-0.0119432339528203
 20
-0.0087391327181194
 30
-0.0015258207003583
  9
$EXTMAX
 10
290.46810400804549
 20
216.8205807974478
 30
0.0000000349246037
  9
$LIMMIN
 10
0.0
 20
0.0
  9
$LIMMAX
 10
375.0
 20
270.0
  9
$ORTHOMODE
 70
     0
  9
$REGENMODE
 70
     1
  9
$FILLMODE
 70
     1
  9
$QTEXTMODE
 70
     0
  9
$MIRRTEXT
 70
     0
  9
$DRAGMODE
 70
     2
  9
$LTSCALE
 40
10.0
  9
$OSMODE
 70
   231
  9
$ATTMODE
 70
     1
  9
$TEXTSIZE
 40
5.0
  9
$TRACEWID
 40
0.05
  9
$TEXTSTYLE
  7
STANDARD
  9
$CLAYER
  8
0
  9
$CELTYPE
  6
BYLAYER
  9
$CECOLOR
 62
   256
  9
$DIMSCALE
 40
1.0
  9
$DIMASZ
 40
3.0
  9
$DIMEXO
 40
2.0
  9
$DIMDLI
 40
0.38
  9
$DIMRND
 40
0.0
  9
$DIMDLE
 40
0.0
  9
$DIMEXE
 40
2.0
  9
$DIMTP
 40
0.0
  9
$DIMTM
 40
0.0
  9
$DIMTXT
 40
3.0
  9
$DIMCEN
 40
0.09
  9
$DIMTSZ
 40
0.0
  9
$DIMTOL
 70
     0
  9
$DIMLIM
 70
     0
  9
$DIMTIH
 70
     0
  9
$DIMTOH
 70
     0
  9
$DIMSE1
 70
     0
  9
$DIMSE2
 70
     0
  9
$DIMTAD
 70
     1
  9
$DIMZIN
 70
     0
  9
$DIMBLK
  1

  9
$DIMASO
 70
     1
  9
$DIMSHO
 70
     0
  9
$DIMPOST
  1

  9
$DIMAPOST
  1

  9
$DIMALT
 70
     0
  9
$DIMALTD
 70
     2
  9
$DIMALTF
 40
25.399999999999999
  9
$DIMLFAC
 40
1.0
  9
$DIMTOFL
 70
     0
  9
$DIMTVP
 40
1.6000000000000001
  9
$DIMTIX
 70
     1
  9
$DIMSOXD
 70
     0
  9
$DIMSAH
 70
     0
  9
$DIMBLK1
  1

  9
$DIMBLK2
  1

  9
$DIMSTYLE
  2
STANDARD
  9
$DIMCLRD
 70
     0
  9
$DIMCLRE
 70
     0
  9
$DIMCLRT
 70
     0
  9
$DIMTFAC
 40
1.0
  9
$DIMGAP
 40
0.09
  9
$LUNITS
 70
     2
  9
$LUPREC
 70
     4
  9
$SKETCHINC
 40
0.1
  9
$FILLETRAD
 40
1.0
  9
$AUNITS
 70
     0
  9
$AUPREC
 70
     0
  9
$MENU
  1
E:\r13\win\SUPPORT\ACAD
  9
$ELEVATION
 40
0.0
  9
$PELEVATION
 40
0.0
  9
$THICKNESS
 40
0.0
  9
$LIMCHECK
 70
     0
  9
$BLIPMODE
 70
     1
  9
$CHAMFERA
 40
0.0
  9
$CHAMFERB
 40
0.0
  9
$SKPOLY
 70
     0
  9
$TDCREATE
 40
2449839.7831712961
  9
$TDUPDATE
 40
2453236.8358781822
  9
$TDINDWG
 40
0.0335605093
  9
$TDUSRTIMER
 40
0.0335605093
  9
$USRTIMER
 70
     1
  9
$ANGBASE
 50
0.0
  9
$ANGDIR
 70
     0
  9
$PDMODE
 70
     0
  9
$PDSIZE
 40
0.0
  9
$PLINEWID
 40
0.0
  9
$COORDS
 70
     0
  9
$SPLFRAME
 70
     0
  9
$SPLINETYPE
 70
     6
  9
$SPLINESEGS
 70
     8
  9
$ATTDIA
 70
     0
  9
$ATTREQ
 70
     1
  9
$HANDLING
 70
-16383
  9
$HANDSEED
  5
4E8
  9
$SURFTAB1
 70
     6
  9
$SURFTAB2
 70
     6
  9
$SURFTYPE
 70
     6
  9
$SURFU
 70
     6
  9
$SURFV
 70
     6
  9
$UCSNAME
  2

  9
$UCSORG
 10
0.0
 20
0.0
 30
0.0
  9
$UCSXDIR
 10
1.0
 20
0.0
 30
0.0
  9
$UCSYDIR
 10
0.0
 20
1.0
 30
0.0
  9
$PUCSNAME
  2

  9
$PUCSORG
 10
0.0
 20
0.0
 30
0.0
  9
$PUCSXDIR
 10
1.0
 20
0.0
 30
0.0
  9
$PUCSYDIR
 10
0.0
 20
1.0
 30
0.0
  9
$USERI1
 70
     0
  9
$USERI2
 70
     1
  9
$USERI3
 70
     1
  9
$USERI4
 70
     0
  9
$USERI5
 70
     0
  9
$USERR1
 40
0.0
  9
$USERR2
 40
0.0
  9
$USERR3
 40
0.0
  9
$USERR4
 40
0.0
  9
$USERR5
 40
0.0
  9
$WORLDVIEW
 70
     1
  9
$SHADEDGE
 70
     3
  9
$SHADEDIF
 70
    70
  9
$TILEMODE
 70
     1
  9
$MAXACTVP
 70
    16
  9
$PLIMCHECK
 70
     0
  9
$PEXTMIN
 10
1.0000000000000000E+020
 20
1.0000000000000000E+020
 30
1.0000000000000000E+020
  9
$PEXTMAX
 10
-1.0000000000000000E+020
 20
-1.0000000000000000E+020
 30
-1.0000000000000000E+020
  9
$PLIMMIN
 10
0.0
 20
0.0
  9
$PLIMMAX
 10
12.0
 20
9.0
  9
$UNITMODE
 70
     0
  9
$VISRETAIN
 70
     0
  9
$PLINEGEN
 70
     0
  9
$PSLTSCALE
 70
     0
  0
ENDSEC
  0
SECTION
  2
TABLES
  0
TABLE
  2
VPORT
 70
     3
  0
VPORT
  2
*ACTIVE
 70
     0
 10
0.0
 20
0.0
 11
1.0
 21
1.0
 12
145.2280803870463
 22
108.4059208323648
 13
0.0
 23
0.0
 14
10.0
 24
10.0
 15
10.0
 25
10.0
 16
0.0
 26
0.0
 36
1.0
 17
0.0
 27
0.0
 37
0.0
 40
345.97672539557732
 41
0.9407114624505929
 42
50.0
 43
0.0
 44
0.0
 50
0.0
 51
0.0
 71
     0
 72
   500
 73
     1
 74
     0
 75
     0
 76
     0
 77
     0
 78
     2
  0
ENDTAB
  0
TABLE
  2
LTYPE
 70
     3
  0
LTYPE
  2
CONTINUOUS
 70
     0
  3
Solid Line
 72
    65
 73
     0
 40
0.0
  0
LTYPE
  2
CENTER
 70
     0
  3
____ _ ____ _ ____ _ ____ _ ____ _ ____ _ ____
 72
    65
 73
     4
 40
2.0
 49
1.25
 49
-0.25
 49
0.25
 49
-0.25
  0
LTYPE
  2
HIDDEN
 70
     0
  3
_ _ _ _ _ _ _ _ _ _ _ _ _ _ _ _ _ _ _ _ _ _ _
 72
    65
 73
     2
 40
0.375
 49
0.25
 49
-0.125
  0
ENDTAB
  0
TABLE
  2
LAYER
 70
     4
  0
LAYER
  2
0
 70
     0
 62
     7
  6
CONTINUOUS
  0
LAYER
  2
1
 70
     0
 62
     1
  6
CENTER
  0
LAYER
  2
2
 70
     0
 62
     2
  6
HIDDEN
  0
LAYER
  2
ITTEN
 70
     0
 62
     1
  6
CENTER
  0
ENDTAB
  0
TABLE
  2
STYLE
 70
     1
  0
STYLE
  2
STANDARD
 70
     0
 40
0.0
 41
1.0
 50
0.0
 71
     0
 42
5.0
  3
TXT
  4
BIGFONT
  0
ENDTAB
  0
TABLE
  2
VIEW
 70
     1
  0
VIEW
  2
ALL
 70
     0
 40
270.0
 10
220.99159663865541
 20
135.0
 41
0.0
 11
0.0
 21
0.0
 31
1.0
 12
0.0
 22
0.0
 32
0.0
 42
0.0
 43
0.0
 44
0.0
 50
0.0
 71
     0
  0
ENDTAB
  0
TABLE
  2
UCS
 70
     0
  0
ENDTAB
  0
TABLE
  2
APPID
 70
     1
  0
APPID
  2
ACAD
 70
     0
  0
ENDTAB
  0
TABLE
  2
DIMSTYLE
 70
     1
  0
DIMSTYLE
  2
STANDARD
 70
     0
  3

  4

  5

  6

  7

 40
1.0
 41
0.18
 42
0.0625
 43
0.38
 44
0.18
 45
0.0
 46
0.0
 47
0.0
 48
0.0
140
0.18
141
0.09
142
0.0
143
25.399999999999999
144
1.0
145
0.0
146
1.0
147
0.09
 71
     0
 72
     0
 73
     1
 74
     1
 75
     0
 76
     0
 77
     0
 78
     0
170
     0
171
     2
172
     0
173
     0
174
     0
175
     0
176
     0
177
     0
178
     0
  0
ENDTAB
  0
ENDSEC
  0
SECTION
  2
BLOCKS
  0
BLOCK
  8
0
  2
$MODEL_SPACE
 70
     0
 10
0.0
 20
0.0
 30
0.0
  3
$MODEL_SPACE
  1

  0
ENDBLK
  5
133
  8
0
  0
BLOCK
 67
     1
  8
0
  2
$PAPER_SPACE
 70
     0
 10
0.0
 20
0.0
 30
0.0
  3
$PAPER_SPACE
  1

  0
ENDBLK
  5
131
 67
     1
  8
0
  0
BLOCK
  8
0
  2
BATU
 70
     0
 10
0.0
 20
0.0
 30
0.0
  3
BATU
  1

  0
LINE
  5
13E
  8
ITTEN
 10
0.5
 20
0.0
 30
0.0
 11
-0.5
 21
0.0
 31
0.0
  0
LINE
  5
13F
  8
ITTEN
 10
0.0
 20
0.5
 30
0.0
 11
0.0
 21
-0.5
 31
0.0
  0
ENDBLK
  5
141
  8
0
  0
ENDSEC
  0
SECTION
  2
ENTITIES
  0
LINE
  5
36
  8
0
 10
148.44154352736371
 20
86.803700891510857
 30
0.0
 11
166.44154352736371
 21
86.803700891510886
 31
0.0
  0
LINE
  5
37
  8
0
 10
285.44154352736382
 20
87.803700891510857
 30
0.0
 11
285.44154352736382
 21
113.8037008915108
 31
0.0
  0
LINE
  5
38
  8
0
 10
259.44154352736382
 20
139.8037008915108
 30
0.0
 11
173.44154352736371
 21
139.8037008915108
 31
0.0
  0
LINE
  5
39
  8
0
 10
147.44154352736371
 20
113.8037008915108
 30
0.0
 11
147.44154352736371
 21
87.803700891510857
 31
0.0
  0
LINE
  5
3D
  8
1
 10
216.44154352736371
 20
144.8037008915108
 30
0.0
 11
216.44154352736371
 21
114.8037008915108
 31
0.0
  0
ARC
  5
3F
  8
0
 10
259.44154352736382
 20
113.8037008915108
 30
0.0
 40
26.0
 50
0.0
 51
90.0
  0
ARC
  5
40
  8
0
 10
173.44154352736371
 20
113.8037008915108
 30
0.0
 40
26.0
 50
90.0
 51
179.99999999999989
  0
ARC
  5
41
  8
1
 10
258.94154352736382
 20
113.8037008915108
 30
0.0
 40
16.0
 50
0.0
 51
90.0
  0
LINE
  5
42
  8
1
 10
258.94154352736382
 20
129.8037008915108
 30
0.0
 11
173.94154352736371
 21
129.8037008915108
 31
0.0
  0
ARC
  5
43
  8
1
 10
173.94154352736371
 20
113.8037008915108
 30
0.0
 40
16.0
 50
90.0
 51
179.99999999999989
  0
LINE
  5
44
  8
1
 10
157.94154352736379
 20
113.8037008915108
 30
0.0
 11
157.94154352736379
 21
81.803700891510886
 31
0.0
  0
LINE
  5
45
  8
1
 10
274.94154352736382
 20
81.803700891510886
 30
0.0
 11
274.94154352736382
 21
113.8037008915108
 31
0.0
  0
LINE
  5
46
  8
0
 10
265.44154352736382
 20
87.803700891510871
 30
0.0
 11
265.44154352736371
 21
112.8037008915108
 31
0.0
  0
ARC
  5
47
  8
0
 10
259.44154352736382
 20
112.8037008915108
 30
0.0
 40
6.0
 50
0.0
 51
90.0
  0
LINE
  5
48
  8
0
 10
259.44154352736382
 20
118.8037008915108
 30
0.0
 11
173.44154352736371
 21
118.8037008915108
 31
0.0
  0
ARC
  5
49
  8
0
 10
173.44154352736371
 20
112.8037008915108
 30
0.0
 40
6.0
 50
90.0
 51
179.99999999999989
  0
LINE
  5
4A
  8
0
 10
167.44154352736379
 20
112.8037008915108
 30
0.0
 11
167.44154352736379
 21
87.803700891510871
 31
0.0
  0
LINE
  5
4B
  8
0
 10
266.44154352736382
 20
86.803700891510886
 30
0.0
 11
284.44154352736382
 21
86.803700891510857
 31
0.0
  0
ARC
  5
4C
  8
0
 10
166.44154352736371
 20
87.803700891510871
 30
0.0
 40
1.0
 50
270.0
 51
0.0
  0
ARC
  5
4D
  8
0
 10
266.44154352736382
 20
87.803700891510871
 30
0.0
 40
1.0
 50
180.0
 51
269.99999999999989
  0
ARC
  5
62
  8
0
 10
148.44154352736371
 20
87.803700891510857
 30
0.0
 40
1.0
 50
180.0
 51
270.0
  0
ARC
  5
63
  8
0
 10
284.44154352736382
 20
87.803700891510857
 30
0.0
 40
1.0
 50
269.99999999999989
 51
0.0
  0
LINE
  5
68
  8
2
 10
271.6180435273638
 20
88.003700891510874
 30
0.0
 11
270.41804352736381
 21
86.803700891510857
 31
0.0
  0
LINE
  5
69
  8
2
 10
278.26504352736379
 20
88.003700891510874
 30
0.0
 11
279.46504352736378
 21
86.803700891510857
 31
0.0
  0
LINE
  5
6A
  8
2
 10
278.26504352736379
 20
88.003700891510874
 30
0.0
 11
271.61804352736368
 21
88.003700891510846
 31
0.0
  0
LINE
  5
6B
  8
2
 10
270.94154352736382
 20
99.803700891510843
 30
0.0
 11
271.61804352736368
 21
100.975433262831
 31
0.0
  0
LINE
  5
6C
  8
2
 10
278.94154352736382
 20
99.803700891510843
 30
0.0
 11
278.2650435273639
 21
100.975433262831
 31
0.0
  0
LINE
  5
6D
  8
2
 10
271.61804352736368
 20
101.91737403656261
 30
0.0
 11
278.2650435273639
 21
101.91737403656261
 31
0.0
  0
LINE
  5
6E
  8
2
 10
270.94154352736382
 20
99.803700891510843
 30
0.0
 11
278.94154352736382
 21
99.803700891510843
 31
0.0
  0
LINE
  5
6F
  8
2
 10
271.61804352736362
 20
101.91737403656261
 30
0.0
 11
274.94154352736382
 21
103.9143343039008
 31
0.0
  0
LINE
  5
70
  8
2
 10
278.26504352736401
 20
101.91737403656261
 30
0.0
 11
274.94154352736382
 21
103.9143343039008
 31
0.0
  0
LINE
  5
71
  8
2
 10
278.94154352736382
 20
87.327200891510898
 30
0.0
 11
278.94154352736382
 21
99.803700891510843
 31
0.0
  0
LINE
  5
72
  8
2
 10
278.2650435273639
 20
88.003700891510846
 30
0.0
 11
278.2650435273639
 21
101.91737403656261
 31
0.0
  0
LINE
  5
73
  8
2
 10
271.61804352736368
 20
88.003700891510846
 30
0.0
 11
271.61804352736368
 21
101.91737403656261
 31
0.0
  0
LINE
  5
74
  8
2
 10
270.94154352736382
 20
87.327200891510898
 30
0.0
 11
270.94154352736382
 21
99.803700891510843
 31
0.0
  0
LINE
  5
75
  8
2
 10
269.94154352736382
 20
105.8037008915108
 30
0.0
 11
269.94154352736382
 21
86.803700891510843
 31
0.0
  0
LINE
  5
76
  8
2
 10
279.94154352736382
 20
105.8037008915108
 30
0.0
 11
269.94154352736382
 21
105.8037008915108
 31
0.0
  0
LINE
  5
77
  8
2
 10
279.94154352736382
 20
86.803700891510843
 30
0.0
 11
279.94154352736382
 21
105.8037008915108
 31
0.0
  0
LINE
  5
78
  8
2
 10
154.61804352736371
 20
88.003700891510888
 30
0.0
 11
153.41804352736369
 21
86.803700891510886
 31
0.0
  0
LINE
  5
79
  8
2
 10
161.26504352736379
 20
88.003700891510888
 30
0.0
 11
162.4650435273638
 21
86.803700891510886
 31
0.0
  0
LINE
  5
7A
  8
2
 10
161.26504352736379
 20
88.003700891510888
 30
0.0
 11
154.61804352736371
 21
88.003700891510846
 31
0.0
  0
LINE
  5
7B
  8
2
 10
153.94154352736379
 20
99.803700891510871
 30
0.0
 11
154.61804352736371
 21
100.975433262831
 31
0.0
  0
LINE
  5
7C
  8
2
 10
161.94154352736371
 20
99.803700891510871
 30
0.0
 11
161.26504352736379
 21
100.975433262831
 31
0.0
  0
LINE
  5
7D
  8
2
 10
154.61804352736371
 20
101.91737403656261
 30
0.0
 11
161.2650435273639
 21
101.91737403656261
 31
0.0
  0
LINE
  5
7E
  8
2
 10
153.94154352736371
 20
99.803700891510871
 30
0.0
 11
161.94154352736371
 21
99.803700891510871
 31
0.0
  0
LINE
  5
7F
  8
2
 10
154.6180435273636
 20
101.91737403656261
 30
0.0
 11
157.94154352736379
 21
103.9143343039008
 31
0.0
  0
LINE
  5
80
  8
2
 10
161.2650435273639
 20
101.91737403656261
 30
0.0
 11
157.94154352736379
 21
103.9143343039008
 31
0.0
  0
LINE
  5
81
  8
2
 10
161.94154352736379
 20
87.327200891510927
 30
0.0
 11
161.94154352736371
 21
99.803700891510871
 31
0.0
  0
LINE
  5
82
  8
2
 10
161.2650435273639
 20
88.003700891510846
 30
0.0
 11
161.2650435273639
 21
101.91737403656261
 31
0.0
  0
LINE
  5
83
  8
2
 10
154.61804352736371
 20
88.003700891510846
 30
0.0
 11
154.61804352736371
 21
101.91737403656261
 31
0.0
  0
LINE
  5
84
  8
2
 10
153.94154352736379
 20
87.327200891510927
 30
0.0
 11
153.94154352736371
 21
99.803700891510871
 31
0.0
  0
LINE
  5
85
  8
2
 10
152.94154352736379
 20
105.8037008915108
 30
0.0
 11
152.94154352736379
 21
86.803700891510857
 31
0.0
  0
LINE
  5
86
  8
2
 10
162.94154352736379
 20
105.8037008915108
 30
0.0
 11
152.94154352736379
 21
105.8037008915108
 31
0.0
  0
LINE
  5
87
  8
2
 10
162.94154352736379
 20
86.803700891510857
 30
0.0
 11
162.94154352736379
 21
105.8037008915108
 31
0.0
  0
ARC
  5
93
  8
0
 10
105.44154352736381
 20
87.803700891510871
 30
0.0
 40
1.0
 50
270.0
 51
0.0
  0
ARC
  5
94
  8
0
 10
77.44154352736382
 20
87.803700891510857
 30
0.0
 40
1.0
 50
180.0
 51
270.0
  0
LINE
  5
95
  8
2
 10
88.118043527363795
 20
88.003700891510888
 30
0.0
 11
86.918043527363807
 21
86.803700891510886
 31
0.0
  0
LINE
  5
96
  8
2
 10
94.765043527363844
 20
88.003700891510888
 30
0.0
 11
95.965043527363832
 21
86.803700891510886
 31
0.0
  0
LINE
  5
97
  8
2
 10
94.765043527363844
 20
88.003700891510888
 30
0.0
 11
88.118043527363724
 21
88.003700891510846
 31
0.0
  0
LINE
  5
98
  8
2
 10
87.44154352736382
 20
99.803700891510871
 30
0.0
 11
88.118043527363724
 21
100.975433262831
 31
0.0
  0
LINE
  5
99
  8
2
 10
95.441543527363834
 20
99.803700891510871
 30
0.0
 11
94.765043527363886
 21
100.975433262831
 31
0.0
  0
LINE
  5
9A
  8
2
 10
88.118043527363724
 20
101.91737403656261
 30
0.0
 11
94.765043527363886
 21
101.91737403656261
 31
0.0
  0
LINE
  5
9B
  8
2
 10
87.44154352736382
 20
99.803700891510871
 30
0.0
 11
95.441543527363834
 21
99.803700891510871
 31
0.0
  0
LINE
  5
9C
  8
2
 10
88.118043527363625
 20
101.91737403656261
 30
0.0
 11
91.44154352736382
 21
103.9143343039008
 31
0.0
  0
LINE
  5
9D
  8
2
 10
94.765043527364014
 20
101.91737403656261
 30
0.0
 11
91.44154352736382
 21
103.9143343039008
 31
0.0
  0
LINE
  5
9E
  8
2
 10
95.441543527363834
 20
87.327200891510927
 30
0.0
 11
95.441543527363834
 21
99.803700891510871
 31
0.0
  0
LINE
  5
9F
  8
2
 10
94.765043527363886
 20
88.003700891510846
 30
0.0
 11
94.765043527363886
 21
101.91737403656261
 31
0.0
  0
LINE
  5
A0
  8
2
 10
88.118043527363724
 20
88.003700891510846
 30
0.0
 11
88.118043527363724
 21
101.91737403656261
 31
0.0
  0
LINE
  5
A1
  8
2
 10
87.44154352736382
 20
87.327200891510927
 30
0.0
 11
87.44154352736382
 21
99.803700891510871
 31
0.0
  0
LINE
  5
A2
  8
2
 10
86.44154352736382
 20
105.8037008915108
 30
0.0
 11
86.44154352736382
 21
86.803700891510857
 31
0.0
  0
LINE
  5
A3
  8
2
 10
96.44154352736382
 20
105.8037008915108
 30
0.0
 11
86.44154352736382
 21
105.8037008915108
 31
0.0
  0
LINE
  5
A4
  8
2
 10
96.44154352736382
 20
86.803700891510857
 30
0.0
 11
96.44154352736382
 21
105.8037008915108
 31
0.0
  0
LINE
  5
A9
  8
1
 10
91.44154352736382
 20
145.80370089151069
 30
0.0
 11
91.44154352736382
 21
81.803700891510886
 31
0.0
  0
LINE
  5
AA
  8
0
 10
76.44154352736382
 20
129.3037008915108
 30
0.0
 11
76.44154352736382
 21
87.803700891510857
 31
0.0
  0
LINE
  5
AB
  8
0
 10
106.44154352736381
 20
87.803700891510871
 30
0.0
 11
106.44154352736381
 21
129.3037008915108
 31
0.0
  0
LINE
  5
AC
  8
0
 10
77.44154352736382
 20
86.803700891510857
 30
0.0
 11
105.44154352736381
 21
86.803700891510886
 31
0.0
  0
LINE
  5
AF
  8
1
 10
216.44154352736371
 20
216.8037008915108
 30
0.0
 11
216.44154352736371
 21
176.8037008915108
 31
0.0
  0
LINE
  5
B0
  8
1
 10
142.44154352736379
 20
196.8037008915108
 30
0.0
 11
290.44154352736382
 21
196.8037008915108
 31
0.0
  0
LINE
  5
BD
  8
1
 10
274.94154352736382
 20
186.80370089151049
 30
0.0
 11
274.94154352736382
 21
206.8037008915108
 31
0.0
  0
LINE
  5
BE
  8
1
 10
157.94154352736379
 20
186.80370089151049
 30
0.0
 11
157.94154352736379
 21
206.8037008915108
 31
0.0
  0
INSERT
  5
142
  8
0
  2
BATU
 10
0.0
 20
0.0
 30
0.0
 41
0.001
 42
0.001
 43
0.001
  0
POLYLINE
  5
146
  8
0
 10
106.44154352736382
 20
129.3037008915108
 30
0.0
 66
     1
 70
     8
  0
VERTEX
  8
0
  5
1DC
 10
106.442
 20
129.304
 30
0.000000
  70
    32
  0
VERTEX
  8
0
  5
1DD
 10
106.437
 20
129.561
 30
0.000000
  70
    32
  0
VERTEX
  8
0
  5
1DE
 10
106.423
 20
129.819
 30
0.000000
  70
    32
  0
VERTEX
  8
0
  5
1DF
 10
106.401
 20
130.076
 30
0.000000
  70
    32
  0
VERTEX
  8
0
  5
1E0
 10
106.369
 20
130.333
 30
0.000000
  70
    32
  0
VERTEX
  8
0
  5
1E1
 10
106.329
 20
130.589
 30
0.000000
  70
    32
  0
VERTEX
  8
0
  5
1E2
 10
106.279
 20
130.844
 30
0.000000
  70
    32
  0
VERTEX
  8
0
  5
1E3
 10
106.221
 20
131.099
 30
0.000000
  70
    32
  0
VERTEX
  8
0
  5
1E4
 10
106.153
 20
131.352
 30
0.000000
  70
    32
  0
VERTEX
  8
0
  5
1E5
 10
106.077
 20
131.604
 30
0.000000
  70
    32
  0
VERTEX
  8
0
  5
1E6
 10
105.992
 20
131.855
 30
0.000000
  70
    32
  0
VERTEX
  8
0
  5
1E7
 10
105.898
 20
132.104
 30
0.000000
  70
    32
  0
VERTEX
  8
0
  5
1E8
 10
105.796
 20
132.352
 30
0.000000
  70
    32
  0
VERTEX
  8
0
  5
1E9
 10
105.684
 20
132.597
 30
0.000000
  70
    32
  0
VERTEX
  8
0
  5
1EA
 10
105.565
 20
132.841
 30
0.000000
  70
    32
  0
VERTEX
  8
0
  5
1EB
 10
105.436
 20
133.083
 30
0.000000
  70
    32
  0
VERTEX
  8
0
  5
1EC
 10
105.300
 20
133.322
 30
0.000000
  70
    32
  0
VERTEX
  8
0
  5
1ED
 10
105.155
 20
133.559
 30
0.000000
  70
    32
  0
VERTEX
  8
0
  5
1EE
 10
105.001
 20
133.793
 30
0.000000
  70
    32
  0
VERTEX
  8
0
  5
1EF
 10
104.840
 20
134.025
 30
0.000000
  70
    32
  0
VERTEX
  8
0
  5
1F0
 10
104.670
 20
134.253
 30
0.000000
  70
    32
  0
VERTEX
  8
0
  5
1F1
 10
104.493
 20
134.479
 30
0.000000
  70
    32
  0
VERTEX
  8
0
  5
1F2
 10
104.307
 20
134.702
 30
0.000000
  70
    32
  0
VERTEX
  8
0
  5
1F3
 10
104.114
 20
134.921
 30
0.000000
  70
    32
  0
VERTEX
  8
0
  5
1F4
 10
103.914
 20
135.137
 30
0.000000
  70
    32
  0
VERTEX
  8
0
  5
1F5
 10
103.705
 20
135.350
 30
0.000000
  70
    32
  0
VERTEX
  8
0
  5
1F6
 10
103.490
 20
135.559
 30
0.000000
  70
    32
  0
VERTEX
  8
0
  5
1F7
 10
103.267
 20
135.764
 30
0.000000
  70
    32
  0
VERTEX
  8
0
  5
1F8
 10
103.037
 20
135.965
 30
0.000000
  70
    32
  0
VERTEX
  8
0
  5
1F9
 10
102.800
 20
136.162
 30
0.000000
  70
    32
  0
VERTEX
  8
0
  5
1FA
 10
102.556
 20
136.355
 30
0.000000
  70
    32
  0
VERTEX
  8
0
  5
1FB
 10
102.305
 20
136.544
 30
0.000000
  70
    32
  0
VERTEX
  8
0
  5
1FC
 10
102.048
 20
136.728
 30
0.000000
  70
    32
  0
VERTEX
  8
0
  5
1FD
 10
101.785
 20
136.908
 30
0.000000
  70
    32
  0
VERTEX
  8
0
  5
1FE
 10
101.515
 20
137.084
 30
0.000000
  70
    32
  0
VERTEX
  8
0
  5
1FF
 10
101.239
 20
137.254
 30
0.000000
  70
    32
  0
VERTEX
  8
0
  5
200
 10
100.957
 20
137.420
 30
0.000000
  70
    32
  0
VERTEX
  8
0
  5
201
 10
100.670
 20
137.581
 30
0.000000
  70
    32
  0
VERTEX
  8
0
  5
202
 10
100.377
 20
137.737
 30
0.000000
  70
    32
  0
VERTEX
  8
0
  5
203
 10
100.079
 20
137.888
 30
0.000000
  70
    32
  0
VERTEX
  8
0
  5
204
 10
99.7751
 20
138.034
 30
0.000000
  70
    32
  0
VERTEX
  8
0
  5
205
 10
99.4665
 20
138.175
 30
0.000000
  70
    32
  0
VERTEX
  8
0
  5
206
 10
99.1531
 20
138.310
 30
0.000000
  70
    32
  0
VERTEX
  8
0
  5
207
 10
98.8350
 20
138.440
 30
0.000000
  70
    32
  0
VERTEX
  8
0
  5
208
 10
98.5125
 20
138.564
 30
0.000000
  70
    32
  0
VERTEX
  8
0
  5
209
 10
98.1857
 20
138.683
 30
0.000000
  70
    32
  0
VERTEX
  8
0
  5
20A
 10
97.8549
 20
138.796
 30
0.000000
  70
    32
  0
VERTEX
  8
0
  5
20B
 10
97.5202
 20
138.903
 30
0.000000
  70
    32
  0
VERTEX
  8
0
  5
20C
 10
97.1818
 20
139.004
 30
0.000000
  70
    32
  0
VERTEX
  8
0
  5
20D
 10
96.8400
 20
139.100
 30
0.000000
  70
    32
  0
VERTEX
  8
0
  5
20E
 10
96.4949
 20
139.190
 30
0.000000
  70
    32
  0
VERTEX
  8
0
  5
20F
 10
96.1468
 20
139.274
 30
0.000000
  70
    32
  0
VERTEX
  8
0
  5
210
 10
95.7958
 20
139.352
 30
0.000000
  70
    32
  0
VERTEX
  8
0
  5
211
 10
95.4422
 20
139.423
 30
0.000000
  70
    32
  0
VERTEX
  8
0
  5
212
 10
95.0862
 20
139.489
 30
0.000000
  70
    32
  0
VERTEX
  8
0
  5
213
 10
94.7281
 20
139.549
 30
0.000000
  70
    32
  0
VERTEX
  8
0
  5
214
 10
94.3679
 20
139.602
 30
0.000000
  70
    32
  0
VERTEX
  8
0
  5
215
 10
94.0060
 20
139.649
 30
0.000000
  70
    32
  0
VERTEX
  8
0
  5
216
 10
93.6425
 20
139.690
 30
0.000000
  70
    32
  0
VERTEX
  8
0
  5
217
 10
93.2777
 20
139.725
 30
0.000000
  70
    32
  0
VERTEX
  8
0
  5
218
 10
92.9118
 20
139.753
 30
0.000000
  70
    32
  0
VERTEX
  8
0
  5
219
 10
92.5450
 20
139.775
 30
0.000000
  70
    32
  0
VERTEX
  8
0
  5
21A
 10
92.1776
 20
139.791
 30
0.000000
  70
    32
  0
VERTEX
  8
0
  5
21B
 10
91.8097
 20
139.801
 30
0.000000
  70
    32
  0
VERTEX
  8
0
  5
21C
 10
91.4415
 20
139.804
 30
0.000000
  70
    32
  0
VERTEX
  8
0
  5
21D
 10
91.0734
 20
139.801
 30
0.000000
  70
    32
  0
VERTEX
  8
0
  5
21E
 10
90.7055
 20
139.791
 30
0.000000
  70
    32
  0
VERTEX
  8
0
  5
21F
 10
90.3381
 20
139.775
 30
0.000000
  70
    32
  0
VERTEX
  8
0
  5
220
 10
89.9713
 20
139.753
 30
0.000000
  70
    32
  0
VERTEX
  8
0
  5
221
 10
89.6054
 20
139.725
 30
0.000000
  70
    32
  0
VERTEX
  8
0
  5
222
 10
89.2406
 20
139.690
 30
0.000000
  70
    32
  0
VERTEX
  8
0
  5
223
 10
88.8771
 20
139.649
 30
0.000000
  70
    32
  0
VERTEX
  8
0
  5
224
 10
88.5152
 20
139.602
 30
0.000000
  70
    32
  0
VERTEX
  8
0
  5
225
 10
88.1550
 20
139.549
 30
0.000000
  70
    32
  0
VERTEX
  8
0
  5
226
 10
87.7968
 20
139.489
 30
0.000000
  70
    32
  0
VERTEX
  8
0
  5
227
 10
87.4409
 20
139.423
 30
0.000000
  70
    32
  0
VERTEX
  8
0
  5
228
 10
87.0873
 20
139.352
 30
0.000000
  70
    32
  0
VERTEX
  8
0
  5
229
 10
86.7363
 20
139.274
 30
0.000000
  70
    32
  0
VERTEX
  8
0
  5
22A
 10
86.3882
 20
139.190
 30
0.000000
  70
    32
  0
VERTEX
  8
0
  5
22B
 10
86.0431
 20
139.100
 30
0.000000
  70
    32
  0
VERTEX
  8
0
  5
22C
 10
85.7013
 20
139.004
 30
0.000000
  70
    32
  0
VERTEX
  8
0
  5
22D
 10
85.3629
 20
138.903
 30
0.000000
  70
    32
  0
VERTEX
  8
0
  5
22E
 10
85.0282
 20
138.796
 30
0.000000
  70
    32
  0
VERTEX
  8
0
  5
22F
 10
84.6974
 20
138.683
 30
0.000000
  70
    32
  0
VERTEX
  8
0
  5
230
 10
84.3706
 20
138.564
 30
0.000000
  70
    32
  0
VERTEX
  8
0
  5
231
 10
84.0481
 20
138.440
 30
0.000000
  70
    32
  0
VERTEX
  8
0
  5
232
 10
83.7300
 20
138.310
 30
0.000000
  70
    32
  0
VERTEX
  8
0
  5
233
 10
83.4166
 20
138.175
 30
0.000000
  70
    32
  0
VERTEX
  8
0
  5
234
 10
83.1080
 20
138.034
 30
0.000000
  70
    32
  0
VERTEX
  8
0
  5
235
 10
82.8044
 20
137.888
 30
0.000000
  70
    32
  0
VERTEX
  8
0
  5
236
 10
82.5061
 20
137.737
 30
0.000000
  70
    32
  0
VERTEX
  8
0
  5
237
 10
82.2131
 20
137.581
 30
0.000000
  70
    32
  0
VERTEX
  8
0
  5
238
 10
81.9256
 20
137.420
 30
0.000000
  70
    32
  0
VERTEX
  8
0
  5
239
 10
81.6440
 20
137.254
 30
0.000000
  70
    32
  0
VERTEX
  8
0
  5
23A
 10
81.3682
 20
137.084
 30
0.000000
  70
    32
  0
VERTEX
  8
0
  5
23B
 10
81.0984
 20
136.908
 30
0.000000
  70
    32
  0
VERTEX
  8
0
  5
23C
 10
80.8349
 20
136.728
 30
0.000000
  70
    32
  0
VERTEX
  8
0
  5
23D
 10
80.5778
 20
136.544
 30
0.000000
  70
    32
  0
VERTEX
  8
0
  5
23E
 10
80.3273
 20
136.355
 30
0.000000
  70
    32
  0
VERTEX
  8
0
  5
23F
 10
80.0834
 20
136.162
 30
0.000000
  70
    32
  0
VERTEX
  8
0
  5
240
 10
79.8464
 20
135.965
 30
0.000000
  70
    32
  0
VERTEX
  8
0
  5
241
 10
79.6163
 20
135.764
 30
0.000000
  70
    32
  0
VERTEX
  8
0
  5
242
 10
79.3934
 20
135.559
 30
0.000000
  70
    32
  0
VERTEX
  8
0
  5
243
 10
79.1778
 20
135.350
 30
0.000000
  70
    32
  0
VERTEX
  8
0
  5
244
 10
78.9695
 20
135.137
 30
0.000000
  70
    32
  0
VERTEX
  8
0
  5
245
 10
78.7687
 20
134.921
 30
0.000000
  70
    32
  0
VERTEX
  8
0
  5
246
 10
78.5756
 20
134.702
 30
0.000000
  70
    32
  0
VERTEX
  8
0
  5
247
 10
78.3902
 20
134.479
 30
0.000000
  70
    32
  0
VERTEX
  8
0
  5
248
 10
78.2127
 20
134.253
 30
0.000000
  70
    32
  0
VERTEX
  8
0
  5
249
 10
78.0432
 20
134.025
 30
0.000000
  70
    32
  0
VERTEX
  8
0
  5
24A
 10
77.8817
 20
133.793
 30
0.000000
  70
    32
  0
VERTEX
  8
0
  5
24B
 10
77.7284
 20
133.559
 30
0.000000
  70
    32
  0
VERTEX
  8
0
  5
24C
 10
77.5834
 20
133.322
 30
0.000000
  70
    32
  0
VERTEX
  8
0
  5
24D
 10
77.4467
 20
133.083
 30
0.000000
  70
    32
  0
VERTEX
  8
0
  5
24E
 10
77.3184
 20
132.841
 30
0.000000
  70
    32
  0
VERTEX
  8
0
  5
24F
 10
77.1986
 20
132.597
 30
0.000000
  70
    32
  0
VERTEX
  8
0
  5
250
 10
77.0874
 20
132.352
 30
0.000000
  70
    32
  0
VERTEX
  8
0
  5
251
 10
76.9849
 20
132.104
 30
0.000000
  70
    32
  0
VERTEX
  8
0
  5
252
 10
76.8911
 20
131.855
 30
0.000000
  70
    32
  0
VERTEX
  8
0
  5
253
 10
76.8060
 20
131.604
 30
0.000000
  70
    32
  0
VERTEX
  8
0
  5
254
 10
76.7298
 20
131.352
 30
0.000000
  70
    32
  0
VERTEX
  8
0
  5
255
 10
76.6624
 20
131.099
 30
0.000000
  70
    32
  0
VERTEX
  8
0
  5
256
 10
76.6039
 20
130.844
 30
0.000000
  70
    32
  0
VERTEX
  8
0
  5
257
 10
76.5544
 20
130.589
 30
0.000000
  70
    32
  0
VERTEX
  8
0
  5
258
 10
76.5138
 20
130.333
 30
0.000000
  70
    32
  0
VERTEX
  8
0
  5
259
 10
76.4822
 20
130.076
 30
0.000000
  70
    32
  0
VERTEX
  8
0
  5
25A
 10
76.4596
 20
129.819
 30
0.000000
  70
    32
  0
VERTEX
  8
0
  5
25B
 10
76.4461
 20
129.561
 30
0.000000
  70
    32
  0
VERTEX
  8
0
  5
25C
 10
76.4415
 20
129.304
 30
0.000000
  70
    32
  0
SEQEND
  8
0
  5
25D
  0
POLYLINE
  5
147
  8
2
 10
76.44154352736382
 20
129.3037008915108
 30
0.0
 66
     1
 70
     8
  0
VERTEX
  8
2
  5
25E
 10
76.4415
 20
129.304
 30
0.000000
  70
    32
  0
VERTEX
  8
2
  5
25F
 10
76.4461
 20
129.046
 30
0.000000
  70
    32
  0
VERTEX
  8
2
  5
260
 10
76.4596
 20
128.788
 30
0.000000
  70
    32
  0
VERTEX
  8
2
  5
261
 10
76.4822
 20
128.531
 30
0.000000
  70
    32
  0
VERTEX
  8
2
  5
262
 10
76.5138
 20
128.275
 30
0.000000
  70
    32
  0
VERTEX
  8
2
  5
263
 10
76.5544
 20
128.018
 30
0.000000
  70
    32
  0
VERTEX
  8
2
  5
264
 10
76.6039
 20
127.763
 30
0.000000
  70
    32
  0
VERTEX
  8
2
  5
265
 10
76.6624
 20
127.509
 30
0.000000
  70
    32
  0
VERTEX
  8
2
  5
266
 10
76.7298
 20
127.255
 30
0.000000
  70
    32
  0
VERTEX
  8
2
  5
267
 10
76.8060
 20
127.003
 30
0.000000
  70
    32
  0
VERTEX
  8
2
  5
268
 10
76.8911
 20
126.752
 30
0.000000
  70
    32
  0
VERTEX
  8
2
  5
269
 10
76.9849
 20
126.503
 30
0.000000
  70
    32
  0
VERTEX
  8
2
  5
26A
 10
77.0874
 20
126.256
 30
0.000000
  70
    32
  0
VERTEX
  8
2
  5
26B
 10
77.1986
 20
126.010
 30
0.000000
  70
    32
  0
VERTEX
  8
2
  5
26C
 10
77.3184
 20
125.766
 30
0.000000
  70
    32
  0
VERTEX
  8
2
  5
26D
 10
77.4467
 20
125.525
 30
0.000000
  70
    32
  0
VERTEX
  8
2
  5
26E
 10
77.5834
 20
125.286
 30
0.000000
  70
    32
  0
VERTEX
  8
2
  5
26F
 10
77.7284
 20
125.049
 30
0.000000
  70
    32
  0
VERTEX
  8
2
  5
270
 10
77.8817
 20
124.814
 30
0.000000
  70
    32
  0
VERTEX
  8
2
  5
271
 10
78.0432
 20
124.583
 30
0.000000
  70
    32
  0
VERTEX
  8
2
  5
272
 10
78.2127
 20
124.354
 30
0.000000
  70
    32
  0
VERTEX
  8
2
  5
273
 10
78.3902
 20
124.128
 30
0.000000
  70
    32
  0
VERTEX
  8
2
  5
274
 10
78.5756
 20
123.906
 30
0.000000
  70
    32
  0
VERTEX
  8
2
  5
275
 10
78.7687
 20
123.686
 30
0.000000
  70
    32
  0
VERTEX
  8
2
  5
276
 10
78.9695
 20
123.470
 30
0.000000
  70
    32
  0
VERTEX
  8
2
  5
277
 10
79.1778
 20
123.258
 30
0.000000
  70
    32
  0
VERTEX
  8
2
  5
278
 10
79.3934
 20
123.049
 30
0.000000
  70
    32
  0
VERTEX
  8
2
  5
279
 10
79.6163
 20
122.844
 30
0.000000
  70
    32
  0
VERTEX
  8
2
  5
27A
 10
79.8464
 20
122.643
 30
0.000000
  70
    32
  0
VERTEX
  8
2
  5
27B
 10
80.0834
 20
122.445
 30
0.000000
  70
    32
  0
VERTEX
  8
2
  5
27C
 10
80.3273
 20
122.252
 30
0.000000
  70
    32
  0
VERTEX
  8
2
  5
27D
 10
80.5778
 20
122.064
 30
0.000000
  70
    32
  0
VERTEX
  8
2
  5
27E
 10
80.8349
 20
121.879
 30
0.000000
  70
    32
  0
VERTEX
  8
2
  5
27F
 10
81.0984
 20
121.699
 30
0.000000
  70
    32
  0
VERTEX
  8
2
  5
280
 10
81.3682
 20
121.524
 30
0.000000
  70
    32
  0
VERTEX
  8
2
  5
281
 10
81.6440
 20
121.353
 30
0.000000
  70
    32
  0
VERTEX
  8
2
  5
282
 10
81.9256
 20
121.187
 30
0.000000
  70
    32
  0
VERTEX
  8
2
  5
283
 10
82.2131
 20
121.026
 30
0.000000
  70
    32
  0
VERTEX
  8
2
  5
284
 10
82.5061
 20
120.870
 30
0.000000
  70
    32
  0
VERTEX
  8
2
  5
285
 10
82.8044
 20
120.719
 30
0.000000
  70
    32
  0
VERTEX
  8
2
  5
286
 10
83.1080
 20
120.573
 30
0.000000
  70
    32
  0
VERTEX
  8
2
  5
287
 10
83.4166
 20
120.433
 30
0.000000
  70
    32
  0
VERTEX
  8
2
  5
288
 10
83.7300
 20
120.298
 30
0.000000
  70
    32
  0
VERTEX
  8
2
  5
289
 10
84.0481
 20
120.168
 30
0.000000
  70
    32
  0
VERTEX
  8
2
  5
28A
 10
84.3706
 20
120.044
 30
0.000000
  70
    32
  0
VERTEX
  8
2
  5
28B
 10
84.6974
 20
119.925
 30
0.000000
  70
    32
  0
VERTEX
  8
2
  5
28C
 10
85.0282
 20
119.812
 30
0.000000
  70
    32
  0
VERTEX
  8
2
  5
28D
 10
85.3629
 20
119.704
 30
0.000000
  70
    32
  0
VERTEX
  8
2
  5
28E
 10
85.7013
 20
119.603
 30
0.000000
  70
    32
  0
VERTEX
  8
2
  5
28F
 10
86.0431
 20
119.507
 30
0.000000
  70
    32
  0
VERTEX
  8
2
  5
290
 10
86.3882
 20
119.417
 30
0.000000
  70
    32
  0
VERTEX
  8
2
  5
291
 10
86.7363
 20
119.334
 30
0.000000
  70
    32
  0
VERTEX
  8
2
  5
292
 10
87.0873
 20
119.256
 30
0.000000
  70
    32
  0
VERTEX
  8
2
  5
293
 10
87.4409
 20
119.184
 30
0.000000
  70
    32
  0
VERTEX
  8
2
  5
294
 10
87.7968
 20
119.118
 30
0.000000
  70
    32
  0
VERTEX
  8
2
  5
295
 10
88.1550
 20
119.059
 30
0.000000
  70
    32
  0
VERTEX
  8
2
  5
296
 10
88.5152
 20
119.005
 30
0.000000
  70
    32
  0
VERTEX
  8
2
  5
297
 10
88.8771
 20
118.958
 30
0.000000
  70
    32
  0
VERTEX
  8
2
  5
298
 10
89.2406
 20
118.917
 30
0.000000
  70
    32
  0
VERTEX
  8
2
  5
299
 10
89.6054
 20
118.883
 30
0.000000
  70
    32
  0
VERTEX
  8
2
  5
29A
 10
89.9713
 20
118.854
 30
0.000000
  70
    32
  0
VERTEX
  8
2
  5
29B
 10
90.3381
 20
118.832
 30
0.000000
  70
    32
  0
VERTEX
  8
2
  5
29C
 10
90.7055
 20
118.816
 30
0.000000
  70
    32
  0
VERTEX
  8
2
  5
29D
 10
91.0734
 20
118.807
 30
0.000000
  70
    32
  0
VERTEX
  8
2
  5
29E
 10
91.4415
 20
118.804
 30
0.000000
  70
    32
  0
VERTEX
  8
2
  5
29F
 10
91.8097
 20
118.807
 30
0.000000
  70
    32
  0
VERTEX
  8
2
  5
2A0
 10
92.1776
 20
118.816
 30
0.000000
  70
    32
  0
VERTEX
  8
2
  5
2A1
 10
92.5450
 20
118.832
 30
0.000000
  70
    32
  0
VERTEX
  8
2
  5
2A2
 10
92.9118
 20
118.854
 30
0.000000
  70
    32
  0
VERTEX
  8
2
  5
2A3
 10
93.2777
 20
118.883
 30
0.000000
  70
    32
  0
VERTEX
  8
2
  5
2A4
 10
93.6425
 20
118.917
 30
0.000000
  70
    32
  0
VERTEX
  8
2
  5
2A5
 10
94.0060
 20
118.958
 30
0.000000
  70
    32
  0
VERTEX
  8
2
  5
2A6
 10
94.3679
 20
119.005
 30
0.000000
  70
    32
  0
VERTEX
  8
2
  5
2A7
 10
94.7281
 20
119.059
 30
0.000000
  70
    32
  0
VERTEX
  8
2
  5
2A8
 10
95.0862
 20
119.118
 30
0.000000
  70
    32
  0
VERTEX
  8
2
  5
2A9
 10
95.4422
 20
119.184
 30
0.000000
  70
    32
  0
VERTEX
  8
2
  5
2AA
 10
95.7958
 20
119.256
 30
0.000000
  70
    32
  0
VERTEX
  8
2
  5
2AB
 10
96.1468
 20
119.334
 30
0.000000
  70
    32
  0
VERTEX
  8
2
  5
2AC
 10
96.4949
 20
119.417
 30
0.000000
  70
    32
  0
VERTEX
  8
2
  5
2AD
 10
96.8400
 20
119.507
 30
0.000000
  70
    32
  0
VERTEX
  8
2
  5
2AE
 10
97.1818
 20
119.603
 30
0.000000
  70
    32
  0
VERTEX
  8
2
  5
2AF
 10
97.5202
 20
119.704
 30
0.000000
  70
    32
  0
VERTEX
  8
2
  5
2B0
 10
97.8549
 20
119.812
 30
0.000000
  70
    32
  0
VERTEX
  8
2
  5
2B1
 10
98.1857
 20
119.925
 30
0.000000
  70
    32
  0
VERTEX
  8
2
  5
2B2
 10
98.5125
 20
120.044
 30
0.000000
  70
    32
  0
VERTEX
  8
2
  5
2B3
 10
98.8350
 20
120.168
 30
0.000000
  70
    32
  0
VERTEX
  8
2
  5
2B4
 10
99.1531
 20
120.298
 30
0.000000
  70
    32
  0
VERTEX
  8
2
  5
2B5
 10
99.4665
 20
120.433
 30
0.000000
  70
    32
  0
VERTEX
  8
2
  5
2B6
 10
99.7751
 20
120.573
 30
0.000000
  70
    32
  0
VERTEX
  8
2
  5
2B7
 10
100.079
 20
120.719
 30
0.000000
  70
    32
  0
VERTEX
  8
2
  5
2B8
 10
100.377
 20
120.870
 30
0.000000
  70
    32
  0
VERTEX
  8
2
  5
2B9
 10
100.670
 20
121.026
 30
0.000000
  70
    32
  0
VERTEX
  8
2
  5
2BA
 10
100.957
 20
121.187
 30
0.000000
  70
    32
  0
VERTEX
  8
2
  5
2BB
 10
101.239
 20
121.353
 30
0.000000
  70
    32
  0
VERTEX
  8
2
  5
2BC
 10
101.515
 20
121.524
 30
0.000000
  70
    32
  0
VERTEX
  8
2
  5
2BD
 10
101.785
 20
121.699
 30
0.000000
  70
    32
  0
VERTEX
  8
2
  5
2BE
 10
102.048
 20
121.879
 30
0.000000
  70
    32
  0
VERTEX
  8
2
  5
2BF
 10
102.305
 20
122.064
 30
0.000000
  70
    32
  0
VERTEX
  8
2
  5
2C0
 10
102.556
 20
122.252
 30
0.000000
  70
    32
  0
VERTEX
  8
2
  5
2C1
 10
102.800
 20
122.445
 30
0.000000
  70
    32
  0
VERTEX
  8
2
  5
2C2
 10
103.037
 20
122.643
 30
0.000000
  70
    32
  0
VERTEX
  8
2
  5
2C3
 10
103.267
 20
122.844
 30
0.000000
  70
    32
  0
VERTEX
  8
2
  5
2C4
 10
103.490
 20
123.049
 30
0.000000
  70
    32
  0
VERTEX
  8
2
  5
2C5
 10
103.705
 20
123.258
 30
0.000000
  70
    32
  0
VERTEX
  8
2
  5
2C6
 10
103.914
 20
123.470
 30
0.000000
  70
    32
  0
VERTEX
  8
2
  5
2C7
 10
104.114
 20
123.686
 30
0.000000
  70
    32
  0
VERTEX
  8
2
  5
2C8
 10
104.307
 20
123.906
 30
0.000000
  70
    32
  0
VERTEX
  8
2
  5
2C9
 10
104.493
 20
124.128
 30
0.000000
  70
    32
  0
VERTEX
  8
2
  5
2CA
 10
104.670
 20
124.354
 30
0.000000
  70
    32
  0
VERTEX
  8
2
  5
2CB
 10
104.840
 20
124.583
 30
0.000000
  70
    32
  0
VERTEX
  8
2
  5
2CC
 10
105.001
 20
124.814
 30
0.000000
  70
    32
  0
VERTEX
  8
2
  5
2CD
 10
105.155
 20
125.049
 30
0.000000
  70
    32
  0
VERTEX
  8
2
  5
2CE
 10
105.300
 20
125.286
 30
0.000000
  70
    32
  0
VERTEX
  8
2
  5
2CF
 10
105.436
 20
125.525
 30
0.000000
  70
    32
  0
VERTEX
  8
2
  5
2D0
 10
105.565
 20
125.766
 30
0.000000
  70
    32
  0
VERTEX
  8
2
  5
2D1
 10
105.684
 20
126.010
 30
0.000000
  70
    32
  0
VERTEX
  8
2
  5
2D2
 10
105.796
 20
126.256
 30
0.000000
  70
    32
  0
VERTEX
  8
2
  5
2D3
 10
105.898
 20
126.503
 30
0.000000
  70
    32
  0
VERTEX
  8
2
  5
2D4
 10
105.992
 20
126.752
 30
0.000000
  70
    32
  0
VERTEX
  8
2
  5
2D5
 10
106.077
 20
127.003
 30
0.000000
  70
    32
  0
VERTEX
  8
2
  5
2D6
 10
106.153
 20
127.255
 30
0.000000
  70
    32
  0
VERTEX
  8
2
  5
2D7
 10
106.221
 20
127.509
 30
0.000000
  70
    32
  0
VERTEX
  8
2
  5
2D8
 10
106.279
 20
127.763
 30
0.000000
  70
    32
  0
VERTEX
  8
2
  5
2D9
 10
106.329
 20
128.018
 30
0.000000
  70
    32
  0
VERTEX
  8
2
  5
2DA
 10
106.369
 20
128.275
 30
0.000000
  70
    32
  0
VERTEX
  8
2
  5
2DB
 10
106.401
 20
128.531
 30
0.000000
  70
    32
  0
VERTEX
  8
2
  5
2DC
 10
106.423
 20
128.788
 30
0.000000
  70
    32
  0
VERTEX
  8
2
  5
2DD
 10
106.437
 20
129.046
 30
0.000000
  70
    32
  0
VERTEX
  8
2
  5
2DE
 10
106.442
 20
129.304
 30
0.000000
  70
    32
  0
SEQEND
  8
2
  5
2DF
  0
LINE
  5
148
  8
0
 10
157.94154352736319
 20
181.8037008915108
 30
0.0
 11
274.94154352736427
 21
181.8037008915108
 31
0.0
  0
LINE
  5
149
  8
0
 10
274.94154352736427
 20
211.8037008915108
 30
0.0
 11
157.94154352736319
 21
211.8037008915108
 31
0.0
  0
POLYLINE
  5
15E
  8
2
 10
274.94154352736427
 20
211.8037008915108
 30
0.0
 66
     1
 70
     8
  0
VERTEX
  8
2
  5
2E0
 10
274.942
 20
211.804
 30
0.000000
  70
    32
  0
VERTEX
  8
2
  5
2E1
 10
274.684
 20
211.799
 30
0.000000
  70
    32
  0
VERTEX
  8
2
  5
2E2
 10
274.426
 20
211.786
 30
0.000000
  70
    32
  0
VERTEX
  8
2
  5
2E3
 10
274.169
 20
211.763
 30
0.000000
  70
    32
  0
VERTEX
  8
2
  5
2E4
 10
273.912
 20
211.731
 30
0.000000
  70
    32
  0
VERTEX
  8
2
  5
2E5
 10
273.656
 20
211.691
 30
0.000000
  70
    32
  0
VERTEX
  8
2
  5
2E6
 10
273.401
 20
211.641
 30
0.000000
  70
    32
  0
VERTEX
  8
2
  5
2E7
 10
273.146
 20
211.583
 30
0.000000
  70
    32
  0
VERTEX
  8
2
  5
2E8
 10
272.893
 20
211.515
 30
0.000000
  70
    32
  0
VERTEX
  8
2
  5
2E9
 10
272.641
 20
211.439
 30
0.000000
  70
    32
  0
VERTEX
  8
2
  5
2EA
 10
272.390
 20
211.354
 30
0.000000
  70
    32
  0
VERTEX
  8
2
  5
2EB
 10
272.141
 20
211.260
 30
0.000000
  70
    32
  0
VERTEX
  8
2
  5
2EC
 10
271.894
 20
211.158
 30
0.000000
  70
    32
  0
VERTEX
  8
2
  5
2ED
 10
271.648
 20
211.047
 30
0.000000
  70
    32
  0
VERTEX
  8
2
  5
2EE
 10
271.404
 20
210.927
 30
0.000000
  70
    32
  0
VERTEX
  8
2
  5
2EF
 10
271.163
 20
210.799
 30
0.000000
  70
    32
  0
VERTEX
  8
2
  5
2F0
 10
270.923
 20
210.662
 30
0.000000
  70
    32
  0
VERTEX
  8
2
  5
2F1
 10
270.687
 20
210.517
 30
0.000000
  70
    32
  0
VERTEX
  8
2
  5
2F2
 10
270.452
 20
210.364
 30
0.000000
  70
    32
  0
VERTEX
  8
2
  5
2F3
 10
270.221
 20
210.202
 30
0.000000
  70
    32
  0
VERTEX
  8
2
  5
2F4
 10
269.992
 20
210.033
 30
0.000000
  70
    32
  0
VERTEX
  8
2
  5
2F5
 10
269.766
 20
209.855
 30
0.000000
  70
    32
  0
VERTEX
  8
2
  5
2F6
 10
269.543
 20
209.670
 30
0.000000
  70
    32
  0
VERTEX
  8
2
  5
2F7
 10
269.324
 20
209.477
 30
0.000000
  70
    32
  0
VERTEX
  8
2
  5
2F8
 10
269.108
 20
209.276
 30
0.000000
  70
    32
  0
VERTEX
  8
2
  5
2F9
 10
268.896
 20
209.067
 30
0.000000
  70
    32
  0
VERTEX
  8
2
  5
2FA
 10
268.687
 20
208.852
 30
0.000000
  70
    32
  0
VERTEX
  8
2
  5
2FB
 10
268.482
 20
208.629
 30
0.000000
  70
    32
  0
VERTEX
  8
2
  5
2FC
 10
268.280
 20
208.399
 30
0.000000
  70
    32
  0
VERTEX
  8
2
  5
2FD
 10
268.083
 20
208.162
 30
0.000000
  70
    32
  0
VERTEX
  8
2
  5
2FE
 10
267.890
 20
207.918
 30
0.000000
  70
    32
  0
VERTEX
  8
2
  5
2FF
 10
267.701
 20
207.667
 30
0.000000
  70
    32
  0
VERTEX
  8
2
  5
300
 10
267.517
 20
207.410
 30
0.000000
  70
    32
  0
VERTEX
  8
2
  5
301
 10
267.337
 20
207.147
 30
0.000000
  70
    32
  0
VERTEX
  8
2
  5
302
 10
267.162
 20
206.877
 30
0.000000
  70
    32
  0
VERTEX
  8
2
  5
303
 10
266.991
 20
206.601
 30
0.000000
  70
    32
  0
VERTEX
  8
2
  5
304
 10
266.825
 20
206.320
 30
0.000000
  70
    32
  0
VERTEX
  8
2
  5
305
 10
266.664
 20
206.032
 30
0.000000
  70
    32
  0
VERTEX
  8
2
  5
306
 10
266.508
 20
205.739
 30
0.000000
  70
    32
  0
VERTEX
  8
2
  5
307
 10
266.357
 20
205.441
 30
0.000000
  70
    32
  0
VERTEX
  8
2
  5
308
 10
266.211
 20
205.137
 30
0.000000
  70
    32
  0
VERTEX
  8
2
  5
309
 10
266.071
 20
204.829
 30
0.000000
  70
    32
  0
VERTEX
  8
2
  5
30A
 10
265.935
 20
204.515
 30
0.000000
  70
    32
  0
VERTEX
  8
2
  5
30B
 10
265.806
 20
204.197
 30
0.000000
  70
    32
  0
VERTEX
  8
2
  5
30C
 10
265.681
 20
203.875
 30
0.000000
  70
    32
  0
VERTEX
  8
2
  5
30D
 10
265.563
 20
203.548
 30
0.000000
  70
    32
  0
VERTEX
  8
2
  5
30E
 10
265.450
 20
203.217
 30
0.000000
  70
    32
  0
VERTEX
  8
2
  5
30F
 10
265.342
 20
202.882
 30
0.000000
  70
    32
  0
VERTEX
  8
2
  5
310
 10
265.241
 20
202.544
 30
0.000000
  70
    32
  0
VERTEX
  8
2
  5
311
 10
265.145
 20
202.202
 30
0.000000
  70
    32
  0
VERTEX
  8
2
  5
312
 10
265.055
 20
201.857
 30
0.000000
  70
    32
  0
VERTEX
  8
2
  5
313
 10
264.971
 20
201.509
 30
0.000000
  70
    32
  0
VERTEX
  8
2
  5
314
 10
264.894
 20
201.158
 30
0.000000
  70
    32
  0
VERTEX
  8
2
  5
315
 10
264.822
 20
200.804
 30
0.000000
  70
    32
  0
VERTEX
  8
2
  5
316
 10
264.756
 20
200.448
 30
0.000000
  70
    32
  0
VERTEX
  8
2
  5
317
 10
264.697
 20
200.090
 30
0.000000
  70
    32
  0
VERTEX
  8
2
  5
318
 10
264.643
 20
199.730
 30
0.000000
  70
    32
  0
VERTEX
  8
2
  5
319
 10
264.596
 20
199.368
 30
0.000000
  70
    32
  0
VERTEX
  8
2
  5
31A
 10
264.555
 20
199.005
 30
0.000000
  70
    32
  0
VERTEX
  8
2
  5
31B
 10
264.521
 20
198.640
 30
0.000000
  70
    32
  0
VERTEX
  8
2
  5
31C
 10
264.492
 20
198.274
 30
0.000000
  70
    32
  0
VERTEX
  8
2
  5
31D
 10
264.470
 20
197.907
 30
0.000000
  70
    32
  0
VERTEX
  8
2
  5
31E
 10
264.454
 20
197.540
 30
0.000000
  70
    32
  0
VERTEX
  8
2
  5
31F
 10
264.445
 20
197.172
 30
0.000000
  70
    32
  0
VERTEX
  8
2
  5
320
 10
264.442
 20
196.804
 30
0.000000
  70
    32
  0
VERTEX
  8
2
  5
321
 10
264.445
 20
196.436
 30
0.000000
  70
    32
  0
VERTEX
  8
2
  5
322
 10
264.454
 20
196.068
 30
0.000000
  70
    32
  0
VERTEX
  8
2
  5
323
 10
264.470
 20
195.700
 30
0.000000
  70
    32
  0
VERTEX
  8
2
  5
324
 10
264.492
 20
195.333
 30
0.000000
  70
    32
  0
VERTEX
  8
2
  5
325
 10
264.521
 20
194.968
 30
0.000000
  70
    32
  0
VERTEX
  8
2
  5
326
 10
264.555
 20
194.603
 30
0.000000
  70
    32
  0
VERTEX
  8
2
  5
327
 10
264.596
 20
194.239
 30
0.000000
  70
    32
  0
VERTEX
  8
2
  5
328
 10
264.643
 20
193.877
 30
0.000000
  70
    32
  0
VERTEX
  8
2
  5
329
 10
264.697
 20
193.517
 30
0.000000
  70
    32
  0
VERTEX
  8
2
  5
32A
 10
264.756
 20
193.159
 30
0.000000
  70
    32
  0
VERTEX
  8
2
  5
32B
 10
264.822
 20
192.803
 30
0.000000
  70
    32
  0
VERTEX
  8
2
  5
32C
 10
264.894
 20
192.449
 30
0.000000
  70
    32
  0
VERTEX
  8
2
  5
32D
 10
264.971
 20
192.098
 30
0.000000
  70
    32
  0
VERTEX
  8
2
  5
32E
 10
265.055
 20
191.750
 30
0.000000
  70
    32
  0
VERTEX
  8
2
  5
32F
 10
265.145
 20
191.405
 30
0.000000
  70
    32
  0
VERTEX
  8
2
  5
330
 10
265.241
 20
191.063
 30
0.000000
  70
    32
  0
VERTEX
  8
2
  5
331
 10
265.342
 20
190.725
 30
0.000000
  70
    32
  0
VERTEX
  8
2
  5
332
 10
265.450
 20
190.390
 30
0.000000
  70
    32
  0
VERTEX
  8
2
  5
333
 10
265.563
 20
190.060
 30
0.000000
  70
    32
  0
VERTEX
  8
2
  5
334
 10
265.681
 20
189.733
 30
0.000000
  70
    32
  0
VERTEX
  8
2
  5
335
 10
265.806
 20
189.410
 30
0.000000
  70
    32
  0
VERTEX
  8
2
  5
336
 10
265.935
 20
189.092
 30
0.000000
  70
    32
  0
VERTEX
  8
2
  5
337
 10
266.071
 20
188.779
 30
0.000000
  70
    32
  0
VERTEX
  8
2
  5
338
 10
266.211
 20
188.470
 30
0.000000
  70
    32
  0
VERTEX
  8
2
  5
339
 10
266.357
 20
188.167
 30
0.000000
  70
    32
  0
VERTEX
  8
2
  5
33A
 10
266.508
 20
187.868
 30
0.000000
  70
    32
  0
VERTEX
  8
2
  5
33B
 10
266.664
 20
187.575
 30
0.000000
  70
    32
  0
VERTEX
  8
2
  5
33C
 10
266.825
 20
187.288
 30
0.000000
  70
    32
  0
VERTEX
  8
2
  5
33D
 10
266.991
 20
187.006
 30
0.000000
  70
    32
  0
VERTEX
  8
2
  5
33E
 10
267.162
 20
186.730
 30
0.000000
  70
    32
  0
VERTEX
  8
2
  5
33F
 10
267.337
 20
186.461
 30
0.000000
  70
    32
  0
VERTEX
  8
2
  5
340
 10
267.517
 20
186.197
 30
0.000000
  70
    32
  0
VERTEX
  8
2
  5
341
 10
267.701
 20
185.940
 30
0.000000
  70
    32
  0
VERTEX
  8
2
  5
342
 10
267.890
 20
185.689
 30
0.000000
  70
    32
  0
VERTEX
  8
2
  5
343
 10
268.083
 20
185.446
 30
0.000000
  70
    32
  0
VERTEX
  8
2
  5
344
 10
268.280
 20
185.209
 30
0.000000
  70
    32
  0
VERTEX
  8
2
  5
345
 10
268.482
 20
184.979
 30
0.000000
  70
    32
  0
VERTEX
  8
2
  5
346
 10
268.687
 20
184.756
 30
0.000000
  70
    32
  0
VERTEX
  8
2
  5
347
 10
268.896
 20
184.540
 30
0.000000
  70
    32
  0
VERTEX
  8
2
  5
348
 10
269.108
 20
184.332
 30
0.000000
  70
    32
  0
VERTEX
  8
2
  5
349
 10
269.324
 20
184.131
 30
0.000000
  70
    32
  0
VERTEX
  8
2
  5
34A
 10
269.543
 20
183.938
 30
0.000000
  70
    32
  0
VERTEX
  8
2
  5
34B
 10
269.766
 20
183.752
 30
0.000000
  70
    32
  0
VERTEX
  8
2
  5
34C
 10
269.992
 20
183.575
 30
0.000000
  70
    32
  0
VERTEX
  8
2
  5
34D
 10
270.221
 20
183.405
 30
0.000000
  70
    32
  0
VERTEX
  8
2
  5
34E
 10
270.452
 20
183.244
 30
0.000000
  70
    32
  0
VERTEX
  8
2
  5
34F
 10
270.687
 20
183.091
 30
0.000000
  70
    32
  0
VERTEX
  8
2
  5
350
 10
270.923
 20
182.946
 30
0.000000
  70
    32
  0
VERTEX
  8
2
  5
351
 10
271.163
 20
182.809
 30
0.000000
  70
    32
  0
VERTEX
  8
2
  5
352
 10
271.404
 20
182.681
 30
0.000000
  70
    32
  0
VERTEX
  8
2
  5
353
 10
271.648
 20
182.561
 30
0.000000
  70
    32
  0
VERTEX
  8
2
  5
354
 10
271.894
 20
182.450
 30
0.000000
  70
    32
  0
VERTEX
  8
2
  5
355
 10
272.141
 20
182.347
 30
0.000000
  70
    32
  0
VERTEX
  8
2
  5
356
 10
272.390
 20
182.253
 30
0.000000
  70
    32
  0
VERTEX
  8
2
  5
357
 10
272.641
 20
182.168
 30
0.000000
  70
    32
  0
VERTEX
  8
2
  5
358
 10
272.893
 20
182.092
 30
0.000000
  70
    32
  0
VERTEX
  8
2
  5
359
 10
273.146
 20
182.025
 30
0.000000
  70
    32
  0
VERTEX
  8
2
  5
35A
 10
273.401
 20
181.966
 30
0.000000
  70
    32
  0
VERTEX
  8
2
  5
35B
 10
273.656
 20
181.917
 30
0.000000
  70
    32
  0
VERTEX
  8
2
  5
35C
 10
273.912
 20
181.876
 30
0.000000
  70
    32
  0
VERTEX
  8
2
  5
35D
 10
274.169
 20
181.844
 30
0.000000
  70
    32
  0
VERTEX
  8
2
  5
35E
 10
274.426
 20
181.822
 30
0.000000
  70
    32
  0
VERTEX
  8
2
  5
35F
 10
274.684
 20
181.808
 30
0.000000
  70
    32
  0
VERTEX
  8
2
  5
360
 10
274.942
 20
181.804
 30
0.000000
  70
    32
  0
SEQEND
  8
2
  5
361
  0
POLYLINE
  5
15F
  8
0
 10
274.94154352736427
 20
181.8037008915108
 30
0.0
 66
     1
 70
     8
  0
VERTEX
  8
0
  5
362
 10
274.942
 20
181.804
 30
0.000000
  70
    32
  0
VERTEX
  8
0
  5
363
 10
275.199
 20
181.808
 30
0.000000
  70
    32
  0
VERTEX
  8
0
  5
364
 10
275.457
 20
181.822
 30
0.000000
  70
    32
  0
VERTEX
  8
0
  5
365
 10
275.714
 20
181.844
 30
0.000000
  70
    32
  0
VERTEX
  8
0
  5
366
 10
275.971
 20
181.876
 30
0.000000
  70
    32
  0
VERTEX
  8
0
  5
367
 10
276.227
 20
181.917
 30
0.000000
  70
    32
  0
VERTEX
  8
0
  5
368
 10
276.482
 20
181.966
 30
0.000000
  70
    32
  0
VERTEX
  8
0
  5
369
 10
276.737
 20
182.025
 30
0.000000
  70
    32
  0
VERTEX
  8
0
  5
36A
 10
276.990
 20
182.092
 30
0.000000
  70
    32
  0
VERTEX
  8
0
  5
36B
 10
277.242
 20
182.168
 30
0.000000
  70
    32
  0
VERTEX
  8
0
  5
36C
 10
277.493
 20
182.253
 30
0.000000
  70
    32
  0
VERTEX
  8
0
  5
36D
 10
277.742
 20
182.347
 30
0.000000
  70
    32
  0
VERTEX
  8
0
  5
36E
 10
277.990
 20
182.450
 30
0.000000
  70
    32
  0
VERTEX
  8
0
  5
36F
 10
278.235
 20
182.561
 30
0.000000
  70
    32
  0
VERTEX
  8
0
  5
370
 10
278.479
 20
182.681
 30
0.000000
  70
    32
  0
VERTEX
  8
0
  5
371
 10
278.720
 20
182.809
 30
0.000000
  70
    32
  0
VERTEX
  8
0
  5
372
 10
278.960
 20
182.946
 30
0.000000
  70
    32
  0
VERTEX
  8
0
  5
373
 10
279.197
 20
183.091
 30
0.000000
  70
    32
  0
VERTEX
  8
0
  5
374
 10
279.431
 20
183.244
 30
0.000000
  70
    32
  0
VERTEX
  8
0
  5
375
 10
279.662
 20
183.405
 30
0.000000
  70
    32
  0
VERTEX
  8
0
  5
376
 10
279.891
 20
183.575
 30
0.000000
  70
    32
  0
VERTEX
  8
0
  5
377
 10
280.117
 20
183.752
 30
0.000000
  70
    32
  0
VERTEX
  8
0
  5
378
 10
280.340
 20
183.938
 30
0.000000
  70
    32
  0
VERTEX
  8
0
  5
379
 10
280.559
 20
184.131
 30
0.000000
  70
    32
  0
VERTEX
  8
0
  5
37A
 10
280.775
 20
184.332
 30
0.000000
  70
    32
  0
VERTEX
  8
0
  5
37B
 10
280.988
 20
184.540
 30
0.000000
  70
    32
  0
VERTEX
  8
0
  5
37C
 10
281.196
 20
184.756
 30
0.000000
  70
    32
  0
VERTEX
  8
0
  5
37D
 10
281.401
 20
184.979
 30
0.000000
  70
    32
  0
VERTEX
  8
0
  5
37E
 10
281.603
 20
185.209
 30
0.000000
  70
    32
  0
VERTEX
  8
0
  5
37F
 10
281.800
 20
185.446
 30
0.000000
  70
    32
  0
VERTEX
  8
0
  5
380
 10
281.993
 20
185.689
 30
0.000000
  70
    32
  0
VERTEX
  8
0
  5
381
 10
282.182
 20
185.940
 30
0.000000
  70
    32
  0
VERTEX
  8
0
  5
382
 10
282.366
 20
186.197
 30
0.000000
  70
    32
  0
VERTEX
  8
0
  5
383
 10
282.546
 20
186.461
 30
0.000000
  70
    32
  0
VERTEX
  8
0
  5
384
 10
282.722
 20
186.730
 30
0.000000
  70
    32
  0
VERTEX
  8
0
  5
385
 10
282.892
 20
187.006
 30
0.000000
  70
    32
  0
VERTEX
  8
0
  5
386
 10
283.058
 20
187.288
 30
0.000000
  70
    32
  0
VERTEX
  8
0
  5
387
 10
283.219
 20
187.575
 30
0.000000
  70
    32
  0
VERTEX
  8
0
  5
388
 10
283.375
 20
187.868
 30
0.000000
  70
    32
  0
VERTEX
  8
0
  5
389
 10
283.526
 20
188.167
 30
0.000000
  70
    32
  0
VERTEX
  8
0
  5
38A
 10
283.672
 20
188.470
 30
0.000000
  70
    32
  0
VERTEX
  8
0
  5
38B
 10
283.813
 20
188.779
 30
0.000000
  70
    32
  0
VERTEX
  8
0
  5
38C
 10
283.948
 20
189.092
 30
0.000000
  70
    32
  0
VERTEX
  8
0
  5
38D
 10
284.077
 20
189.410
 30
0.000000
  70
    32
  0
VERTEX
  8
0
  5
38E
 10
284.202
 20
189.733
 30
0.000000
  70
    32
  0
VERTEX
  8
0
  5
38F
 10
284.320
 20
190.060
 30
0.000000
  70
    32
  0
VERTEX
  8
0
  5
390
 10
284.433
 20
190.390
 30
0.000000
  70
    32
  0
VERTEX
  8
0
  5
391
 10
284.541
 20
190.725
 30
0.000000
  70
    32
  0
VERTEX
  8
0
  5
392
 10
284.642
 20
191.063
 30
0.000000
  70
    32
  0
VERTEX
  8
0
  5
393
 10
284.738
 20
191.405
 30
0.000000
  70
    32
  0
VERTEX
  8
0
  5
394
 10
284.828
 20
191.750
 30
0.000000
  70
    32
  0
VERTEX
  8
0
  5
395
 10
284.912
 20
192.098
 30
0.000000
  70
    32
  0
VERTEX
  8
0
  5
396
 10
284.989
 20
192.449
 30
0.000000
  70
    32
  0
VERTEX
  8
0
  5
397
 10
285.061
 20
192.803
 30
0.000000
  70
    32
  0
VERTEX
  8
0
  5
398
 10
285.127
 20
193.159
 30
0.000000
  70
    32
  0
VERTEX
  8
0
  5
399
 10
285.186
 20
193.517
 30
0.000000
  70
    32
  0
VERTEX
  8
0
  5
39A
 10
285.240
 20
193.877
 30
0.000000
  70
    32
  0
VERTEX
  8
0
  5
39B
 10
285.287
 20
194.239
 30
0.000000
  70
    32
  0
VERTEX
  8
0
  5
39C
 10
285.328
 20
194.603
 30
0.000000
  70
    32
  0
VERTEX
  8
0
  5
39D
 10
285.363
 20
194.968
 30
0.000000
  70
    32
  0
VERTEX
  8
0
  5
39E
 10
285.391
 20
195.333
 30
0.000000
  70
    32
  0
VERTEX
  8
0
  5
39F
 10
285.413
 20
195.700
 30
0.000000
  70
    32
  0
VERTEX
  8
0
  5
3A0
 10
285.429
 20
196.068
 30
0.000000
  70
    32
  0
VERTEX
  8
0
  5
3A1
 10
285.438
 20
196.436
 30
0.000000
  70
    32
  0
VERTEX
  8
0
  5
3A2
 10
285.442
 20
196.804
 30
0.000000
  70
    32
  0
VERTEX
  8
0
  5
3A3
 10
285.438
 20
197.172
 30
0.000000
  70
    32
  0
VERTEX
  8
0
  5
3A4
 10
285.429
 20
197.540
 30
0.000000
  70
    32
  0
VERTEX
  8
0
  5
3A5
 10
285.413
 20
197.907
 30
0.000000
  70
    32
  0
VERTEX
  8
0
  5
3A6
 10
285.391
 20
198.274
 30
0.000000
  70
    32
  0
VERTEX
  8
0
  5
3A7
 10
285.363
 20
198.640
 30
0.000000
  70
    32
  0
VERTEX
  8
0
  5
3A8
 10
285.328
 20
199.005
 30
0.000000
  70
    32
  0
VERTEX
  8
0
  5
3A9
 10
285.287
 20
199.368
 30
0.000000
  70
    32
  0
VERTEX
  8
0
  5
3AA
 10
285.240
 20
199.730
 30
0.000000
  70
    32
  0
VERTEX
  8
0
  5
3AB
 10
285.186
 20
200.090
 30
0.000000
  70
    32
  0
VERTEX
  8
0
  5
3AC
 10
285.127
 20
200.448
 30
0.000000
  70
    32
  0
VERTEX
  8
0
  5
3AD
 10
285.061
 20
200.804
 30
0.000000
  70
    32
  0
VERTEX
  8
0
  5
3AE
 10
284.989
 20
201.158
 30
0.000000
  70
    32
  0
VERTEX
  8
0
  5
3AF
 10
284.912
 20
201.509
 30
0.000000
  70
    32
  0
VERTEX
  8
0
  5
3B0
 10
284.828
 20
201.857
 30
0.000000
  70
    32
  0
VERTEX
  8
0
  5
3B1
 10
284.738
 20
202.202
 30
0.000000
  70
    32
  0
VERTEX
  8
0
  5
3B2
 10
284.642
 20
202.544
 30
0.000000
  70
    32
  0
VERTEX
  8
0
  5
3B3
 10
284.541
 20
202.882
 30
0.000000
  70
    32
  0
VERTEX
  8
0
  5
3B4
 10
284.433
 20
203.217
 30
0.000000
  70
    32
  0
VERTEX
  8
0
  5
3B5
 10
284.320
 20
203.548
 30
0.000000
  70
    32
  0
VERTEX
  8
0
  5
3B6
 10
284.202
 20
203.875
 30
0.000000
  70
    32
  0
VERTEX
  8
0
  5
3B7
 10
284.077
 20
204.197
 30
0.000000
  70
    32
  0
VERTEX
  8
0
  5
3B8
 10
283.948
 20
204.515
 30
0.000000
  70
    32
  0
VERTEX
  8
0
  5
3B9
 10
283.813
 20
204.829
 30
0.000000
  70
    32
  0
VERTEX
  8
0
  5
3BA
 10
283.672
 20
205.137
 30
0.000000
  70
    32
  0
VERTEX
  8
0
  5
3BB
 10
283.526
 20
205.441
 30
0.000000
  70
    32
  0
VERTEX
  8
0
  5
3BC
 10
283.375
 20
205.739
 30
0.000000
  70
    32
  0
VERTEX
  8
0
  5
3BD
 10
283.219
 20
206.032
 30
0.000000
  70
    32
  0
VERTEX
  8
0
  5
3BE
 10
283.058
 20
206.320
 30
0.000000
  70
    32
  0
VERTEX
  8
0
  5
3BF
 10
282.892
 20
206.601
 30
0.000000
  70
    32
  0
VERTEX
  8
0
  5
3C0
 10
282.722
 20
206.877
 30
0.000000
  70
    32
  0
VERTEX
  8
0
  5
3C1
 10
282.546
 20
207.147
 30
0.000000
  70
    32
  0
VERTEX
  8
0
  5
3C2
 10
282.366
 20
207.410
 30
0.000000
  70
    32
  0
VERTEX
  8
0
  5
3C3
 10
282.182
 20
207.667
 30
0.000000
  70
    32
  0
VERTEX
  8
0
  5
3C4
 10
281.993
 20
207.918
 30
0.000000
  70
    32
  0
VERTEX
  8
0
  5
3C5
 10
281.800
 20
208.162
 30
0.000000
  70
    32
  0
VERTEX
  8
0
  5
3C6
 10
281.603
 20
208.399
 30
0.000000
  70
    32
  0
VERTEX
  8
0
  5
3C7
 10
281.401
 20
208.629
 30
0.000000
  70
    32
  0
VERTEX
  8
0
  5
3C8
 10
281.196
 20
208.852
 30
0.000000
  70
    32
  0
VERTEX
  8
0
  5
3C9
 10
280.988
 20
209.067
 30
0.000000
  70
    32
  0
VERTEX
  8
0
  5
3CA
 10
280.775
 20
209.276
 30
0.000000
  70
    32
  0
VERTEX
  8
0
  5
3CB
 10
280.559
 20
209.477
 30
0.000000
  70
    32
  0
VERTEX
  8
0
  5
3CC
 10
280.340
 20
209.670
 30
0.000000
  70
    32
  0
VERTEX
  8
0
  5
3CD
 10
280.117
 20
209.855
 30
0.000000
  70
    32
  0
VERTEX
  8
0
  5
3CE
 10
279.891
 20
210.033
 30
0.000000
  70
    32
  0
VERTEX
  8
0
  5
3CF
 10
279.662
 20
210.202
 30
0.000000
  70
    32
  0
VERTEX
  8
0
  5
3D0
 10
279.431
 20
210.364
 30
0.000000
  70
    32
  0
VERTEX
  8
0
  5
3D1
 10
279.197
 20
210.517
 30
0.000000
  70
    32
  0
VERTEX
  8
0
  5
3D2
 10
278.960
 20
210.662
 30
0.000000
  70
    32
  0
VERTEX
  8
0
  5
3D3
 10
278.720
 20
210.799
 30
0.000000
  70
    32
  0
VERTEX
  8
0
  5
3D4
 10
278.479
 20
210.927
 30
0.000000
  70
    32
  0
VERTEX
  8
0
  5
3D5
 10
278.235
 20
211.047
 30
0.000000
  70
    32
  0
VERTEX
  8
0
  5
3D6
 10
277.990
 20
211.158
 30
0.000000
  70
    32
  0
VERTEX
  8
0
  5
3D7
 10
277.742
 20
211.260
 30
0.000000
  70
    32
  0
VERTEX
  8
0
  5
3D8
 10
277.493
 20
211.354
 30
0.000000
  70
    32
  0
VERTEX
  8
0
  5
3D9
 10
277.242
 20
211.439
 30
0.000000
  70
    32
  0
VERTEX
  8
0
  5
3DA
 10
276.990
 20
211.515
 30
0.000000
  70
    32
  0
VERTEX
  8
0
  5
3DB
 10
276.737
 20
211.583
 30
0.000000
  70
    32
  0
VERTEX
  8
0
  5
3DC
 10
276.482
 20
211.641
 30
0.000000
  70
    32
  0
VERTEX
  8
0
  5
3DD
 10
276.227
 20
211.691
 30
0.000000
  70
    32
  0
VERTEX
  8
0
  5
3DE
 10
275.971
 20
211.731
 30
0.000000
  70
    32
  0
VERTEX
  8
0
  5
3DF
 10
275.714
 20
211.763
 30
0.000000
  70
    32
  0
VERTEX
  8
0
  5
3E0
 10
275.457
 20
211.786
 30
0.000000
  70
    32
  0
VERTEX
  8
0
  5
3E1
 10
275.199
 20
211.799
 30
0.000000
  70
    32
  0
VERTEX
  8
0
  5
3E2
 10
274.942
 20
211.804
 30
0.000000
  70
    32
  0
SEQEND
  8
0
  5
3E3
  0
POLYLINE
  5
160
  8
0
 10
157.94154352736319
 20
181.8037008915108
 30
0.0
 66
     1
 70
     8
  0
VERTEX
  8
0
  5
3E4
 10
157.942
 20
181.804
 30
0.000000
  70
    32
  0
VERTEX
  8
0
  5
3E5
 10
157.684
 20
181.808
 30
0.000000
  70
    32
  0
VERTEX
  8
0
  5
3E6
 10
157.426
 20
181.822
 30
0.000000
  70
    32
  0
VERTEX
  8
0
  5
3E7
 10
157.169
 20
181.844
 30
0.000000
  70
    32
  0
VERTEX
  8
0
  5
3E8
 10
156.912
 20
181.876
 30
0.000000
  70
    32
  0
VERTEX
  8
0
  5
3E9
 10
156.656
 20
181.917
 30
0.000000
  70
    32
  0
VERTEX
  8
0
  5
3EA
 10
156.401
 20
181.966
 30
0.000000
  70
    32
  0
VERTEX
  8
0
  5
3EB
 10
156.146
 20
182.025
 30
0.000000
  70
    32
  0
VERTEX
  8
0
  5
3EC
 10
155.893
 20
182.092
 30
0.000000
  70
    32
  0
VERTEX
  8
0
  5
3ED
 10
155.641
 20
182.168
 30
0.000000
  70
    32
  0
VERTEX
  8
0
  5
3EE
 10
155.390
 20
182.253
 30
0.000000
  70
    32
  0
VERTEX
  8
0
  5
3EF
 10
155.141
 20
182.347
 30
0.000000
  70
    32
  0
VERTEX
  8
0
  5
3F0
 10
154.894
 20
182.450
 30
0.000000
  70
    32
  0
VERTEX
  8
0
  5
3F1
 10
154.648
 20
182.561
 30
0.000000
  70
    32
  0
VERTEX
  8
0
  5
3F2
 10
154.404
 20
182.681
 30
0.000000
  70
    32
  0
VERTEX
  8
0
  5
3F3
 10
154.163
 20
182.809
 30
0.000000
  70
    32
  0
VERTEX
  8
0
  5
3F4
 10
153.923
 20
182.946
 30
0.000000
  70
    32
  0
VERTEX
  8
0
  5
3F5
 10
153.687
 20
183.091
 30
0.000000
  70
    32
  0
VERTEX
  8
0
  5
3F6
 10
153.452
 20
183.244
 30
0.000000
  70
    32
  0
VERTEX
  8
0
  5
3F7
 10
153.221
 20
183.405
 30
0.000000
  70
    32
  0
VERTEX
  8
0
  5
3F8
 10
152.992
 20
183.575
 30
0.000000
  70
    32
  0
VERTEX
  8
0
  5
3F9
 10
152.766
 20
183.752
 30
0.000000
  70
    32
  0
VERTEX
  8
0
  5
3FA
 10
152.543
 20
183.938
 30
0.000000
  70
    32
  0
VERTEX
  8
0
  5
3FB
 10
152.324
 20
184.131
 30
0.000000
  70
    32
  0
VERTEX
  8
0
  5
3FC
 10
152.108
 20
184.332
 30
0.000000
  70
    32
  0
VERTEX
  8
0
  5
3FD
 10
151.896
 20
184.540
 30
0.000000
  70
    32
  0
VERTEX
  8
0
  5
3FE
 10
151.687
 20
184.756
 30
0.000000
  70
    32
  0
VERTEX
  8
0
  5
3FF
 10
151.482
 20
184.979
 30
0.000000
  70
    32
  0
VERTEX
  8
0
  5
400
 10
151.280
 20
185.209
 30
0.000000
  70
    32
  0
VERTEX
  8
0
  5
401
 10
151.083
 20
185.446
 30
0.000000
  70
    32
  0
VERTEX
  8
0
  5
402
 10
150.890
 20
185.689
 30
0.000000
  70
    32
  0
VERTEX
  8
0
  5
403
 10
150.701
 20
185.940
 30
0.000000
  70
    32
  0
VERTEX
  8
0
  5
404
 10
150.517
 20
186.197
 30
0.000000
  70
    32
  0
VERTEX
  8
0
  5
405
 10
150.337
 20
186.461
 30
0.000000
  70
    32
  0
VERTEX
  8
0
  5
406
 10
150.162
 20
186.730
 30
0.000000
  70
    32
  0
VERTEX
  8
0
  5
407
 10
149.991
 20
187.006
 30
0.000000
  70
    32
  0
VERTEX
  8
0
  5
408
 10
149.825
 20
187.288
 30
0.000000
  70
    32
  0
VERTEX
  8
0
  5
409
 10
149.664
 20
187.575
 30
0.000000
  70
    32
  0
VERTEX
  8
0
  5
40A
 10
149.508
 20
187.868
 30
0.000000
  70
    32
  0
VERTEX
  8
0
  5
40B
 10
149.357
 20
188.167
 30
0.000000
  70
    32
  0
VERTEX
  8
0
  5
40C
 10
149.211
 20
188.470
 30
0.000000
  70
    32
  0
VERTEX
  8
0
  5
40D
 10
149.071
 20
188.779
 30
0.000000
  70
    32
  0
VERTEX
  8
0
  5
40E
 10
148.935
 20
189.092
 30
0.000000
  70
    32
  0
VERTEX
  8
0
  5
40F
 10
148.806
 20
189.410
 30
0.000000
  70
    32
  0
VERTEX
  8
0
  5
410
 10
148.681
 20
189.733
 30
0.000000
  70
    32
  0
VERTEX
  8
0
  5
411
 10
148.563
 20
190.060
 30
0.000000
  70
    32
  0
VERTEX
  8
0
  5
412
 10
148.450
 20
190.390
 30
0.000000
  70
    32
  0
VERTEX
  8
0
  5
413
 10
148.342
 20
190.725
 30
0.000000
  70
    32
  0
VERTEX
  8
0
  5
414
 10
148.241
 20
191.063
 30
0.000000
  70
    32
  0
VERTEX
  8
0
  5
415
 10
148.145
 20
191.405
 30
0.000000
  70
    32
  0
VERTEX
  8
0
  5
416
 10
148.055
 20
191.750
 30
0.000000
  70
    32
  0
VERTEX
  8
0
  5
417
 10
147.971
 20
192.098
 30
0.000000
  70
    32
  0
VERTEX
  8
0
  5
418
 10
147.894
 20
192.449
 30
0.000000
  70
    32
  0
VERTEX
  8
0
  5
419
 10
147.822
 20
192.803
 30
0.000000
  70
    32
  0
VERTEX
  8
0
  5
41A
 10
147.756
 20
193.159
 30
0.000000
  70
    32
  0
VERTEX
  8
0
  5
41B
 10
147.697
 20
193.517
 30
0.000000
  70
    32
  0
VERTEX
  8
0
  5
41C
 10
147.643
 20
193.877
 30
0.000000
  70
    32
  0
VERTEX
  8
0
  5
41D
 10
147.596
 20
194.239
 30
0.000000
  70
    32
  0
VERTEX
  8
0
  5
41E
 10
147.555
 20
194.603
 30
0.000000
  70
    32
  0
VERTEX
  8
0
  5
41F
 10
147.521
 20
194.968
 30
0.000000
  70
    32
  0
VERTEX
  8
0
  5
420
 10
147.492
 20
195.333
 30
0.000000
  70
    32
  0
VERTEX
  8
0
  5
421
 10
147.470
 20
195.700
 30
0.000000
  70
    32
  0
VERTEX
  8
0
  5
422
 10
147.454
 20
196.068
 30
0.000000
  70
    32
  0
VERTEX
  8
0
  5
423
 10
147.445
 20
196.436
 30
0.000000
  70
    32
  0
VERTEX
  8
0
  5
424
 10
147.442
 20
196.804
 30
0.000000
  70
    32
  0
VERTEX
  8
0
  5
425
 10
147.445
 20
197.172
 30
0.000000
  70
    32
  0
VERTEX
  8
0
  5
426
 10
147.454
 20
197.540
 30
0.000000
  70
    32
  0
VERTEX
  8
0
  5
427
 10
147.470
 20
197.907
 30
0.000000
  70
    32
  0
VERTEX
  8
0
  5
428
 10
147.492
 20
198.274
 30
0.000000
  70
    32
  0
VERTEX
  8
0
  5
429
 10
147.521
 20
198.640
 30
0.000000
  70
    32
  0
VERTEX
  8
0
  5
42A
 10
147.555
 20
199.005
 30
0.000000
  70
    32
  0
VERTEX
  8
0
  5
42B
 10
147.596
 20
199.368
 30
0.000000
  70
    32
  0
VERTEX
  8
0
  5
42C
 10
147.643
 20
199.730
 30
0.000000
  70
    32
  0
VERTEX
  8
0
  5
42D
 10
147.697
 20
200.090
 30
0.000000
  70
    32
  0
VERTEX
  8
0
  5
42E
 10
147.756
 20
200.448
 30
0.000000
  70
    32
  0
VERTEX
  8
0
  5
42F
 10
147.822
 20
200.804
 30
0.000000
  70
    32
  0
VERTEX
  8
0
  5
430
 10
147.894
 20
201.158
 30
0.000000
  70
    32
  0
VERTEX
  8
0
  5
431
 10
147.971
 20
201.509
 30
0.000000
  70
    32
  0
VERTEX
  8
0
  5
432
 10
148.055
 20
201.857
 30
0.000000
  70
    32
  0
VERTEX
  8
0
  5
433
 10
148.145
 20
202.202
 30
0.000000
  70
    32
  0
VERTEX
  8
0
  5
434
 10
148.241
 20
202.544
 30
0.000000
  70
    32
  0
VERTEX
  8
0
  5
435
 10
148.342
 20
202.882
 30
0.000000
  70
    32
  0
VERTEX
  8
0
  5
436
 10
148.450
 20
203.217
 30
0.000000
  70
    32
  0
VERTEX
  8
0
  5
437
 10
148.563
 20
203.548
 30
0.000000
  70
    32
  0
VERTEX
  8
0
  5
438
 10
148.681
 20
203.875
 30
0.000000
  70
    32
  0
VERTEX
  8
0
  5
439
 10
148.806
 20
204.197
 30
0.000000
  70
    32
  0
VERTEX
  8
0
  5
43A
 10
148.935
 20
204.515
 30
0.000000
  70
    32
  0
VERTEX
  8
0
  5
43B
 10
149.071
 20
204.829
 30
0.000000
  70
    32
  0
VERTEX
  8
0
  5
43C
 10
149.211
 20
205.137
 30
0.000000
  70
    32
  0
VERTEX
  8
0
  5
43D
 10
149.357
 20
205.441
 30
0.000000
  70
    32
  0
VERTEX
  8
0
  5
43E
 10
149.508
 20
205.739
 30
0.000000
  70
    32
  0
VERTEX
  8
0
  5
43F
 10
149.664
 20
206.032
 30
0.000000
  70
    32
  0
VERTEX
  8
0
  5
440
 10
149.825
 20
206.320
 30
0.000000
  70
    32
  0
VERTEX
  8
0
  5
441
 10
149.991
 20
206.601
 30
0.000000
  70
    32
  0
VERTEX
  8
0
  5
442
 10
150.162
 20
206.877
 30
0.000000
  70
    32
  0
VERTEX
  8
0
  5
443
 10
150.337
 20
207.147
 30
0.000000
  70
    32
  0
VERTEX
  8
0
  5
444
 10
150.517
 20
207.410
 30
0.000000
  70
    32
  0
VERTEX
  8
0
  5
445
 10
150.701
 20
207.667
 30
0.000000
  70
    32
  0
VERTEX
  8
0
  5
446
 10
150.890
 20
207.918
 30
0.000000
  70
    32
  0
VERTEX
  8
0
  5
447
 10
151.083
 20
208.162
 30
0.000000
  70
    32
  0
VERTEX
  8
0
  5
448
 10
151.280
 20
208.399
 30
0.000000
  70
    32
  0
VERTEX
  8
0
  5
449
 10
151.482
 20
208.629
 30
0.000000
  70
    32
  0
VERTEX
  8
0
  5
44A
 10
151.687
 20
208.852
 30
0.000000
  70
    32
  0
VERTEX
  8
0
  5
44B
 10
151.896
 20
209.067
 30
0.000000
  70
    32
  0
VERTEX
  8
0
  5
44C
 10
152.108
 20
209.276
 30
0.000000
  70
    32
  0
VERTEX
  8
0
  5
44D
 10
152.324
 20
209.477
 30
0.000000
  70
    32
  0
VERTEX
  8
0
  5
44E
 10
152.543
 20
209.670
 30
0.000000
  70
    32
  0
VERTEX
  8
0
  5
44F
 10
152.766
 20
209.855
 30
0.000000
  70
    32
  0
VERTEX
  8
0
  5
450
 10
152.992
 20
210.033
 30
0.000000
  70
    32
  0
VERTEX
  8
0
  5
451
 10
153.221
 20
210.202
 30
0.000000
  70
    32
  0
VERTEX
  8
0
  5
452
 10
153.452
 20
210.364
 30
0.000000
  70
    32
  0
VERTEX
  8
0
  5
453
 10
153.687
 20
210.517
 30
0.000000
  70
    32
  0
VERTEX
  8
0
  5
454
 10
153.923
 20
210.662
 30
0.000000
  70
    32
  0
VERTEX
  8
0
  5
455
 10
154.163
 20
210.799
 30
0.000000
  70
    32
  0
VERTEX
  8
0
  5
456
 10
154.404
 20
210.927
 30
0.000000
  70
    32
  0
VERTEX
  8
0
  5
457
 10
154.648
 20
211.047
 30
0.000000
  70
    32
  0
VERTEX
  8
0
  5
458
 10
154.894
 20
211.158
 30
0.000000
  70
    32
  0
VERTEX
  8
0
  5
459
 10
155.141
 20
211.260
 30
0.000000
  70
    32
  0
VERTEX
  8
0
  5
45A
 10
155.390
 20
211.354
 30
0.000000
  70
    32
  0
VERTEX
  8
0
  5
45B
 10
155.641
 20
211.439
 30
0.000000
  70
    32
  0
VERTEX
  8
0
  5
45C
 10
155.893
 20
211.515
 30
0.000000
  70
    32
  0
VERTEX
  8
0
  5
45D
 10
156.146
 20
211.583
 30
0.000000
  70
    32
  0
VERTEX
  8
0
  5
45E
 10
156.401
 20
211.641
 30
0.000000
  70
    32
  0
VERTEX
  8
0
  5
45F
 10
156.656
 20
211.691
 30
0.000000
  70
    32
  0
VERTEX
  8
0
  5
460
 10
156.912
 20
211.731
 30
0.000000
  70
    32
  0
VERTEX
  8
0
  5
461
 10
157.169
 20
211.763
 30
0.000000
  70
    32
  0
VERTEX
  8
0
  5
462
 10
157.426
 20
211.786
 30
0.000000
  70
    32
  0
VERTEX
  8
0
  5
463
 10
157.684
 20
211.799
 30
0.000000
  70
    32
  0
VERTEX
  8
0
  5
464
 10
157.942
 20
211.804
 30
0.000000
  70
    32
  0
SEQEND
  8
0
  5
465
  0
POLYLINE
  5
161
  8
2
 10
157.94154352736319
 20
211.8037008915108
 30
0.0
 66
     1
 70
     8
  0
VERTEX
  8
2
  5
466
 10
157.942
 20
211.804
 30
0.000000
  70
    32
  0
VERTEX
  8
2
  5
467
 10
158.199
 20
211.799
 30
0.000000
  70
    32
  0
VERTEX
  8
2
  5
468
 10
158.457
 20
211.786
 30
0.000000
  70
    32
  0
VERTEX
  8
2
  5
469
 10
158.714
 20
211.763
 30
0.000000
  70
    32
  0
VERTEX
  8
2
  5
46A
 10
158.971
 20
211.731
 30
0.000000
  70
    32
  0
VERTEX
  8
2
  5
46B
 10
159.227
 20
211.691
 30
0.000000
  70
    32
  0
VERTEX
  8
2
  5
46C
 10
159.482
 20
211.641
 30
0.000000
  70
    32
  0
VERTEX
  8
2
  5
46D
 10
159.737
 20
211.583
 30
0.000000
  70
    32
  0
VERTEX
  8
2
  5
46E
 10
159.990
 20
211.515
 30
0.000000
  70
    32
  0
VERTEX
  8
2
  5
46F
 10
160.242
 20
211.439
 30
0.000000
  70
    32
  0
VERTEX
  8
2
  5
470
 10
160.493
 20
211.354
 30
0.000000
  70
    32
  0
VERTEX
  8
2
  5
471
 10
160.742
 20
211.260
 30
0.000000
  70
    32
  0
VERTEX
  8
2
  5
472
 10
160.990
 20
211.158
 30
0.000000
  70
    32
  0
VERTEX
  8
2
  5
473
 10
161.235
 20
211.047
 30
0.000000
  70
    32
  0
VERTEX
  8
2
  5
474
 10
161.479
 20
210.927
 30
0.000000
  70
    32
  0
VERTEX
  8
2
  5
475
 10
161.720
 20
210.799
 30
0.000000
  70
    32
  0
VERTEX
  8
2
  5
476
 10
161.960
 20
210.662
 30
0.000000
  70
    32
  0
VERTEX
  8
2
  5
477
 10
162.197
 20
210.517
 30
0.000000
  70
    32
  0
VERTEX
  8
2
  5
478
 10
162.431
 20
210.364
 30
0.000000
  70
    32
  0
VERTEX
  8
2
  5
479
 10
162.662
 20
210.202
 30
0.000000
  70
    32
  0
VERTEX
  8
2
  5
47A
 10
162.891
 20
210.033
 30
0.000000
  70
    32
  0
VERTEX
  8
2
  5
47B
 10
163.117
 20
209.855
 30
0.000000
  70
    32
  0
VERTEX
  8
2
  5
47C
 10
163.340
 20
209.670
 30
0.000000
  70
    32
  0
VERTEX
  8
2
  5
47D
 10
163.559
 20
209.477
 30
0.000000
  70
    32
  0
VERTEX
  8
2
  5
47E
 10
163.775
 20
209.276
 30
0.000000
  70
    32
  0
VERTEX
  8
2
  5
47F
 10
163.988
 20
209.067
 30
0.000000
  70
    32
  0
VERTEX
  8
2
  5
480
 10
164.196
 20
208.852
 30
0.000000
  70
    32
  0
VERTEX
  8
2
  5
481
 10
164.401
 20
208.629
 30
0.000000
  70
    32
  0
VERTEX
  8
2
  5
482
 10
164.603
 20
208.399
 30
0.000000
  70
    32
  0
VERTEX
  8
2
  5
483
 10
164.800
 20
208.162
 30
0.000000
  70
    32
  0
VERTEX
  8
2
  5
484
 10
164.993
 20
207.918
 30
0.000000
  70
    32
  0
VERTEX
  8
2
  5
485
 10
165.182
 20
207.667
 30
0.000000
  70
    32
  0
VERTEX
  8
2
  5
486
 10
165.366
 20
207.410
 30
0.000000
  70
    32
  0
VERTEX
  8
2
  5
487
 10
165.546
 20
207.147
 30
0.000000
  70
    32
  0
VERTEX
  8
2
  5
488
 10
165.722
 20
206.877
 30
0.000000
  70
    32
  0
VERTEX
  8
2
  5
489
 10
165.892
 20
206.601
 30
0.000000
  70
    32
  0
VERTEX
  8
2
  5
48A
 10
166.058
 20
206.320
 30
0.000000
  70
    32
  0
VERTEX
  8
2
  5
48B
 10
166.219
 20
206.032
 30
0.000000
  70
    32
  0
VERTEX
  8
2
  5
48C
 10
166.375
 20
205.739
 30
0.000000
  70
    32
  0
VERTEX
  8
2
  5
48D
 10
166.526
 20
205.441
 30
0.000000
  70
    32
  0
VERTEX
  8
2
  5
48E
 10
166.672
 20
205.137
 30
0.000000
  70
    32
  0
VERTEX
  8
2
  5
48F
 10
166.813
 20
204.829
 30
0.000000
  70
    32
  0
VERTEX
  8
2
  5
490
 10
166.948
 20
204.515
 30
0.000000
  70
    32
  0
VERTEX
  8
2
  5
491
 10
167.077
 20
204.197
 30
0.000000
  70
    32
  0
VERTEX
  8
2
  5
492
 10
167.202
 20
203.875
 30
0.000000
  70
    32
  0
VERTEX
  8
2
  5
493
 10
167.320
 20
203.548
 30
0.000000
  70
    32
  0
VERTEX
  8
2
  5
494
 10
167.433
 20
203.217
 30
0.000000
  70
    32
  0
VERTEX
  8
2
  5
495
 10
167.541
 20
202.882
 30
0.000000
  70
    32
  0
VERTEX
  8
2
  5
496
 10
167.642
 20
202.544
 30
0.000000
  70
    32
  0
VERTEX
  8
2
  5
497
 10
167.738
 20
202.202
 30
0.000000
  70
    32
  0
VERTEX
  8
2
  5
498
 10
167.828
 20
201.857
 30
0.000000
  70
    32
  0
VERTEX
  8
2
  5
499
 10
167.912
 20
201.509
 30
0.000000
  70
    32
  0
VERTEX
  8
2
  5
49A
 10
167.989
 20
201.158
 30
0.000000
  70
    32
  0
VERTEX
  8
2
  5
49B
 10
168.061
 20
200.804
 30
0.000000
  70
    32
  0
VERTEX
  8
2
  5
49C
 10
168.127
 20
200.448
 30
0.000000
  70
    32
  0
VERTEX
  8
2
  5
49D
 10
168.186
 20
200.090
 30
0.000000
  70
    32
  0
VERTEX
  8
2
  5
49E
 10
168.240
 20
199.730
 30
0.000000
  70
    32
  0
VERTEX
  8
2
  5
49F
 10
168.287
 20
199.368
 30
0.000000
  70
    32
  0
VERTEX
  8
2
  5
4A0
 10
168.328
 20
199.005
 30
0.000000
  70
    32
  0
VERTEX
  8
2
  5
4A1
 10
168.363
 20
198.640
 30
0.000000
  70
    32
  0
VERTEX
  8
2
  5
4A2
 10
168.391
 20
198.274
 30
0.000000
  70
    32
  0
VERTEX
  8
2
  5
4A3
 10
168.413
 20
197.907
 30
0.000000
  70
    32
  0
VERTEX
  8
2
  5
4A4
 10
168.429
 20
197.540
 30
0.000000
  70
    32
  0
VERTEX
  8
2
  5
4A5
 10
168.438
 20
197.172
 30
0.000000
  70
    32
  0
VERTEX
  8
2
  5
4A6
 10
168.442
 20
196.804
 30
0.000000
  70
    32
  0
VERTEX
  8
2
  5
4A7
 10
168.438
 20
196.436
 30
0.000000
  70
    32
  0
VERTEX
  8
2
  5
4A8
 10
168.429
 20
196.068
 30
0.000000
  70
    32
  0
VERTEX
  8
2
  5
4A9
 10
168.413
 20
195.700
 30
0.000000
  70
    32
  0
VERTEX
  8
2
  5
4AA
 10
168.391
 20
195.333
 30
0.000000
  70
    32
  0
VERTEX
  8
2
  5
4AB
 10
168.363
 20
194.968
 30
0.000000
  70
    32
  0
VERTEX
  8
2
  5
4AC
 10
168.328
 20
194.603
 30
0.000000
  70
    32
  0
VERTEX
  8
2
  5
4AD
 10
168.287
 20
194.239
 30
0.000000
  70
    32
  0
VERTEX
  8
2
  5
4AE
 10
168.240
 20
193.877
 30
0.000000
  70
    32
  0
VERTEX
  8
2
  5
4AF
 10
168.186
 20
193.517
 30
0.000000
  70
    32
  0
VERTEX
  8
2
  5
4B0
 10
168.127
 20
193.159
 30
0.000000
  70
    32
  0
VERTEX
  8
2
  5
4B1
 10
168.061
 20
192.803
 30
0.000000
  70
    32
  0
VERTEX
  8
2
  5
4B2
 10
167.989
 20
192.449
 30
0.000000
  70
    32
  0
VERTEX
  8
2
  5
4B3
 10
167.912
 20
192.098
 30
0.000000
  70
    32
  0
VERTEX
  8
2
  5
4B4
 10
167.828
 20
191.750
 30
0.000000
  70
    32
  0
VERTEX
  8
2
  5
4B5
 10
167.738
 20
191.405
 30
0.000000
  70
    32
  0
VERTEX
  8
2
  5
4B6
 10
167.642
 20
191.063
 30
0.000000
  70
    32
  0
VERTEX
  8
2
  5
4B7
 10
167.541
 20
190.725
 30
0.000000
  70
    32
  0
VERTEX
  8
2
  5
4B8
 10
167.433
 20
190.390
 30
0.000000
  70
    32
  0
VERTEX
  8
2
  5
4B9
 10
167.320
 20
190.060
 30
0.000000
  70
    32
  0
VERTEX
  8
2
  5
4BA
 10
167.202
 20
189.733
 30
0.000000
  70
    32
  0
VERTEX
  8
2
  5
4BB
 10
167.077
 20
189.410
 30
0.000000
  70
    32
  0
VERTEX
  8
2
  5
4BC
 10
166.948
 20
189.092
 30
0.000000
  70
    32
  0
VERTEX
  8
2
  5
4BD
 10
166.813
 20
188.779
 30
0.000000
  70
    32
  0
VERTEX
  8
2
  5
4BE
 10
166.672
 20
188.470
 30
0.000000
  70
    32
  0
VERTEX
  8
2
  5
4BF
 10
166.526
 20
188.167
 30
0.000000
  70
    32
  0
VERTEX
  8
2
  5
4C0
 10
166.375
 20
187.868
 30
0.000000
  70
    32
  0
VERTEX
  8
2
  5
4C1
 10
166.219
 20
187.575
 30
0.000000
  70
    32
  0
VERTEX
  8
2
  5
4C2
 10
166.058
 20
187.288
 30
0.000000
  70
    32
  0
VERTEX
  8
2
  5
4C3
 10
165.892
 20
187.006
 30
0.000000
  70
    32
  0
VERTEX
  8
2
  5
4C4
 10
165.722
 20
186.730
 30
0.000000
  70
    32
  0
VERTEX
  8
2
  5
4C5
 10
165.546
 20
186.461
 30
0.000000
  70
    32
  0
VERTEX
  8
2
  5
4C6
 10
165.366
 20
186.197
 30
0.000000
  70
    32
  0
VERTEX
  8
2
  5
4C7
 10
165.182
 20
185.940
 30
0.000000
  70
    32
  0
VERTEX
  8
2
  5
4C8
 10
164.993
 20
185.689
 30
0.000000
  70
    32
  0
VERTEX
  8
2
  5
4C9
 10
164.800
 20
185.446
 30
0.000000
  70
    32
  0
VERTEX
  8
2
  5
4CA
 10
164.603
 20
185.209
 30
0.000000
  70
    32
  0
VERTEX
  8
2
  5
4CB
 10
164.401
 20
184.979
 30
0.000000
  70
    32
  0
VERTEX
  8
2
  5
4CC
 10
164.196
 20
184.756
 30
0.000000
  70
    32
  0
VERTEX
  8
2
  5
4CD
 10
163.988
 20
184.540
 30
0.000000
  70
    32
  0
VERTEX
  8
2
  5
4CE
 10
163.775
 20
184.332
 30
0.000000
  70
    32
  0
VERTEX
  8
2
  5
4CF
 10
163.559
 20
184.131
 30
0.000000
  70
    32
  0
VERTEX
  8
2
  5
4D0
 10
163.340
 20
183.938
 30
0.000000
  70
    32
  0
VERTEX
  8
2
  5
4D1
 10
163.117
 20
183.752
 30
0.000000
  70
    32
  0
VERTEX
  8
2
  5
4D2
 10
162.891
 20
183.575
 30
0.000000
  70
    32
  0
VERTEX
  8
2
  5
4D3
 10
162.662
 20
183.405
 30
0.000000
  70
    32
  0
VERTEX
  8
2
  5
4D4
 10
162.431
 20
183.244
 30
0.000000
  70
    32
  0
VERTEX
  8
2
  5
4D5
 10
162.197
 20
183.091
 30
0.000000
  70
    32
  0
VERTEX
  8
2
  5
4D6
 10
161.960
 20
182.946
 30
0.000000
  70
    32
  0
VERTEX
  8
2
  5
4D7
 10
161.720
 20
182.809
 30
0.000000
  70
    32
  0
VERTEX
  8
2
  5
4D8
 10
161.479
 20
182.681
 30
0.000000
  70
    32
  0
VERTEX
  8
2
  5
4D9
 10
161.235
 20
182.561
 30
0.000000
  70
    32
  0
VERTEX
  8
2
  5
4DA
 10
160.990
 20
182.450
 30
0.000000
  70
    32
  0
VERTEX
  8
2
  5
4DB
 10
160.742
 20
182.347
 30
0.000000
  70
    32
  0
VERTEX
  8
2
  5
4DC
 10
160.493
 20
182.253
 30
0.000000
  70
    32
  0
VERTEX
  8
2
  5
4DD
 10
160.242
 20
182.168
 30
0.000000
  70
    32
  0
VERTEX
  8
2
  5
4DE
 10
159.990
 20
182.092
 30
0.000000
  70
    32
  0
VERTEX
  8
2
  5
4DF
 10
159.737
 20
182.025
 30
0.000000
  70
    32
  0
VERTEX
  8
2
  5
4E0
 10
159.482
 20
181.966
 30
0.000000
  70
    32
  0
VERTEX
  8
2
  5
4E1
 10
159.227
 20
181.917
 30
0.000000
  70
    32
  0
VERTEX
  8
2
  5
4E2
 10
158.971
 20
181.876
 30
0.000000
  70
    32
  0
VERTEX
  8
2
  5
4E3
 10
158.714
 20
181.844
 30
0.000000
  70
    32
  0
VERTEX
  8
2
  5
4E4
 10
158.457
 20
181.822
 30
0.000000
  70
    32
  0
VERTEX
  8
2
  5
4E5
 10
158.199
 20
181.808
 30
0.000000
  70
    32
  0
VERTEX
  8
2
  5
4E6
 10
157.942
 20
181.804
 30
0.000000
  70
    32
  0
SEQEND
  8
2
  5
4E7
  0
ENDSEC
  0
EOF
