  0
SECTION
  2
HEADER
  9
$ACADVER
  1
AC1009
  9
$INSBASE
 10
0.0
 20
0.0
 30
0.0
  9
$EXTMIN
 10
89.118195324109593
 20
75.234631245923765
 30
-0.0015258207003583
  9
$EXTMAX
 10
272.23892275621063
 20
219.60215716504101
 30
0.0000000349246037
  9
$LIMMIN
 10
0.0
 20
0.0
  9
$LIMMAX
 10
275.0
 20
175.0
  9
$ORTHOMODE
 70
     0
  9
$REGENMODE
 70
     1
  9
$FILLMODE
 70
     1
  9
$QTEXTMODE
 70
     0
  9
$MIRRTEXT
 70
     0
  9
$DRAGMODE
 70
     2
  9
$LTSCALE
 40
10.0
  9
$OSMODE
 70
   231
  9
$ATTMODE
 70
     1
  9
$TEXTSIZE
 40
0.2
  9
$TRACEWID
 40
0.05
  9
$TEXTSTYLE
  7
STANDARD
  9
$CLAYER
  8
0
  9
$CELTYPE
  6
BYLAYER
  9
$CECOLOR
 62
   256
  9
$DIMSCALE
 40
1.0
  9
$DIMASZ
 40
3.0
  9
$DIMEXO
 40
0.0625
  9
$DIMDLI
 40
0.38
  9
$DIMRND
 40
0.0
  9
$DIMDLE
 40
0.0
  9
$DIMEXE
 40
0.18
  9
$DIMTP
 40
0.0
  9
$DIMTM
 40
0.0
  9
$DIMTXT
 40
3.0
  9
$DIMCEN
 40
0.09
  9
$DIMTSZ
 40
0.0
  9
$DIMTOL
 70
     0
  9
$DIMLIM
 70
     0
  9
$DIMTIH
 70
     1
  9
$DIMTOH
 70
     1
  9
$DIMSE1
 70
     0
  9
$DIMSE2
 70
     0
  9
$DIMTAD
 70
     0
  9
$DIMZIN
 70
     0
  9
$DIMBLK
  1

  9
$DIMASO
 70
     1
  9
$DIMSHO
 70
     1
  9
$DIMPOST
  1

  9
$DIMAPOST
  1

  9
$DIMALT
 70
     0
  9
$DIMALTD
 70
     2
  9
$DIMALTF
 40
25.399999999999999
  9
$DIMLFAC
 40
1.0
  9
$DIMTOFL
 70
     0
  9
$DIMTVP
 40
0.0
  9
$DIMTIX
 70
     0
  9
$DIMSOXD
 70
     0
  9
$DIMSAH
 70
     0
  9
$DIMBLK1
  1

  9
$DIMBLK2
  1

  9
$DIMSTYLE
  2
STANDARD
  9
$DIMCLRD
 70
     0
  9
$DIMCLRE
 70
     0
  9
$DIMCLRT
 70
     0
  9
$DIMTFAC
 40
1.0
  9
$DIMGAP
 40
0.09
  9
$LUNITS
 70
     2
  9
$LUPREC
 70
     4
  9
$SKETCHINC
 40
0.1
  9
$FILLETRAD
 40
0.0
  9
$AUNITS
 70
     0
  9
$AUPREC
 70
     0
  9
$MENU
  1
E:\r13\win\SUPPORT\ACAD
  9
$ELEVATION
 40
0.0
  9
$PELEVATION
 40
0.0
  9
$THICKNESS
 40
0.0
  9
$LIMCHECK
 70
     0
  9
$BLIPMODE
 70
     1
  9
$CHAMFERA
 40
0.0
  9
$CHAMFERB
 40
0.0
  9
$SKPOLY
 70
     0
  9
$TDCREATE
 40
2450480.42991956
  9
$TDUPDATE
 40
2453236.8358112611
  9
$TDINDWG
 40
0.0001667477
  9
$TDUSRTIMER
 40
0.0001667477
  9
$USRTIMER
 70
     1
  9
$ANGBASE
 50
0.0
  9
$ANGDIR
 70
     0
  9
$PDMODE
 70
     0
  9
$PDSIZE
 40
0.0
  9
$PLINEWID
 40
0.0
  9
$COORDS
 70
     0
  9
$SPLFRAME
 70
     0
  9
$SPLINETYPE
 70
     6
  9
$SPLINESEGS
 70
     8
  9
$ATTDIA
 70
     0
  9
$ATTREQ
 70
     1
  9
$HANDLING
 70
-16383
  9
$HANDSEED
  5
4F5
  9
$SURFTAB1
 70
     6
  9
$SURFTAB2
 70
     6
  9
$SURFTYPE
 70
     6
  9
$SURFU
 70
     6
  9
$SURFV
 70
     6
  9
$UCSNAME
  2

  9
$UCSORG
 10
0.0
 20
0.0
 30
0.0
  9
$UCSXDIR
 10
1.0
 20
0.0
 30
0.0
  9
$UCSYDIR
 10
0.0
 20
1.0
 30
0.0
  9
$PUCSNAME
  2

  9
$PUCSORG
 10
0.0
 20
0.0
 30
0.0
  9
$PUCSXDIR
 10
1.0
 20
0.0
 30
0.0
  9
$PUCSYDIR
 10
0.0
 20
1.0
 30
0.0
  9
$USERI1
 70
     4
  9
$USERI2
 70
     1
  9
$USERI3
 70
     1
  9
$USERI4
 70
     0
  9
$USERI5
 70
     0
  9
$USERR1
 40
1.0
  9
$USERR2
 40
3.0
  9
$USERR3
 40
3.0
  9
$USERR4
 40
3.0
  9
$USERR5
 40
10.0
  9
$WORLDVIEW
 70
     1
  9
$SHADEDGE
 70
     3
  9
$SHADEDIF
 70
    70
  9
$TILEMODE
 70
     1
  9
$MAXACTVP
 70
    16
  9
$PLIMCHECK
 70
     0
  9
$PEXTMIN
 10
1.0000000000000000E+020
 20
1.0000000000000000E+020
 30
1.0000000000000000E+020
  9
$PEXTMAX
 10
-1.0000000000000000E+020
 20
-1.0000000000000000E+020
 30
-1.0000000000000000E+020
  9
$PLIMMIN
 10
0.0
 20
0.0
  9
$PLIMMAX
 10
12.0
 20
9.0
  9
$UNITMODE
 70
     0
  9
$VISRETAIN
 70
     0
  9
$PLINEGEN
 70
     0
  9
$PSLTSCALE
 70
     1
  0
ENDSEC
  0
SECTION
  2
TABLES
  0
TABLE
  2
VPORT
 70
     3
  0
VPORT
  2
*ACTIVE
 70
     0
 10
0.0
 20
0.0
 11
1.0
 21
1.0
 12
180.67855904016011
 22
147.41839420548229
 13
0.0
 23
0.0
 14
5.0
 24
5.0
 15
0.0
 25
0.0
 16
0.0
 26
0.0
 36
1.0
 17
0.0
 27
0.0
 37
0.0
 40
218.1062356280637
 41
0.9407114624505929
 42
50.0
 43
0.0
 44
0.0
 50
0.0
 51
0.0
 71
     0
 72
   100
 73
     1
 74
     0
 75
     0
 76
     0
 77
     0
 78
     0
  0
ENDTAB
  0
TABLE
  2
LTYPE
 70
     4
  0
LTYPE
  2
CONTINUOUS
 70
     0
  3
Solid Line
 72
    65
 73
     0
 40
0.0
  0
LTYPE
  2
CENTER
 70
     0
  3
____ _ ____ _ ____ _ ____ _ ____ _ ____ _ ____
 72
    65
 73
     4
 40
2.0
 49
1.25
 49
-0.25
 49
0.25
 49
-0.25
  0
LTYPE
  2
HIDDEN
 70
     0
  3
_ _ _ _ _ _ _ _ _ _ _ _ _ _ _ _ _ _ _ _ _ _ _
 72
    65
 73
     2
 40
0.375
 49
0.25
 49
-0.125
  0
LTYPE
  2
ASSI1
 70
     0
  3
-.-.-.-.-.-.-.-.-.-.-.-.-.-.-.-.-.-.-.-.-.-.-.-
 72
    65
 73
     4
 40
5.5
 49
3.0
 49
-1.0
 49
0.5
 49
-1.0
  0
ENDTAB
  0
TABLE
  2
LAYER
 70
     4
  0
LAYER
  2
0
 70
     0
 62
     7
  6
CONTINUOUS
  0
LAYER
  2
1
 70
     0
 62
     1
  6
CENTER
  0
LAYER
  2
2
 70
     0
 62
     2
  6
HIDDEN
  0
LAYER
  2
ASSE1
 70
     0
 62
     1
  6
ASSI1
  0
ENDTAB
  0
TABLE
  2
STYLE
 70
     1
  0
STYLE
  2
STANDARD
 70
     0
 40
0.0
 41
1.0
 50
0.0
 71
     0
 42
0.2
  3
SIMPLEX
  4
BIGFONT
  0
ENDTAB
  0
TABLE
  2
VIEW
 70
     0
  0
ENDTAB
  0
TABLE
  2
UCS
 70
     0
  0
ENDTAB
  0
TABLE
  2
APPID
 70
     1
  0
APPID
  2
ACAD
 70
     0
  0
ENDTAB
  0
TABLE
  2
DIMSTYLE
 70
     1
  0
DIMSTYLE
  2
STANDARD
 70
     0
  3

  4

  5

  6

  7

 40
1.0
 41
0.18
 42
0.0625
 43
0.38
 44
0.18
 45
0.0
 46
0.0
 47
0.0
 48
0.0
140
0.18
141
0.09
142
0.0
143
25.399999999999999
144
1.0
145
0.0
146
1.0
147
0.09
 71
     0
 72
     0
 73
     1
 74
     1
 75
     0
 76
     0
 77
     0
 78
     0
170
     0
171
     2
172
     0
173
     0
174
     0
175
     0
176
     0
177
     0
178
     0
  0
ENDTAB
  0
ENDSEC
  0
SECTION
  2
BLOCKS
  0
BLOCK
  8
0
  2
$MODEL_SPACE
 70
     0
 10
0.0
 20
0.0
 30
0.0
  3
$MODEL_SPACE
  1

  0
ENDBLK
  5
4A4
  8
0
  0
BLOCK
 67
     1
  8
0
  2
$PAPER_SPACE
 70
     0
 10
0.0
 20
0.0
 30
0.0
  3
$PAPER_SPACE
  1

  0
ENDBLK
  5
4A2
 67
     1
  8
0
  0
ENDSEC
  0
SECTION
  2
ENTITIES
  0
LINE
  5
3B7
  8
1
 10
163.74051535158219
 20
205.4785465610955
 30
0.0
 11
272.23411423393748
 21
205.4785465610955
 31
0.0
  0
LINE
  5
3BF
  8
0
 10
218.26406896352901
 20
216.9785465610955
 30
0.0
 11
175.3880107206592
 21
216.9785465610955
 31
0.0
  0
LINE
  5
3C1
  8
0
 10
218.26406896352901
 20
193.9785465610955
 30
0.0
 11
175.3880107206592
 21
193.9785465610955
 31
0.0
  0
ARC
  5
3E3
  8
0
 10
188.26406896352901
 20
104.247931361388
 30
0.0
 40
6.0
 50
89.999999999999943
 51
180.0
  0
ARC
  5
3E4
  8
0
 10
187.76406896352901
 20
104.747931361388
 30
0.0
 40
19.5
 50
90.0
 51
180.0
  0
LINE
  5
3C7
  8
2
 10
98.248456253269467
 20
80.861366361388008
 30
0.0
 11
98.248456253269467
 21
94.247931361388041
 31
0.0
  0
LINE
  5
3C8
  8
2
 10
103.0215862532695
 20
80.861366361388008
 30
0.0
 11
103.0215862532695
 21
94.247931361388041
 31
0.0
  0
LINE
  5
3CD
  8
2
 10
97.635021253269485
 20
92.247931361388055
 30
0.0
 11
98.248456253269467
 21
93.310431948529057
 31
0.0
  0
LINE
  5
3CF
  8
2
 10
103.6350212532694
 20
92.247931361388055
 30
0.0
 11
103.0215862532695
 21
93.310431948529057
 31
0.0
  0
LINE
  5
3D1
  8
2
 10
104.6350212532694
 20
80.247931361388041
 30
0.0
 11
104.6350212532694
 21
96.635173404941995
 31
0.0
  0
LINE
  5
3D2
  8
2
 10
96.635021253269485
 20
80.247931361388041
 30
0.0
 11
96.635021253269485
 21
96.635173404941995
 31
0.0
  0
LINE
  5
3E9
  8
0
 10
89.135021253269485
 20
117.62187311851829
 30
0.0
 11
89.135021253269485
 21
80.997931361388055
 31
0.0
  0
LINE
  5
3EA
  8
0
 10
112.1350212532694
 20
117.62187311851829
 30
0.0
 11
112.1350212532694
 21
80.997931361388055
 31
0.0
  0
LINE
  5
3FD
  8
1
 10
100.6350212532694
 20
128.747931361388
 30
0.0
 11
100.6350212532694
 21
75.247931361388041
 31
0.0
  0
LINE
  5
3C9
  8
2
 10
103.6350212532694
 20
92.247931361388055
 30
0.0
 11
97.635021253269485
 21
92.247931361388055
 31
0.0
  0
LINE
  5
3CB
  8
2
 10
103.0215862532695
 20
80.861366361388008
 30
0.0
 11
98.248456253269467
 21
80.861366361388008
 31
0.0
  0
LINE
  5
3FB
  8
0
 10
111.3850212532694
 20
80.247931361388041
 30
0.0
 11
89.885021253269485
 21
80.247931361388041
 31
0.0
  0
LINE
  5
3CE
  8
2
 10
97.635021253269485
 20
80.247931361388041
 30
0.0
 11
97.635021253269485
 21
92.247931361388055
 31
0.0
  0
ARC
  5
3FA
  8
0
 10
89.885021253269485
 20
80.997931361388055
 30
0.0
 40
0.75
 50
180.0
 51
269.99999999999989
  0
LINE
  5
3CA
  8
2
 10
98.248456253269467
 20
80.861366361388008
 30
0.0
 11
97.635021253269485
 21
80.247931361388041
 31
0.0
  0
LINE
  5
3D0
  8
2
 10
103.6350212532694
 20
80.247931361388041
 30
0.0
 11
103.6350212532694
 21
92.247931361388055
 31
0.0
  0
LINE
  5
3CC
  8
2
 10
103.6350212532694
 20
80.247931361388041
 30
0.0
 11
103.0215862532695
 21
80.861366361388008
 31
0.0
  0
ARC
  5
3F9
  8
0
 10
111.3850212532694
 20
80.997931361388055
 30
0.0
 40
0.75
 50
270.0
 51
0.0
  0
LINE
  5
3C4
  8
2
 10
98.248456253269467
 20
94.247931361388041
 30
0.0
 11
100.6350212532694
 21
95.625815306576584
 31
0.0
  0
LINE
  5
3C6
  8
2
 10
103.0215862532695
 20
94.247931361388041
 30
0.0
 11
98.248456253269467
 21
94.247931361388041
 31
0.0
  0
LINE
  5
3D6
  8
2
 10
98.635021253269485
 20
98.635173404941938
 30
0.0
 11
100.6350212532694
 21
98.635173404941938
 31
0.0
  0
ARC
  5
3F0
  8
0
 10
100.6350212532694
 20
107.037931361388
 30
0.0
 40
17.210000000000001
 50
57.835591173305261
 51
122.1644088266949
  0
ARC
  5
3F1
  8
2
 10
100.6350212532694
 20
127.45793136138801
 30
0.0
 40
17.210000000000001
 50
237.835591173305
 51
302.16440882669491
  0
ARC
  5
3EC
  8
2
 10
94.135021253269485
 20
117.12187311851829
 30
0.0
 40
5.0
 50
180.0
 51
237.83559117330489
  0
LINE
  5
3D3
  8
2
 10
98.635021253269485
 20
98.635173404941938
 30
0.0
 11
96.635021253269485
 21
96.635173404941952
 31
0.0
  0
ARC
  5
3EB
  8
0
 10
94.135021253269485
 20
117.3739896042578
 30
0.0
 40
5.0
 50
122.164408826695
 51
180.0
  0
LINE
  5
3FC
  8
2
 10
89.135021253269485
 20
117.62187311851829
 30
0.0
 11
89.135021253269485
 21
117.3739896042578
 31
0.0
  0
ARC
  5
3ED
  8
2
 10
107.1350212532694
 20
117.12187311851829
 30
0.0
 40
5.0
 50
302.16440882669502
 51
0.0
  0
LINE
  5
3D4
  8
2
 10
102.6350212532694
 20
98.635173404941938
 30
0.0
 11
104.6350212532694
 21
96.635173404941952
 31
0.0
  0
LINE
  5
3C5
  8
2
 10
103.0215862532695
 20
94.247931361388041
 30
0.0
 11
100.6350212532694
 21
95.625815306576584
 31
0.0
  0
LINE
  5
3D5
  8
2
 10
102.6350212532694
 20
98.635173404941938
 30
0.0
 11
100.6350212532694
 21
98.635173404941938
 31
0.0
  0
ARC
  5
3EE
  8
0
 10
107.1350212532694
 20
117.3739896042578
 30
0.0
 40
5.0
 50
0.0
 51
57.835591173305502
  0
LINE
  5
3EF
  8
2
 10
112.1350212532694
 20
117.3739896042578
 30
0.0
 11
112.1350212532694
 21
117.62187311851829
 31
0.0
  0
LINE
  5
3DE
  8
ASSE1
 10
175.26406896352901
 20
77.72589903205288
 30
0.0
 11
175.26406896352901
 21
100.61314107560671
 31
0.0
  0
LINE
  5
3DF
  8
2
 10
171.26406896352901
 20
80.247931361388041
 30
0.0
 11
171.26406896352901
 21
96.635173404941995
 31
0.0
  0
LINE
  5
3E0
  8
2
 10
179.26406896352901
 20
80.247931361388041
 30
0.0
 11
179.26406896352901
 21
96.635173404941995
 31
0.0
  0
LINE
  5
3E1
  8
0
 10
182.26406896352901
 20
80.997931361388055
 30
0.0
 11
182.26406896352901
 21
104.247931361388
 31
0.0
  0
LINE
  5
3E2
  8
0
 10
168.26406896352901
 20
104.747931361388
 30
0.0
 11
168.26406896352901
 21
80.997931361388055
 31
0.0
  0
LINE
  5
400
  8
2
 10
178.26406896352901
 20
92.247931361388055
 30
0.0
 11
177.650633963529
 21
93.310431948529057
 31
0.0
  0
LINE
  5
402
  8
2
 10
172.26406896352901
 20
92.247931361388055
 30
0.0
 11
172.87750396352899
 21
93.310431948529057
 31
0.0
  0
LINE
  5
407
  8
2
 10
177.650633963529
 20
80.861366361388008
 30
0.0
 11
177.650633963529
 21
94.247931361388041
 31
0.0
  0
LINE
  5
408
  8
2
 10
172.87750396352899
 20
80.861366361388008
 30
0.0
 11
172.87750396352899
 21
94.247931361388041
 31
0.0
  0
LINE
  5
3DC
  8
0
 10
169.01406896352901
 20
80.247931361388041
 30
0.0
 11
181.51406896352901
 21
80.247931361388041
 31
0.0
  0
LINE
  5
405
  8
2
 10
172.87750396352899
 20
80.861366361388008
 30
0.0
 11
172.26406896352901
 21
80.247931361388041
 31
0.0
  0
LINE
  5
406
  8
2
 10
178.26406896352901
 20
92.247931361388055
 30
0.0
 11
172.26406896352901
 21
92.247931361388055
 31
0.0
  0
LINE
  5
401
  8
2
 10
172.26406896352901
 20
80.247931361388041
 30
0.0
 11
172.26406896352901
 21
92.247931361388055
 31
0.0
  0
ARC
  5
3DB
  8
0
 10
169.01406896352901
 20
80.997931361388055
 30
0.0
 40
0.75
 50
180.0
 51
270.0
  0
LINE
  5
3FF
  8
2
 10
178.26406896352901
 20
80.247931361388041
 30
0.0
 11
178.26406896352901
 21
92.247931361388055
 31
0.0
  0
LINE
  5
404
  8
2
 10
177.650633963529
 20
80.861366361388008
 30
0.0
 11
172.87750396352899
 21
80.861366361388008
 31
0.0
  0
LINE
  5
403
  8
2
 10
178.26406896352901
 20
80.247931361388041
 30
0.0
 11
177.650633963529
 21
80.861366361388008
 31
0.0
  0
ARC
  5
3DD
  8
0
 10
181.51406896352901
 20
80.997931361388055
 30
0.0
 40
0.75
 50
270.0
 51
0.0
  0
LINE
  5
3DA
  8
2
 10
173.26406896352901
 20
98.635173404941938
 30
0.0
 11
171.26406896352901
 21
96.635173404941952
 31
0.0
  0
LINE
  5
3D9
  8
2
 10
177.26406896352901
 20
98.635173404941938
 30
0.0
 11
179.26406896352901
 21
96.635173404941952
 31
0.0
  0
LINE
  5
409
  8
2
 10
177.650633963529
 20
94.247931361388041
 30
0.0
 11
172.87750396352899
 21
94.247931361388041
 31
0.0
  0
LINE
  5
40A
  8
2
 10
177.650633963529
 20
94.247931361388041
 30
0.0
 11
175.26406896352901
 21
95.625815306576584
 31
0.0
  0
LINE
  5
40B
  8
2
 10
172.87750396352899
 20
94.247931361388041
 30
0.0
 11
175.26406896352901
 21
95.625815306576584
 31
0.0
  0
LINE
  5
3D8
  8
2
 10
177.26406896352901
 20
98.635173404941938
 30
0.0
 11
175.26406896352901
 21
98.635173404941938
 31
0.0
  0
LINE
  5
3D7
  8
2
 10
173.26406896352901
 20
98.635173404941938
 30
0.0
 11
175.26406896352901
 21
98.635173404941938
 31
0.0
  0
ARC
  5
3C0
  8
0
 10
185.72406896352899
 20
205.4785465610955
 30
0.0
 40
17.210000000000001
 50
147.835591173305
 51
212.1644088266946
  0
LINE
  5
3C3
  8
1
 10
175.26406896352901
 20
198.0346729715732
 30
0.0
 11
175.26406896352901
 21
213.1454033956762
 31
0.0
  0
ARC
  5
3C2
  8
0
 10
175.38801072065911
 20
198.9785465610955
 30
0.0
 40
5.0
 50
212.1644088266944
 51
270.0
  0
ARC
  5
3BE
  8
0
 10
175.3880107206592
 20
211.9785465610955
 30
0.0
 40
5.0
 50
90.0
 51
147.83559117330489
  0
LINE
  5
3F7
  8
0
 10
248.76406896352901
 20
124.247931361388
 30
0.0
 11
218.26406896352901
 21
124.247931361388
 31
0.0
  0
LINE
  5
3F8
  8
0
 10
248.26406896352901
 20
110.247931361388
 30
0.0
 11
218.26406896352901
 21
110.247931361388
 31
0.0
  0
LINE
  5
3E5
  8
0
 10
188.26406896352901
 20
110.247931361388
 30
0.0
 11
218.26406896352901
 21
110.247931361388
 31
0.0
  0
LINE
  5
3E6
  8
0
 10
187.76406896352901
 20
124.247931361388
 30
0.0
 11
218.26406896352901
 21
124.247931361388
 31
0.0
  0
LINE
  5
3FE
  8
1
 10
218.26406896352901
 20
128.747931361388
 30
0.0
 11
218.26406896352901
 21
101.247931361388
 31
0.0
  0
LINE
  5
3F3
  8
0
 10
254.26406896352901
 20
80.997931361388055
 30
0.0
 11
254.26406896352901
 21
104.247931361388
 31
0.0
  0
LINE
  5
3F6
  8
0
 10
268.2640689635291
 20
104.747931361388
 30
0.0
 11
268.2640689635291
 21
80.997931361388055
 31
0.0
  0
LINE
  5
40F
  8
2
 10
263.65063396352912
 20
80.861366361388008
 30
0.0
 11
263.65063396352912
 21
94.247931361388041
 31
0.0
  0
LINE
  5
410
  8
2
 10
258.87750396352902
 20
80.861366361388008
 30
0.0
 11
258.87750396352902
 21
94.247931361388041
 31
0.0
  0
LINE
  5
415
  8
2
 10
264.2640689635291
 20
92.247931361388055
 30
0.0
 11
263.65063396352912
 21
93.310431948529057
 31
0.0
  0
LINE
  5
417
  8
2
 10
258.2640689635291
 20
92.247931361388055
 30
0.0
 11
258.87750396352902
 21
93.310431948529057
 31
0.0
  0
LINE
  5
419
  8
2
 10
257.26406896352898
 20
80.247931361388041
 30
0.0
 11
257.26406896352898
 21
96.635173404941995
 31
0.0
  0
LINE
  5
41A
  8
2
 10
265.26406896352898
 20
80.247931361388041
 30
0.0
 11
265.26406896352898
 21
96.635173404941995
 31
0.0
  0
LINE
  5
41B
  8
ASSE1
 10
261.26406896352898
 20
77.72589903205288
 30
0.0
 11
261.26406896352898
 21
100.61314107560671
 31
0.0
  0
LINE
  5
3F5
  8
0
 10
267.51406896352898
 20
80.247931361388041
 30
0.0
 11
255.01406896352901
 21
80.247931361388041
 31
0.0
  0
LINE
  5
411
  8
2
 10
258.2640689635291
 20
92.247931361388055
 30
0.0
 11
264.2640689635291
 21
92.247931361388055
 31
0.0
  0
LINE
  5
413
  8
2
 10
258.87750396352902
 20
80.861366361388008
 30
0.0
 11
263.65063396352912
 21
80.861366361388008
 31
0.0
  0
LINE
  5
418
  8
2
 10
258.2640689635291
 20
80.247931361388041
 30
0.0
 11
258.2640689635291
 21
92.247931361388055
 31
0.0
  0
ARC
  5
3F2
  8
0
 10
255.01406896352901
 20
80.997931361388055
 30
0.0
 40
0.75
 50
180.0
 51
269.99999999999989
  0
LINE
  5
414
  8
2
 10
258.2640689635291
 20
80.247931361388041
 30
0.0
 11
258.87750396352902
 21
80.861366361388008
 31
0.0
  0
LINE
  5
416
  8
2
 10
264.2640689635291
 20
80.247931361388041
 30
0.0
 11
264.2640689635291
 21
92.247931361388055
 31
0.0
  0
ARC
  5
3F4
  8
0
 10
267.51406896352898
 20
80.997931361388055
 30
0.0
 40
0.75
 50
270.0
 51
0.0
  0
LINE
  5
412
  8
2
 10
263.65063396352912
 20
80.861366361388008
 30
0.0
 11
264.2640689635291
 21
80.247931361388041
 31
0.0
  0
ARC
  5
3E7
  8
0
 10
248.76406896352901
 20
104.747931361388
 30
0.0
 40
19.5
 50
0.0
 51
90.0
  0
LINE
  5
40D
  8
2
 10
258.87750396352902
 20
94.247931361388041
 30
0.0
 11
261.26406896352898
 21
95.625815306576584
 31
0.0
  0
LINE
  5
40E
  8
2
 10
258.87750396352902
 20
94.247931361388041
 30
0.0
 11
263.65063396352912
 21
94.247931361388041
 31
0.0
  0
LINE
  5
41E
  8
2
 10
259.26406896352898
 20
98.635173404941938
 30
0.0
 11
261.26406896352898
 21
98.635173404941938
 31
0.0
  0
LINE
  5
41D
  8
2
 10
259.26406896352898
 20
98.635173404941938
 30
0.0
 11
257.26406896352898
 21
96.635173404941952
 31
0.0
  0
ARC
  5
3E8
  8
0
 10
248.26406896352901
 20
104.247931361388
 30
0.0
 40
6.0
 50
0.0
 51
90.000000000000057
  0
LINE
  5
41C
  8
2
 10
263.26406896352898
 20
98.635173404941938
 30
0.0
 11
265.26406896352898
 21
96.635173404941952
 31
0.0
  0
LINE
  5
40C
  8
2
 10
263.65063396352912
 20
94.247931361388041
 30
0.0
 11
261.26406896352898
 21
95.625815306576584
 31
0.0
  0
LINE
  5
41F
  8
2
 10
263.26406896352898
 20
98.635173404941938
 30
0.0
 11
261.26406896352898
 21
98.635173404941938
 31
0.0
  0
LINE
  5
3B6
  8
1
 10
218.26406896352901
 20
219.5954551322898
 30
0.0
 11
218.26406896352901
 21
192.5954551322898
 31
0.0
  0
LINE
  5
3B8
  8
0
 10
218.26406896352901
 20
216.9785465610955
 30
0.0
 11
261.1401272063988
 21
216.9785465610955
 31
0.0
  0
LINE
  5
3BD
  8
0
 10
218.26406896352901
 20
193.9785465610955
 30
0.0
 11
261.1401272063988
 21
193.9785465610955
 31
0.0
  0
LINE
  5
3B9
  8
1
 10
261.26406896352898
 20
198.0346729715732
 30
0.0
 11
261.26406896352898
 21
213.1454033956762
 31
0.0
  0
ARC
  5
3BA
  8
0
 10
250.80406896352901
 20
205.4785465610955
 30
0.0
 40
17.210000000000001
 50
327.8355911733052
 51
32.164408826694938
  0
ARC
  5
3BC
  8
0
 10
261.1401272063988
 20
198.9785465610955
 30
0.0
 40
5.0
 50
270.0
 51
327.83559117330537
  0
ARC
  5
3BB
  8
0
 10
261.1401272063988
 20
211.9785465610955
 30
0.0
 40
5.0
 50
32.164408826695052
 51
90.0
  0
ENDSEC
  0
EOF
