  0
SECTION
  2
HEADER
  9
$ACADVER
  1
AC1009
  9
$INSBASE
 10
0.0
 20
0.0
 30
0.0
  9
$EXTMIN
 10
56.98013399608908
 20
31.98257512876603
 30
-0.0015258207003583
  9
$EXTMAX
 10
323.026657917102
 20
228.0061346129585
 30
0.0000000349246037
  9
$LIMMIN
 10
0.0
 20
0.0
  9
$LIMMAX
 10
375.0
 20
270.0
  9
$ORTHOMODE
 70
     1
  9
$REGENMODE
 70
     1
  9
$FILLMODE
 70
     1
  9
$QTEXTMODE
 70
     0
  9
$MIRRTEXT
 70
     0
  9
$DRAGMODE
 70
     2
  9
$LTSCALE
 40
10.0
  9
$OSMODE
 70
   231
  9
$ATTMODE
 70
     1
  9
$TEXTSIZE
 40
5.0
  9
$TRACEWID
 40
0.05
  9
$TEXTSTYLE
  7
STANDARD
  9
$CLAYER
  8
0
  9
$CELTYPE
  6
BYLAYER
  9
$CECOLOR
 62
   256
  9
$DIMSCALE
 40
1.0
  9
$DIMASZ
 40
3.0
  9
$DIMEXO
 40
2.0
  9
$DIMDLI
 40
0.38
  9
$DIMRND
 40
0.0
  9
$DIMDLE
 40
0.0
  9
$DIMEXE
 40
2.0
  9
$DIMTP
 40
0.0
  9
$DIMTM
 40
0.0
  9
$DIMTXT
 40
3.2000000000000002
  9
$DIMCEN
 40
0.09
  9
$DIMTSZ
 40
0.0
  9
$DIMTOL
 70
     0
  9
$DIMLIM
 70
     0
  9
$DIMTIH
 70
     0
  9
$DIMTOH
 70
     0
  9
$DIMSE1
 70
     0
  9
$DIMSE2
 70
     0
  9
$DIMTAD
 70
     1
  9
$DIMZIN
 70
     0
  9
$DIMBLK
  1

  9
$DIMASO
 70
     1
  9
$DIMSHO
 70
     0
  9
$DIMPOST
  1

  9
$DIMAPOST
  1

  9
$DIMALT
 70
     0
  9
$DIMALTD
 70
     2
  9
$DIMALTF
 40
25.399999999999999
  9
$DIMLFAC
 40
1.0
  9
$DIMTOFL
 70
     0
  9
$DIMTVP
 40
1.6000000000000001
  9
$DIMTIX
 70
     1
  9
$DIMSOXD
 70
     0
  9
$DIMSAH
 70
     0
  9
$DIMBLK1
  1

  9
$DIMBLK2
  1

  9
$DIMSTYLE
  2
STANDARD
  9
$DIMCLRD
 70
     0
  9
$DIMCLRE
 70
     0
  9
$DIMCLRT
 70
     0
  9
$DIMTFAC
 40
1.0
  9
$DIMGAP
 40
0.09
  9
$LUNITS
 70
     2
  9
$LUPREC
 70
     4
  9
$SKETCHINC
 40
0.1
  9
$FILLETRAD
 40
0.75
  9
$AUNITS
 70
     0
  9
$AUPREC
 70
     0
  9
$MENU
  1
E:\r13\win\SUPPORT\ACAD
  9
$ELEVATION
 40
0.0
  9
$PELEVATION
 40
0.0
  9
$THICKNESS
 40
0.0
  9
$LIMCHECK
 70
     0
  9
$BLIPMODE
 70
     1
  9
$CHAMFERA
 40
0.0
  9
$CHAMFERB
 40
0.0
  9
$SKPOLY
 70
     0
  9
$TDCREATE
 40
2449839.7831365741
  9
$TDUPDATE
 40
2453236.8357485072
  9
$TDINDWG
 40
0.0002446759
  9
$TDUSRTIMER
 40
0.0002446759
  9
$USRTIMER
 70
     1
  9
$ANGBASE
 50
0.0
  9
$ANGDIR
 70
     0
  9
$PDMODE
 70
     0
  9
$PDSIZE
 40
0.0
  9
$PLINEWID
 40
0.0
  9
$COORDS
 70
     0
  9
$SPLFRAME
 70
     0
  9
$SPLINETYPE
 70
     6
  9
$SPLINESEGS
 70
     8
  9
$ATTDIA
 70
     0
  9
$ATTREQ
 70
     1
  9
$HANDLING
 70
-16383
  9
$HANDSEED
  5
18B
  9
$SURFTAB1
 70
     6
  9
$SURFTAB2
 70
     6
  9
$SURFTYPE
 70
     6
  9
$SURFU
 70
     6
  9
$SURFV
 70
     6
  9
$UCSNAME
  2

  9
$UCSORG
 10
0.0
 20
0.0
 30
0.0
  9
$UCSXDIR
 10
1.0
 20
0.0
 30
0.0
  9
$UCSYDIR
 10
0.0
 20
1.0
 30
0.0
  9
$PUCSNAME
  2

  9
$PUCSORG
 10
0.0
 20
0.0
 30
0.0
  9
$PUCSXDIR
 10
1.0
 20
0.0
 30
0.0
  9
$PUCSYDIR
 10
0.0
 20
1.0
 30
0.0
  9
$USERI1
 70
     0
  9
$USERI2
 70
     1
  9
$USERI3
 70
     1
  9
$USERI4
 70
     0
  9
$USERI5
 70
     0
  9
$USERR1
 40
0.0
  9
$USERR2
 40
0.0
  9
$USERR3
 40
0.0
  9
$USERR4
 40
0.0
  9
$USERR5
 40
0.0
  9
$WORLDVIEW
 70
     1
  9
$SHADEDGE
 70
     3
  9
$SHADEDIF
 70
    70
  9
$TILEMODE
 70
     1
  9
$MAXACTVP
 70
    16
  9
$PLIMCHECK
 70
     0
  9
$PEXTMIN
 10
1.0000000000000000E+020
 20
1.0000000000000000E+020
 30
1.0000000000000000E+020
  9
$PEXTMAX
 10
-1.0000000000000000E+020
 20
-1.0000000000000000E+020
 30
-1.0000000000000000E+020
  9
$PLIMMIN
 10
0.0
 20
0.0
  9
$PLIMMAX
 10
12.0
 20
9.0
  9
$UNITMODE
 70
     0
  9
$VISRETAIN
 70
     0
  9
$PLINEGEN
 70
     0
  9
$PSLTSCALE
 70
     0
  0
ENDSEC
  0
SECTION
  2
TABLES
  0
TABLE
  2
VPORT
 70
     3
  0
VPORT
  2
*ACTIVE
 70
     0
 10
0.0
 20
0.0
 11
1.0
 21
1.0
 12
190.00339595659551
 22
129.99435487086231
 13
0.0
 23
0.0
 14
10.0
 24
10.0
 15
10.0
 25
10.0
 16
0.0
 26
0.0
 36
1.0
 17
0.0
 27
0.0
 37
0.0
 40
316.87513832020591
 41
0.9407114624505929
 42
50.0
 43
0.0
 44
0.0
 50
0.0
 51
0.0
 71
     0
 72
   500
 73
     1
 74
     0
 75
     0
 76
     0
 77
     0
 78
     2
  0
ENDTAB
  0
TABLE
  2
LTYPE
 70
     3
  0
LTYPE
  2
CONTINUOUS
 70
     0
  3
Solid Line
 72
    65
 73
     0
 40
0.0
  0
LTYPE
  2
CENTER
 70
     0
  3
____ _ ____ _ ____ _ ____ _ ____ _ ____ _ ____
 72
    65
 73
     4
 40
2.0
 49
1.25
 49
-0.25
 49
0.25
 49
-0.25
  0
LTYPE
  2
HIDDEN
 70
     0
  3
_ _ _ _ _ _ _ _ _ _ _ _ _ _ _ _ _ _ _ _ _ _ _
 72
    65
 73
     2
 40
0.375
 49
0.25
 49
-0.125
  0
ENDTAB
  0
TABLE
  2
LAYER
 70
     4
  0
LAYER
  2
0
 70
     0
 62
     7
  6
CONTINUOUS
  0
LAYER
  2
1
 70
     0
 62
     1
  6
CENTER
  0
LAYER
  2
3
 70
     0
 62
     3
  6
CONTINUOUS
  0
LAYER
  2
2
 70
     0
 62
     2
  6
HIDDEN
  0
ENDTAB
  0
TABLE
  2
STYLE
 70
     1
  0
STYLE
  2
STANDARD
 70
     0
 40
0.0
 41
1.0
 50
0.0
 71
     0
 42
5.0
  3
TXT
  4
BIGFONT
  0
ENDTAB
  0
TABLE
  2
VIEW
 70
     1
  0
VIEW
  2
ALL
 70
     0
 40
270.0
 10
220.99159663865541
 20
135.0
 41
0.0
 11
0.0
 21
0.0
 31
1.0
 12
0.0
 22
0.0
 32
0.0
 42
0.0
 43
0.0
 44
0.0
 50
0.0
 71
     0
  0
ENDTAB
  0
TABLE
  2
UCS
 70
     0
  0
ENDTAB
  0
TABLE
  2
APPID
 70
     1
  0
APPID
  2
ACAD
 70
     0
  0
ENDTAB
  0
TABLE
  2
DIMSTYLE
 70
     1
  0
DIMSTYLE
  2
STANDARD
 70
     0
  3

  4

  5

  6

  7

 40
1.0
 41
0.18
 42
0.0625
 43
0.38
 44
0.18
 45
0.0
 46
0.0
 47
0.0
 48
0.0
140
0.18
141
0.09
142
0.0
143
25.399999999999999
144
1.0
145
0.0
146
1.0
147
0.09
 71
     0
 72
     0
 73
     1
 74
     1
 75
     0
 76
     0
 77
     0
 78
     0
170
     0
171
     2
172
     0
173
     0
174
     0
175
     0
176
     0
177
     0
178
     0
  0
ENDTAB
  0
ENDSEC
  0
SECTION
  2
BLOCKS
  0
BLOCK
  8
0
  2
$MODEL_SPACE
 70
     0
 10
0.0
 20
0.0
 30
0.0
  3
$MODEL_SPACE
  1

  0
ENDBLK
  5
133
  8
0
  0
BLOCK
 67
     1
  8
0
  2
$PAPER_SPACE
 70
     0
 10
0.0
 20
0.0
 30
0.0
  3
$PAPER_SPACE
  1

  0
ENDBLK
  5
131
 67
     1
  8
0
  0
ENDSEC
  0
SECTION
  2
ENTITIES
  0
LINE
  5
36
  8
0
 10
139.25
 20
110.0
 30
0.0
 11
154.75
 21
110.0
 31
0.0
  0
LINE
  5
37
  8
0
 10
241.5
 20
110.7499999999999
 30
0.0
 11
241.5
 21
130.0
 31
0.0
  0
LINE
  5
38
  8
0
 10
218.5
 20
153.0
 30
0.0
 11
161.5
 21
153.0
 31
0.0
  0
LINE
  5
39
  8
0
 10
138.5
 20
130.0
 30
0.0
 11
138.5
 21
110.7499999999999
 31
0.0
  0
LINE
  5
3A
  8
1
 10
190.0
 20
158.0
 30
0.0
 11
190.0
 21
131.0
 31
0.0
  0
LINE
  5
3B
  8
0
 10
225.24999999999989
 20
110.0
 30
0.0
 11
240.75
 21
109.9999999999999
 31
0.0
  0
ARC
  5
3C
  8
0
 10
218.5
 20
130.0
 30
0.0
 40
23.0
 50
0.0
 51
90.0
  0
ARC
  5
3D
  8
0
 10
161.5
 20
130.0
 30
0.0
 40
23.0
 50
90.0
 51
179.99999999999989
  0
ARC
  5
3E
  8
1
 10
218.5
 20
130.0
 30
0.0
 40
14.5
 50
0.0
 51
90.0
  0
ARC
  5
3F
  8
1
 10
161.5
 20
130.0
 30
0.0
 40
14.5
 50
90.0
 51
179.99999999999989
  0
ARC
  5
40
  8
0
 10
218.5
 20
130.0
 30
0.0
 40
6.0
 50
0.0
 51
90.0
  0
ARC
  5
41
  8
0
 10
161.5
 20
130.0
 30
0.0
 40
6.0
 50
90.0
 51
179.99999999999989
  0
LINE
  5
42
  8
1
 10
218.5
 20
144.5
 30
0.0
 11
161.5
 21
144.5
 31
0.0
  0
LINE
  5
43
  8
0
 10
218.5
 20
136.0
 30
0.0
 11
161.5
 21
136.0
 31
0.0
  0
LINE
  5
44
  8
1
 10
233.0
 20
104.9999999999999
 30
0.0
 11
233.0
 21
130.0
 31
0.0
  0
LINE
  5
45
  8
1
 10
147.0
 20
130.0
 30
0.0
 11
147.0
 21
105.0
 31
0.0
  0
LINE
  5
46
  8
0
 10
224.5
 20
110.7499999999999
 30
0.0
 11
224.5
 21
130.0
 31
0.0
  0
LINE
  5
47
  8
0
 10
155.49999999999989
 20
130.0
 30
0.0
 11
155.49999999999989
 21
110.7499999999999
 31
0.0
  0
ARC
  5
48
  8
0
 10
225.24999999999989
 20
110.7499999999999
 30
0.0
 40
0.75
 50
180.0
 51
269.99999999999977
  0
ARC
  5
49
  8
0
 10
154.75
 20
110.7499999999999
 30
0.0
 40
0.75
 50
270.0
 51
0.0
  0
LINE
  5
4A
  8
0
 10
297.0
 20
110.7499999999999
 30
0.0
 11
297.0
 21
144.5
 31
0.0
  0
LINE
  5
4B
  8
0
 10
323.0
 20
144.5
 30
0.0
 11
323.0
 21
110.7499999999999
 31
0.0
  0
LINE
  5
4C
  8
0
 10
322.25
 20
110.0
 30
0.0
 11
297.75
 21
110.0
 31
0.0
  0
LINE
  5
4D
  8
1
 10
310.0
 20
158.0
 30
0.0
 11
310.0
 21
105.0
 31
0.0
  0
ARC
  5
4E
  8
2
 10
310.0
 20
153.0
 30
0.0
 40
17.0
 50
232.07287460156019
 51
307.92712539843978
  0
ARC
  5
4F
  8
0
 10
310.0
 20
136.0
 30
0.0
 40
17.0
 50
52.072874601560223
 51
127.9271253984397
  0
ARC
  5
50
  8
0
 10
303.0
 20
144.5
 30
0.0
 40
6.0
 50
125.0902718713873
 51
180.0
  0
ARC
  5
51
  8
0
 10
317.0
 20
144.5
 30
0.0
 40
6.0
 50
0.0
 51
54.909728128612613
  0
LINE
  5
52
  8
2
 10
307.54149999999993
 20
111.0
 30
0.0
 11
312.45850000000002
 21
111.0
 31
0.0
  0
LINE
  5
53
  8
2
 10
312.45850000000002
 20
111.0
 30
0.0
 11
313.45850000000007
 21
110.0
 31
0.0
  0
LINE
  5
54
  8
2
 10
306.54149999999993
 20
110.0
 30
0.0
 11
307.54149999999993
 21
111.0
 31
0.0
  0
LINE
  5
55
  8
2
 10
306.99999999999989
 20
121.9999999999999
 30
0.0
 11
307.54149999999981
 21
122.9379055122983
 31
0.0
  0
LINE
  5
56
  8
2
 10
312.99999999999977
 20
121.9999999999999
 30
0.0
 11
312.4584999999999
 21
122.9379055122983
 31
0.0
  0
LINE
  5
57
  8
2
 10
312.4584999999999
 20
123.69307389201821
 30
0.0
 11
309.99999999999977
 21
125.1702897238975
 31
0.0
  0
LINE
  5
58
  8
2
 10
307.54149999999981
 20
123.69307389201811
 30
0.0
 11
309.99999999999977
 21
125.1702897238975
 31
0.0
  0
LINE
  5
59
  8
2
 10
307.5414999999997
 20
123.69307389201821
 30
0.0
 11
312.4584999999999
 21
123.69307389201821
 31
0.0
  0
LINE
  5
5A
  8
2
 10
306.99999999999977
 20
121.9999999999999
 30
0.0
 11
312.99999999999977
 21
121.9999999999999
 31
0.0
  0
LINE
  5
5B
  8
2
 10
313.0
 20
110.4585000000001
 30
0.0
 11
312.99999999999977
 21
121.9999999999999
 31
0.0
  0
LINE
  5
5C
  8
2
 10
312.45850000000002
 20
111.0
 30
0.0
 11
312.4584999999999
 21
123.69307389201821
 31
0.0
  0
LINE
  5
5D
  8
2
 10
307.54149999999993
 20
111.0
 30
0.0
 11
307.5414999999997
 21
123.69307389201821
 31
0.0
  0
LINE
  5
5E
  8
2
 10
307.0
 20
110.4585000000001
 30
0.0
 11
306.99999999999977
 21
121.9999999999999
 31
0.0
  0
LINE
  5
5F
  8
2
 10
305.0
 20
126.4999999999999
 30
0.0
 11
305.0
 21
109.9999999999999
 31
0.0
  0
LINE
  5
60
  8
2
 10
315.0
 20
126.4999999999999
 30
0.0
 11
305.0
 21
126.4999999999999
 31
0.0
  0
LINE
  5
61
  8
2
 10
315.0
 20
109.9999999999999
 30
0.0
 11
315.0
 21
126.4999999999999
 31
0.0
  0
ARC
  5
62
  8
0
 10
297.75
 20
110.7499999999999
 30
0.0
 40
0.75
 50
180.0
 51
269.99999999999989
  0
ARC
  5
63
  8
0
 10
322.25
 20
110.7499999999999
 30
0.0
 40
0.75
 50
270.0
 51
0.0
  0
ARC
  5
64
  8
0
 10
139.25
 20
110.7499999999999
 30
0.0
 40
0.75
 50
180.0
 51
269.99999999999989
  0
ARC
  5
65
  8
0
 10
240.75
 20
110.7499999999999
 30
0.0
 40
0.75
 50
270.0
 51
0.0
  0
ARC
  5
66
  8
2
 10
303.0
 20
144.5
 30
0.0
 40
6.0
 50
180.0
 51
234.90972812861261
  0
ARC
  5
67
  8
2
 10
317.0
 20
144.5
 30
0.0
 40
6.0
 50
305.09027187138742
 51
0.0
  0
LINE
  5
68
  8
2
 10
238.0
 20
109.9999999999999
 30
0.0
 11
238.0
 21
126.4999999999999
 31
0.0
  0
LINE
  5
69
  8
2
 10
238.0
 20
126.4999999999999
 30
0.0
 11
228.0
 21
126.4999999999999
 31
0.0
  0
LINE
  5
6A
  8
2
 10
228.0
 20
126.4999999999999
 30
0.0
 11
228.0
 21
109.9999999999999
 31
0.0
  0
LINE
  5
6B
  8
2
 10
230.0
 20
110.4585
 30
0.0
 11
229.9999999999998
 21
121.9999999999999
 31
0.0
  0
LINE
  5
6C
  8
2
 10
230.5414999999999
 20
110.9999999999999
 30
0.0
 11
230.5414999999997
 21
123.69307389201821
 31
0.0
  0
LINE
  5
6D
  8
2
 10
235.45849999999999
 20
110.9999999999999
 30
0.0
 11
235.4584999999999
 21
123.69307389201821
 31
0.0
  0
LINE
  5
6E
  8
2
 10
236.0
 20
110.4585
 30
0.0
 11
235.9999999999998
 21
121.9999999999999
 31
0.0
  0
LINE
  5
6F
  8
2
 10
229.9999999999998
 20
121.9999999999999
 30
0.0
 11
235.9999999999998
 21
121.9999999999999
 31
0.0
  0
LINE
  5
70
  8
2
 10
230.5414999999997
 20
123.69307389201821
 30
0.0
 11
235.4584999999999
 21
123.69307389201821
 31
0.0
  0
LINE
  5
71
  8
2
 10
230.5414999999997
 20
123.69307389201811
 30
0.0
 11
232.9999999999998
 21
125.1702897238974
 31
0.0
  0
LINE
  5
72
  8
2
 10
235.4584999999999
 20
123.69307389201821
 30
0.0
 11
232.9999999999998
 21
125.1702897238974
 31
0.0
  0
LINE
  5
73
  8
2
 10
235.9999999999998
 20
121.9999999999999
 30
0.0
 11
235.4584999999999
 21
122.9379055122983
 31
0.0
  0
LINE
  5
74
  8
2
 10
229.99999999999989
 20
121.9999999999999
 30
0.0
 11
230.54149999999979
 21
122.9379055122983
 31
0.0
  0
LINE
  5
75
  8
2
 10
229.54149999999979
 20
109.9999999999999
 30
0.0
 11
230.5414999999999
 21
111.0
 31
0.0
  0
LINE
  5
76
  8
2
 10
235.45849999999999
 20
110.9999999999999
 30
0.0
 11
236.4585000000001
 21
109.9999999999999
 31
0.0
  0
LINE
  5
77
  8
2
 10
230.5414999999999
 20
110.9999999999999
 30
0.0
 11
235.45849999999999
 21
110.9999999999999
 31
0.0
  0
LINE
  5
78
  8
2
 10
152.0
 20
109.9999999999999
 30
0.0
 11
152.0
 21
126.4999999999999
 31
0.0
  0
LINE
  5
79
  8
2
 10
152.0
 20
126.4999999999999
 30
0.0
 11
142.0
 21
126.4999999999999
 31
0.0
  0
LINE
  5
7A
  8
2
 10
142.0
 20
126.4999999999999
 30
0.0
 11
142.0
 21
109.9999999999999
 31
0.0
  0
LINE
  5
7B
  8
2
 10
144.0
 20
110.4585000000001
 30
0.0
 11
143.9999999999998
 21
121.9999999999999
 31
0.0
  0
LINE
  5
7C
  8
2
 10
144.5414999999999
 20
111.0
 30
0.0
 11
144.5414999999997
 21
123.69307389201821
 31
0.0
  0
LINE
  5
7D
  8
2
 10
149.45849999999999
 20
111.0
 30
0.0
 11
149.4584999999999
 21
123.69307389201821
 31
0.0
  0
LINE
  5
7E
  8
2
 10
150.0
 20
110.4585000000001
 30
0.0
 11
149.9999999999998
 21
121.9999999999999
 31
0.0
  0
LINE
  5
7F
  8
2
 10
143.9999999999998
 20
121.9999999999999
 30
0.0
 11
149.9999999999998
 21
121.9999999999999
 31
0.0
  0
LINE
  5
80
  8
2
 10
144.5414999999997
 20
123.69307389201821
 30
0.0
 11
149.4584999999999
 21
123.69307389201821
 31
0.0
  0
LINE
  5
81
  8
2
 10
144.5414999999997
 20
123.69307389201811
 30
0.0
 11
146.9999999999998
 21
125.1702897238975
 31
0.0
  0
LINE
  5
82
  8
2
 10
149.4584999999999
 20
123.69307389201821
 30
0.0
 11
146.9999999999998
 21
125.1702897238975
 31
0.0
  0
LINE
  5
83
  8
2
 10
149.9999999999998
 20
121.9999999999999
 30
0.0
 11
149.45849999999979
 21
122.9379055122983
 31
0.0
  0
LINE
  5
84
  8
2
 10
143.99999999999989
 20
121.9999999999999
 30
0.0
 11
144.54149999999979
 21
122.9379055122983
 31
0.0
  0
LINE
  5
85
  8
2
 10
143.54149999999979
 20
110.0
 30
0.0
 11
144.5414999999999
 21
111.0
 31
0.0
  0
LINE
  5
86
  8
2
 10
149.45849999999999
 20
111.0
 30
0.0
 11
150.4585000000001
 21
110.0
 31
0.0
  0
LINE
  5
87
  8
2
 10
144.5414999999999
 20
111.0
 30
0.0
 11
149.45849999999999
 21
111.0
 31
0.0
  0
ARC
  5
88
  8
2
 10
77.0
 20
144.5
 30
0.0
 40
6.0
 50
305.09027187138742
 51
0.0
  0
ARC
  5
89
  8
2
 10
63.0
 20
144.5
 30
0.0
 40
6.0
 50
180.0
 51
234.90972812861261
  0
ARC
  5
8A
  8
0
 10
82.249999999999986
 20
110.7499999999999
 30
0.0
 40
0.75
 50
270.0
 51
0.0
  0
ARC
  5
8B
  8
0
 10
57.75
 20
110.7499999999999
 30
0.0
 40
0.75
 50
180.0
 51
269.99999999999989
  0
LINE
  5
8C
  8
2
 10
75.0
 20
109.9999999999999
 30
0.0
 11
75.0
 21
126.4999999999999
 31
0.0
  0
LINE
  5
8D
  8
2
 10
75.0
 20
126.4999999999999
 30
0.0
 11
65.0
 21
126.4999999999999
 31
0.0
  0
LINE
  5
8E
  8
2
 10
65.0
 20
126.4999999999999
 30
0.0
 11
65.000000000000028
 21
109.9999999999999
 31
0.0
  0
LINE
  5
8F
  8
2
 10
67.0
 20
110.4585000000001
 30
0.0
 11
66.999999999999829
 21
121.9999999999999
 31
0.0
  0
LINE
  5
90
  8
2
 10
67.541499999999914
 20
111.0
 30
0.0
 11
67.541499999999758
 21
123.69307389201821
 31
0.0
  0
LINE
  5
91
  8
2
 10
72.4585000000001
 20
111.0
 30
0.0
 11
72.45849999999993
 21
123.69307389201821
 31
0.0
  0
LINE
  5
92
  8
2
 10
73.0
 20
110.4585000000001
 30
0.0
 11
72.999999999999815
 21
121.9999999999999
 31
0.0
  0
LINE
  5
93
  8
2
 10
66.999999999999829
 20
121.9999999999999
 30
0.0
 11
72.999999999999815
 21
121.9999999999999
 31
0.0
  0
LINE
  5
94
  8
2
 10
67.541499999999758
 20
123.69307389201821
 30
0.0
 11
72.45849999999993
 21
123.69307389201821
 31
0.0
  0
LINE
  5
95
  8
2
 10
67.541499999999786
 20
123.69307389201811
 30
0.0
 11
69.999999999999844
 21
125.1702897238975
 31
0.0
  0
LINE
  5
96
  8
2
 10
72.45849999999993
 20
123.69307389201821
 30
0.0
 11
69.999999999999844
 21
125.1702897238975
 31
0.0
  0
LINE
  5
97
  8
2
 10
72.999999999999815
 20
121.9999999999999
 30
0.0
 11
72.458499999999901
 21
122.9379055122983
 31
0.0
  0
LINE
  5
98
  8
2
 10
66.999999999999943
 20
121.9999999999999
 30
0.0
 11
67.541499999999871
 21
122.9379055122983
 31
0.0
  0
LINE
  5
99
  8
2
 10
66.5414999999999
 20
110.0
 30
0.0
 11
67.541499999999957
 21
111.0
 31
0.0
  0
LINE
  5
9A
  8
2
 10
72.4585000000001
 20
111.0
 30
0.0
 11
73.458500000000114
 21
110.0
 31
0.0
  0
LINE
  5
9B
  8
2
 10
67.541499999999914
 20
111.0
 30
0.0
 11
72.458500000000072
 21
111.0
 31
0.0
  0
ARC
  5
9C
  8
0
 10
77.0
 20
144.5
 30
0.0
 40
6.0
 50
0.0
 51
54.909728128612613
  0
ARC
  5
9D
  8
0
 10
63.0
 20
144.5
 30
0.0
 40
6.0
 50
125.0902718713873
 51
180.0
  0
ARC
  5
9E
  8
0
 10
70.0
 20
136.0
 30
0.0
 40
17.0
 50
52.072874601560223
 51
127.9271253984397
  0
ARC
  5
9F
  8
2
 10
70.0
 20
153.0
 30
0.0
 40
17.0
 50
232.07287460156019
 51
307.92712539843978
  0
LINE
  5
A0
  8
1
 10
70.0
 20
158.0
 30
0.0
 11
70.0
 21
105.0
 31
0.0
  0
LINE
  5
A1
  8
0
 10
82.249999999999986
 20
110.0
 30
0.0
 11
57.75
 21
110.0
 31
0.0
  0
LINE
  5
A2
  8
0
 10
83.0
 20
144.5
 30
0.0
 11
83.0
 21
110.7499999999999
 31
0.0
  0
LINE
  5
A3
  8
0
 10
57.0
 20
110.7499999999999
 30
0.0
 11
57.0
 21
144.5
 31
0.0
  0
LINE
  5
A4
  8
0
 10
147.0000009536744
 20
223.0
 30
0.0
 11
233.00000190734841
 21
223.0
 31
0.0
  0
LINE
  5
A5
  8
0
 10
232.9999999999998
 20
197.0
 30
0.0
 11
147.0000009536744
 21
197.0
 31
0.0
  0
LINE
  5
A6
  8
1
 10
190.0
 20
228.0
 30
0.0
 11
190.0
 21
192.0
 31
0.0
  0
LINE
  5
A7
  8
1
 10
246.5
 20
210.0
 30
0.0
 11
133.50000000000011
 21
210.0
 31
0.0
  0
ARC
  5
A8
  8
0
 10
147.00000000000011
 20
217.0
 30
0.0
 40
6.0
 50
89.999999999999986
 51
144.9097281286125
  0
ARC
  5
A9
  8
0
 10
155.50000000000011
 20
210.0
 30
0.0
 40
17.0
 50
142.0728746015601
 51
217.9271253984397
  0
ARC
  5
AA
  8
0
 10
147.00000000000011
 20
203.0
 30
0.0
 40
6.0
 50
215.0902718713873
 51
270.0
  0
ARC
  5
AB
  8
2
 10
147.0000009536744
 20
217.0
 30
0.0
 40
6.0
 50
35.090271871387372
 51
89.999999999999986
  0
ARC
  5
AC
  8
2
 10
138.5000009536744
 20
210.0
 30
0.0
 40
17.0
 50
322.07287460156022
 51
37.927125398439763
  0
ARC
  5
AD
  8
2
 10
147.0000009536744
 20
203.0
 30
0.0
 40
6.0
 50
270.0
 51
324.90972812861253
  0
ARC
  5
AE
  8
2
 10
232.9999999999998
 20
203.0
 30
0.0
 40
6.0
 50
215.0902718713873
 51
270.0
  0
ARC
  5
AF
  8
2
 10
232.9999999999998
 20
217.0
 30
0.0
 40
6.0
 50
89.999999999999986
 51
144.9097281286125
  0
ARC
  5
B0
  8
0
 10
232.9999999999998
 20
203.0
 30
0.0
 40
6.0
 50
270.0
 51
324.90972812861253
  0
ARC
  5
B1
  8
0
 10
232.9999999999998
 20
217.0
 30
0.0
 40
6.0
 50
35.090271871387372
 51
89.999999999999986
  0
ARC
  5
B2
  8
0
 10
224.4999999999998
 20
210.0
 30
0.0
 40
17.0
 50
322.07287460156022
 51
37.927125398439763
  0
ARC
  5
B3
  8
2
 10
241.4999999999998
 20
210.0
 30
0.0
 40
17.0
 50
142.0728746015601
 51
217.9271253984397
  0
LINE
  5
B4
  8
1
 10
147.0
 20
200.0
 30
0.0
 11
147.0
 21
220.0
 31
0.0
  0
ARC
  5
B5
  8
0
 10
241.4999999999998
 20
50.0
 30
0.0
 40
17.0
 50
142.0728746015601
 51
217.9271253984397
  0
ARC
  5
B6
  8
0
 10
224.4999999999998
 20
50.0
 30
0.0
 40
17.0
 50
322.07287460156022
 51
37.927125398439763
  0
ARC
  5
B7
  8
0
 10
232.9999999999998
 20
57.0
 30
0.0
 40
6.0
 50
35.090271871387372
 51
144.90972812861239
  0
ARC
  5
B8
  8
0
 10
232.9999999999998
 20
43.0
 30
0.0
 40
6.0
 50
215.0902718713875
 51
324.90972812861253
  0
ARC
  5
B9
  8
0
 10
138.5000009536744
 20
50.0
 30
0.0
 40
17.0
 50
322.07287460156022
 51
37.927125398439763
  0
ARC
  5
BA
  8
0
 10
147.00000000000011
 20
43.0
 30
0.0
 40
6.0
 50
215.0902718713873
 51
324.90958298274609
  0
ARC
  5
BB
  8
0
 10
155.50000000000011
 20
50.0
 30
0.0
 40
17.0
 50
142.0728746015601
 51
217.9271253984397
  0
ARC
  5
BC
  8
0
 10
147.00000000000011
 20
57.0
 30
0.0
 40
6.0
 50
35.090417017253891
 51
144.9097281286125
  0
LINE
  5
BD
  8
1
 10
246.5
 20
50.0
 30
0.0
 11
133.50000000000011
 21
50.0
 31
0.0
  0
LINE
  5
BE
  8
1
 10
190.0
 20
68.0
 30
0.0
 11
190.0
 21
32.0
 31
0.0
  0
LINE
  5
BF
  8
0
 10
232.9999999999998
 20
37.0
 30
0.0
 11
147.0000009536744
 21
37.0
 31
0.0
  0
LINE
  5
C0
  8
0
 10
147.0000009536744
 20
63.0
 30
0.0
 11
233.00000190734841
 21
63.0
 31
0.0
  0
CIRCLE
  5
C1
  8
0
 10
147.0
 20
50.0
 30
0.0
 40
4.9999999999999849
  0
CIRCLE
  5
C2
  8
0
 10
233.0
 20
50.0
 30
0.0
 40
4.9999999999999849
  0
CIRCLE
  5
C3
  8
3
 10
147.0
 20
50.0
 30
0.0
 40
3.0
  0
CIRCLE
  5
C4
  8
0
 10
147.0
 20
50.0
 30
0.0
 40
2.458499999999999
  0
CIRCLE
  5
C5
  8
3
 10
233.0
 20
50.0
 30
0.0
 40
3.0
  0
CIRCLE
  5
C6
  8
0
 10
233.0
 20
50.0
 30
0.0
 40
2.458499999999999
  0
LINE
  5
D0
  8
1
 10
233.0
 20
200.0
 30
0.0
 11
233.0
 21
220.0
 31
0.0
  0
LINE
  5
D1
  8
1
 10
147.0
 20
59.999999999999993
 30
0.0
 11
147.0
 21
40.000000000000007
 31
0.0
  0
LINE
  5
D2
  8
1
 10
233.0
 20
59.999999999999993
 30
0.0
 11
233.0
 21
40.000000000000007
 31
0.0
  0
ENDSEC
  0
EOF
