  0
SECTION
  2
HEADER
  9
$ACADVER
  1
AC1009
  9
$INSBASE
 10
0.0
 20
0.0
 30
0.0
  9
$EXTMIN
 10
43.474888640145878
 20
65.305124862613184
 30
-0.0015258207003583
  9
$EXTMAX
 10
299.98496622875149
 20
187.67104535380469
 30
0.0000000349246037
  9
$LIMMIN
 10
0.0
 20
0.0
  9
$LIMMAX
 10
275.0
 20
175.0
  9
$ORTHOMODE
 70
     1
  9
$REGENMODE
 70
     1
  9
$FILLMODE
 70
     1
  9
$QTEXTMODE
 70
     0
  9
$MIRRTEXT
 70
     0
  9
$DRAGMODE
 70
     2
  9
$LTSCALE
 40
10.0
  9
$OSMODE
 70
   231
  9
$ATTMODE
 70
     1
  9
$TEXTSIZE
 40
0.2
  9
$TRACEWID
 40
0.05
  9
$TEXTSTYLE
  7
STANDARD
  9
$CLAYER
  8
0
  9
$CELTYPE
  6
BYLAYER
  9
$CECOLOR
 62
   256
  9
$DIMSCALE
 40
1.0
  9
$DIMASZ
 40
3.0
  9
$DIMEXO
 40
0.0625
  9
$DIMDLI
 40
0.38
  9
$DIMRND
 40
0.0
  9
$DIMDLE
 40
0.0
  9
$DIMEXE
 40
0.18
  9
$DIMTP
 40
0.0
  9
$DIMTM
 40
0.0
  9
$DIMTXT
 40
3.0
  9
$DIMCEN
 40
0.09
  9
$DIMTSZ
 40
0.0
  9
$DIMTOL
 70
     0
  9
$DIMLIM
 70
     0
  9
$DIMTIH
 70
     1
  9
$DIMTOH
 70
     1
  9
$DIMSE1
 70
     0
  9
$DIMSE2
 70
     0
  9
$DIMTAD
 70
     0
  9
$DIMZIN
 70
     0
  9
$DIMBLK
  1

  9
$DIMASO
 70
     1
  9
$DIMSHO
 70
     1
  9
$DIMPOST
  1

  9
$DIMAPOST
  1

  9
$DIMALT
 70
     0
  9
$DIMALTD
 70
     2
  9
$DIMALTF
 40
25.399999999999999
  9
$DIMLFAC
 40
1.0
  9
$DIMTOFL
 70
     0
  9
$DIMTVP
 40
0.0
  9
$DIMTIX
 70
     0
  9
$DIMSOXD
 70
     0
  9
$DIMSAH
 70
     0
  9
$DIMBLK1
  1

  9
$DIMBLK2
  1

  9
$DIMSTYLE
  2
STANDARD
  9
$DIMCLRD
 70
     0
  9
$DIMCLRE
 70
     0
  9
$DIMCLRT
 70
     0
  9
$DIMTFAC
 40
1.0
  9
$DIMGAP
 40
0.09
  9
$LUNITS
 70
     2
  9
$LUPREC
 70
     4
  9
$SKETCHINC
 40
0.1
  9
$FILLETRAD
 40
0.0
  9
$AUNITS
 70
     0
  9
$AUPREC
 70
     0
  9
$MENU
  1
E:\r13\win\SUPPORT\ACAD
  9
$ELEVATION
 40
0.0
  9
$PELEVATION
 40
0.0
  9
$THICKNESS
 40
0.0
  9
$LIMCHECK
 70
     0
  9
$BLIPMODE
 70
     1
  9
$CHAMFERA
 40
0.0
  9
$CHAMFERB
 40
0.0
  9
$SKPOLY
 70
     0
  9
$TDCREATE
 40
2450480.4287971058
  9
$TDUPDATE
 40
2453236.83645471
  9
$TDINDWG
 40
0.0002061458
  9
$TDUSRTIMER
 40
0.0002061458
  9
$USRTIMER
 70
     1
  9
$ANGBASE
 50
0.0
  9
$ANGDIR
 70
     0
  9
$PDMODE
 70
     0
  9
$PDSIZE
 40
0.0
  9
$PLINEWID
 40
0.0
  9
$COORDS
 70
     0
  9
$SPLFRAME
 70
     0
  9
$SPLINETYPE
 70
     6
  9
$SPLINESEGS
 70
     8
  9
$ATTDIA
 70
     0
  9
$ATTREQ
 70
     1
  9
$HANDLING
 70
-16383
  9
$HANDSEED
  5
D35
  9
$SURFTAB1
 70
     6
  9
$SURFTAB2
 70
     6
  9
$SURFTYPE
 70
     6
  9
$SURFU
 70
     6
  9
$SURFV
 70
     6
  9
$UCSNAME
  2

  9
$UCSORG
 10
0.0
 20
0.0
 30
0.0
  9
$UCSXDIR
 10
1.0
 20
0.0
 30
0.0
  9
$UCSYDIR
 10
0.0
 20
1.0
 30
0.0
  9
$PUCSNAME
  2

  9
$PUCSORG
 10
0.0
 20
0.0
 30
0.0
  9
$PUCSXDIR
 10
1.0
 20
0.0
 30
0.0
  9
$PUCSYDIR
 10
0.0
 20
1.0
 30
0.0
  9
$USERI1
 70
     4
  9
$USERI2
 70
     1
  9
$USERI3
 70
     1
  9
$USERI4
 70
     0
  9
$USERI5
 70
     0
  9
$USERR1
 40
1.0
  9
$USERR2
 40
3.0
  9
$USERR3
 40
3.0
  9
$USERR4
 40
3.0
  9
$USERR5
 40
10.0
  9
$WORLDVIEW
 70
     1
  9
$SHADEDGE
 70
     3
  9
$SHADEDIF
 70
    70
  9
$TILEMODE
 70
     1
  9
$MAXACTVP
 70
    16
  9
$PLIMCHECK
 70
     0
  9
$PEXTMIN
 10
1.0000000000000000E+020
 20
1.0000000000000000E+020
 30
1.0000000000000000E+020
  9
$PEXTMAX
 10
-1.0000000000000000E+020
 20
-1.0000000000000000E+020
 30
-1.0000000000000000E+020
  9
$PLIMMIN
 10
0.0
 20
0.0
  9
$PLIMMAX
 10
12.0
 20
9.0
  9
$UNITMODE
 70
     0
  9
$VISRETAIN
 70
     0
  9
$PLINEGEN
 70
     0
  9
$PSLTSCALE
 70
     1
  0
ENDSEC
  0
SECTION
  2
TABLES
  0
TABLE
  2
VPORT
 70
     3
  0
VPORT
  2
*ACTIVE
 70
     0
 10
0.0
 20
0.0
 11
1.0
 21
1.0
 12
171.72992743444871
 22
126.48808510820891
 13
0.0
 23
0.0
 14
5.0
 24
5.0
 15
0.0
 25
0.0
 16
0.0
 26
0.0
 36
1.0
 17
0.0
 27
0.0
 37
0.0
 40
305.51673864586178
 41
0.9407114624505929
 42
50.0
 43
0.0
 44
0.0
 50
0.0
 51
0.0
 71
     0
 72
   100
 73
     1
 74
     0
 75
     0
 76
     0
 77
     0
 78
     0
  0
ENDTAB
  0
TABLE
  2
LTYPE
 70
     4
  0
LTYPE
  2
CONTINUOUS
 70
     0
  3
Solid Line
 72
    65
 73
     0
 40
0.0
  0
LTYPE
  2
CENTER
 70
     0
  3
____ _ ____ _ ____ _ ____ _ ____ _ ____ _ ____
 72
    65
 73
     4
 40
2.0
 49
1.25
 49
-0.25
 49
0.25
 49
-0.25
  0
LTYPE
  2
HIDDEN
 70
     0
  3
_ _ _ _ _ _ _ _ _ _ _ _ _ _ _ _ _ _ _ _ _ _ _
 72
    65
 73
     2
 40
0.375
 49
0.25
 49
-0.125
  0
LTYPE
  2
ASSI1
 70
     0
  3
-.-.-.-.-.-.-.-.-.-.-.-.-.-.-.-.-.-.-.-.-.-.-.-
 72
    65
 73
     4
 40
5.5
 49
3.0
 49
-1.0
 49
0.5
 49
-1.0
  0
ENDTAB
  0
TABLE
  2
LAYER
 70
     4
  0
LAYER
  2
0
 70
     0
 62
     7
  6
CONTINUOUS
  0
LAYER
  2
1
 70
     0
 62
     1
  6
CENTER
  0
LAYER
  2
2
 70
     0
 62
     2
  6
HIDDEN
  0
LAYER
  2
ASSE1
 70
     0
 62
     1
  6
ASSI1
  0
ENDTAB
  0
TABLE
  2
STYLE
 70
     1
  0
STYLE
  2
STANDARD
 70
     0
 40
0.0
 41
1.0
 50
0.0
 71
     0
 42
0.2
  3
SIMPLEX
  4
BIGFONT
  0
ENDTAB
  0
TABLE
  2
VIEW
 70
     0
  0
ENDTAB
  0
TABLE
  2
UCS
 70
     0
  0
ENDTAB
  0
TABLE
  2
APPID
 70
     1
  0
APPID
  2
ACAD
 70
     0
  0
ENDTAB
  0
TABLE
  2
DIMSTYLE
 70
     1
  0
DIMSTYLE
  2
STANDARD
 70
     0
  3

  4

  5

  6

  7

 40
1.0
 41
0.18
 42
0.0625
 43
0.38
 44
0.18
 45
0.0
 46
0.0
 47
0.0
 48
0.0
140
0.18
141
0.09
142
0.0
143
25.399999999999999
144
1.0
145
0.0
146
1.0
147
0.09
 71
     0
 72
     0
 73
     1
 74
     1
 75
     0
 76
     0
 77
     0
 78
     0
170
     0
171
     2
172
     0
173
     0
174
     0
175
     0
176
     0
177
     0
178
     0
  0
ENDTAB
  0
ENDSEC
  0
SECTION
  2
BLOCKS
  0
BLOCK
  8
0
  2
$MODEL_SPACE
 70
     0
 10
0.0
 20
0.0
 30
0.0
  3
$MODEL_SPACE
  1

  0
ENDBLK
  5
CE4
  8
0
  0
BLOCK
 67
     1
  8
0
  2
$PAPER_SPACE
 70
     0
 10
0.0
 20
0.0
 30
0.0
  3
$PAPER_SPACE
  1

  0
ENDBLK
  5
CE2
 67
     1
  8
0
  0
ENDSEC
  0
SECTION
  2
ENTITIES
  0
LINE
  5
BFC
  8
0
 10
106.2220049394757
 20
95.060192256964115
 30
0.0
 11
196.2004879760176
 21
95.060192256964115
 31
0.0
  0
LINE
  5
BFD
  8
0
 10
106.2220049394757
 20
68.060192256964115
 30
0.0
 11
196.2004879760176
 21
68.060192256964115
 31
0.0
  0
LINE
  5
C01
  8
1
 10
92.42516495697771
 20
81.560192256964115
 30
0.0
 11
196.20048797601771
 21
81.560192256964115
 31
0.0
  0
LINE
  5
C3F
  8
0
 10
196.2004879760176
 20
183.82939826458929
 30
0.0
 11
124.4720109155604
 21
183.82939826458929
 31
0.0
  0
LINE
  5
C43
  8
0
 10
196.2004879760176
 20
167.82939826458929
 30
0.0
 11
126.9540240825786
 21
167.82939826458929
 31
0.0
  0
LINE
  5
C0F
  8
0
 10
43.474980732119661
 20
175.57840228817389
 30
0.0
 11
43.474980732119597
 21
126.8293982645893
 31
0.0
  0
LINE
  5
C10
  8
0
 10
70.474980732119661
 20
175.57840228817381
 30
0.0
 11
70.474980732119661
 21
126.8293982645893
 31
0.0
  0
LINE
  5
C1A
  8
1
 10
56.974980732119661
 20
187.6657522498391
 30
0.0
 11
56.974980732119661
 21
121.9702511584173
 31
0.0
  0
LINE
  5
C34
  8
2
 10
109.93369422601759
 20
127.59619201458941
 30
0.0
 11
109.93369422601759
 21
141.82939826458929
 31
0.0
  0
LINE
  5
C35
  8
2
 10
103.4672817260176
 20
127.59619201458941
 30
0.0
 11
103.4672817260176
 21
141.82939826458929
 31
0.0
  0
LINE
  5
C3B
  8
2
 10
110.7004879760177
 20
126.8293982645893
 30
0.0
 11
110.7004879760177
 21
139.82939826458929
 31
0.0
  0
LINE
  5
C3D
  8
2
 10
102.7004879760177
 20
126.8293982645893
 30
0.0
 11
102.7004879760177
 21
139.82939826458929
 31
0.0
  0
LINE
  5
C40
  8
0
 10
98.200487976017712
 20
126.8293982645893
 30
0.0
 11
98.47300091589193
 21
158.0562881875471
 31
0.0
  0
LINE
  5
C42
  8
ASSE1
 10
106.7004879760177
 20
150.1316893180751
 30
0.0
 11
106.7004879760177
 21
120.74473082697109
 31
0.0
  0
LINE
  5
C44
  8
0
 10
114.7004879760177
 20
126.8293982645893
 30
0.0
 11
114.9544810058084
 21
155.93411669056991
 31
0.0
  0
LINE
  5
C46
  8
2
 10
101.7004879760177
 20
126.8293982645893
 30
0.0
 11
101.7004879760177
 21
142.82939826458929
 31
0.0
  0
LINE
  5
C4B
  8
2
 10
111.7004879760175
 20
126.8293982645893
 30
0.0
 11
111.7004879760175
 21
142.82939826458929
 31
0.0
  0
LINE
  5
C4C
  8
2
 10
61.974980732119597
 20
126.8293982645893
 30
0.0
 11
61.974980732119597
 21
142.82939826458929
 31
0.0
  0
LINE
  5
C51
  8
2
 10
51.974980732119661
 20
126.8293982645893
 30
0.0
 11
51.974980732119661
 21
142.82939826458929
 31
0.0
  0
LINE
  5
C52
  8
ASSE1
 10
56.974980732119661
 20
150.1316893180751
 30
0.0
 11
56.974980732119661
 21
120.74473082697109
 31
0.0
  0
LINE
  5
C53
  8
2
 10
52.974980732119661
 20
126.8293982645893
 30
0.0
 11
52.974980732119661
 21
139.82939826458929
 31
0.0
  0
LINE
  5
C55
  8
2
 10
60.974980732119661
 20
126.8293982645893
 30
0.0
 11
60.974980732119661
 21
139.82939826458929
 31
0.0
  0
LINE
  5
C5B
  8
2
 10
53.741774482119702
 20
127.59619201458941
 30
0.0
 11
53.741774482119702
 21
141.82939826458929
 31
0.0
  0
LINE
  5
C5C
  8
2
 10
60.208186982119628
 20
127.59619201458941
 30
0.0
 11
60.208186982119628
 21
141.82939826458929
 31
0.0
  0
LINE
  5
C19
  8
0
 10
43.474980732119597
 20
126.8293982645893
 30
0.0
 11
70.474980732119661
 21
126.8293982645893
 31
0.0
  0
LINE
  5
C58
  8
2
 10
53.741774482119702
 20
127.59619201458941
 30
0.0
 11
60.208186982119628
 21
127.59619201458941
 31
0.0
  0
LINE
  5
C57
  8
2
 10
52.974980732119661
 20
126.8293982645893
 30
0.0
 11
53.741774482119702
 21
127.59619201458941
 31
0.0
  0
LINE
  5
C59
  8
2
 10
60.208186982119628
 20
127.59619201458941
 30
0.0
 11
60.974980732119661
 21
126.8293982645893
 31
0.0
  0
ARC
  5
BFE
  8
0
 10
117.9858259878925
 20
81.560192256964115
 30
0.0
 40
19.51282507200062
 50
144.3977846917245
 51
215.60221530827539
  0
LINE
  5
BFA
  8
1
 10
106.7004879760177
 20
92.758093031475482
 30
0.0
 11
106.7004879760177
 21
69.695433252814098
 31
0.0
  0
ARC
  5
BFF
  8
0
 10
106.2220049394757
 20
73.060192256964115
 30
0.0
 40
5.0
 50
214.8825055324406
 51
270.0
  0
LINE
  5
C3E
  8
0
 10
114.7004879760177
 20
126.8293982645893
 30
0.0
 11
98.200487976017712
 21
126.8293982645893
 31
0.0
  0
ARC
  5
C00
  8
0
 10
106.2220049394757
 20
90.060192256964115
 30
0.0
 40
5.0
 50
90.0
 51
145.11749446755931
  0
LINE
  5
C38
  8
2
 10
103.4672817260176
 20
127.59619201458941
 30
0.0
 11
109.93369422601759
 21
127.59619201458941
 31
0.0
  0
LINE
  5
C39
  8
2
 10
102.7004879760177
 20
126.8293982645893
 30
0.0
 11
103.4672817260176
 21
127.59619201458941
 31
0.0
  0
LINE
  5
C37
  8
2
 10
109.93369422601759
 20
127.59619201458941
 30
0.0
 11
110.7004879760177
 21
126.8293982645893
 31
0.0
  0
ARC
  5
C11
  8
2
 10
65.474980732119661
 20
175.57840228817381
 30
0.0
 40
5.0
 50
304.8825055324416
 51
0.0
  0
ARC
  5
C14
  8
0
 10
65.474980732119661
 20
176.08039424100551
 30
0.0
 40
5.0
 50
0.0
 51
55.117494467559339
  0
ARC
  5
C13
  8
0
 10
48.474980732119661
 20
176.08039424100551
 30
0.0
 40
5.0
 50
124.8825055324406
 51
180.0
  0
LINE
  5
C4E
  8
2
 10
53.707031539688501
 20
145.82939826458929
 30
0.0
 11
56.974980732119661
 21
145.82939826458929
 31
0.0
  0
LINE
  5
C5A
  8
2
 10
52.974980732119661
 20
139.82939826458929
 30
0.0
 11
60.974980732119661
 21
139.82939826458929
 31
0.0
  0
LINE
  5
C5D
  8
2
 10
53.741774482119702
 20
141.82939826458929
 30
0.0
 11
60.208186982119628
 21
141.82939826458929
 31
0.0
  0
LINE
  5
C5E
  8
2
 10
53.741774482119702
 20
141.82939826458929
 30
0.0
 11
56.974980732119661
 21
143.69609076337241
 31
0.0
  0
LINE
  5
C4D
  8
2
 10
51.974980732119661
 20
142.82939826458929
 30
0.0
 11
53.707031539688501
 21
145.82939826458929
 31
0.0
  0
LINE
  5
C54
  8
2
 10
52.974980732119661
 20
139.82939826458929
 30
0.0
 11
53.741774482119702
 21
141.15752399851559
 31
0.0
  0
LINE
  5
C50
  8
2
 10
61.974980732119597
 20
142.82939826458929
 30
0.0
 11
60.242929924550772
 21
145.82939826458929
 31
0.0
  0
LINE
  5
C56
  8
2
 10
60.974980732119661
 20
139.82939826458929
 30
0.0
 11
60.208186982119628
 21
141.15752399851559
 31
0.0
  0
LINE
  5
C5F
  8
2
 10
60.208186982119628
 20
141.82939826458929
 30
0.0
 11
56.974980732119661
 21
143.69609076337241
 31
0.0
  0
LINE
  5
C4F
  8
2
 10
60.242929924550772
 20
145.82939826458929
 30
0.0
 11
56.974980732119597
 21
145.82939826458929
 31
0.0
  0
ARC
  5
C15
  8
2
 10
56.974980732119661
 20
187.34222333659011
 30
0.0
 40
19.512825072000648
 50
234.39778469172319
 51
305.60221530827658
  0
ARC
  5
C12
  8
2
 10
48.474980732119661
 20
175.57840228817389
 30
0.0
 40
5.0
 50
180.0
 51
235.1174944675578
  0
LINE
  5
C17
  8
2
 10
43.474980732119661
 20
175.57840228817389
 30
0.0
 11
43.474980732119661
 21
176.08039424100551
 31
0.0
  0
ARC
  5
C16
  8
0
 10
56.974980732119661
 20
164.31657319258869
 30
0.0
 40
19.51282507200062
 50
54.397784691724581
 51
125.6022153082754
  0
ARC
  5
C41
  8
0
 10
124.4720109155604
 20
157.82939826458929
 30
0.0
 40
26.0
 50
90.0
 51
179.5
  0
LINE
  5
C18
  8
2
 10
70.474980732119661
 20
175.57840228817381
 30
0.0
 11
70.474980732119661
 21
176.08039424100551
 31
0.0
  0
ARC
  5
C45
  8
0
 10
126.9540240825786
 20
155.82939826458929
 30
0.0
 40
12.0
 50
90.0
 51
179.5
  0
LINE
  5
C47
  8
2
 10
111.7004879760175
 20
142.82939826458929
 30
0.0
 11
109.9684371684487
 21
145.82939826458929
 31
0.0
  0
LINE
  5
C4A
  8
2
 10
101.7004879760177
 20
142.82939826458929
 30
0.0
 11
103.43253878358649
 21
145.82939826458929
 31
0.0
  0
LINE
  5
C31
  8
2
 10
109.93369422601759
 20
141.82939826458929
 30
0.0
 11
106.7004879760177
 21
143.69609076337241
 31
0.0
  0
LINE
  5
C33
  8
2
 10
103.4672817260176
 20
141.82939826458929
 30
0.0
 11
109.93369422601759
 21
141.82939826458929
 31
0.0
  0
LINE
  5
C36
  8
2
 10
102.7004879760177
 20
139.82939826458929
 30
0.0
 11
110.7004879760177
 21
139.82939826458929
 31
0.0
  0
LINE
  5
C3C
  8
2
 10
102.7004879760177
 20
139.82939826458929
 30
0.0
 11
103.4672817260176
 21
141.15752399851559
 31
0.0
  0
LINE
  5
C32
  8
2
 10
103.4672817260176
 20
141.82939826458929
 30
0.0
 11
106.7004879760177
 21
143.69609076337241
 31
0.0
  0
LINE
  5
C3A
  8
2
 10
110.7004879760177
 20
139.82939826458929
 30
0.0
 11
109.93369422601759
 21
141.15752399851559
 31
0.0
  0
LINE
  5
C48
  8
2
 10
109.9684371684487
 20
145.82939826458929
 30
0.0
 11
106.7004879760176
 21
145.82939826458929
 31
0.0
  0
LINE
  5
C49
  8
2
 10
103.43253878358649
 20
145.82939826458929
 30
0.0
 11
106.7004879760177
 21
145.82939826458929
 31
0.0
  0
LINE
  5
C09
  8
2
 10
280.70048797601771
 20
126.8293982645893
 30
0.0
 11
280.70048797601771
 21
142.82939826458929
 31
0.0
  0
LINE
  5
C0E
  8
2
 10
290.7004879760176
 20
126.8293982645893
 30
0.0
 11
290.7004879760176
 21
142.82939826458929
 31
0.0
  0
LINE
  5
C1C
  8
0
 10
277.7004879760176
 20
126.8293982645893
 30
0.0
 11
277.44649494622678
 21
155.93411669056991
 31
0.0
  0
LINE
  5
C1E
  8
ASSE1
 10
285.7004879760176
 20
150.1316893180751
 30
0.0
 11
285.7004879760176
 21
120.74473082697109
 31
0.0
  0
LINE
  5
C20
  8
0
 10
294.2004879760176
 20
126.8293982645893
 30
0.0
 11
293.92797503614349
 21
158.0562881875471
 31
0.0
  0
LINE
  5
C24
  8
2
 10
289.7004879760176
 20
126.8293982645893
 30
0.0
 11
289.7004879760176
 21
139.82939826458929
 31
0.0
  0
LINE
  5
C26
  8
2
 10
281.7004879760176
 20
126.8293982645893
 30
0.0
 11
281.7004879760176
 21
139.82939826458929
 31
0.0
  0
LINE
  5
C2C
  8
2
 10
288.93369422601762
 20
127.59619201458941
 30
0.0
 11
288.93369422601762
 21
141.82939826458929
 31
0.0
  0
LINE
  5
C2D
  8
2
 10
282.46728172601757
 20
127.59619201458941
 30
0.0
 11
282.46728172601757
 21
141.82939826458929
 31
0.0
  0
LINE
  5
C02
  8
1
 10
299.9758109950576
 20
81.560192256964115
 30
0.0
 11
196.2004879760176
 21
81.560192256964115
 31
0.0
  0
LINE
  5
C06
  8
0
 10
286.17897101255949
 20
68.060192256964115
 30
0.0
 11
196.2004879760176
 21
68.060192256964115
 31
0.0
  0
LINE
  5
C07
  8
0
 10
286.17897101255949
 20
95.060192256964115
 30
0.0
 11
196.2004879760176
 21
95.060192256964115
 31
0.0
  0
LINE
  5
BFB
  8
1
 10
196.2004879760176
 20
95.911979110546213
 30
0.0
 11
196.2004879760176
 21
65.305725001243559
 31
0.0
  0
ARC
  5
C05
  8
0
 10
274.41514996414281
 20
81.560192256964115
 30
0.0
 40
19.51282507200062
 50
324.39778469172461
 51
35.602215308275397
  0
LINE
  5
C08
  8
1
 10
285.7004879760176
 20
92.758093031475482
 30
0.0
 11
285.7004879760176
 21
69.695433252814098
 31
0.0
  0
ARC
  5
C04
  8
0
 10
286.17897101255949
 20
73.060192256964115
 30
0.0
 40
5.0
 50
270.0
 51
325.11749446755931
  0
ARC
  5
C03
  8
0
 10
286.17897101255949
 20
90.060192256964115
 30
0.0
 40
5.0
 50
34.882505532440639
 51
90.0
  0
LINE
  5
C22
  8
0
 10
277.7004879760176
 20
126.8293982645893
 30
0.0
 11
294.2004879760176
 21
126.8293982645893
 31
0.0
  0
LINE
  5
C29
  8
2
 10
288.93369422601762
 20
127.59619201458941
 30
0.0
 11
282.46728172601757
 21
127.59619201458941
 31
0.0
  0
LINE
  5
C2A
  8
2
 10
282.46728172601757
 20
127.59619201458941
 30
0.0
 11
281.7004879760176
 21
126.8293982645893
 31
0.0
  0
LINE
  5
C28
  8
2
 10
289.7004879760176
 20
126.8293982645893
 30
0.0
 11
288.93369422601762
 21
127.59619201458941
 31
0.0
  0
LINE
  5
C1D
  8
0
 10
196.2004879760176
 20
167.82939826458929
 30
0.0
 11
265.44695186945671
 21
167.82939826458929
 31
0.0
  0
LINE
  5
C21
  8
0
 10
196.2004879760176
 20
183.82939826458929
 30
0.0
 11
267.92896503647501
 21
183.82939826458929
 31
0.0
  0
LINE
  5
C23
  8
1
 10
196.2004879760176
 20
187.6657522498391
 30
0.0
 11
196.2004879760176
 21
162.48955620092119
 31
0.0
  0
ARC
  5
C1F
  8
0
 10
267.92896503647501
 20
157.82939826458929
 30
0.0
 40
26.0
 50
0.499999999999969
 51
90.0
  0
ARC
  5
C1B
  8
0
 10
265.44695186945671
 20
155.82939826458929
 30
0.0
 40
12.0
 50
0.499999999999969
 51
90.0
  0
LINE
  5
C0A
  8
2
 10
290.7004879760176
 20
142.82939826458929
 30
0.0
 11
288.9684371684487
 21
145.82939826458929
 31
0.0
  0
LINE
  5
C0D
  8
2
 10
280.70048797601771
 20
142.82939826458929
 30
0.0
 11
282.43253878358649
 21
145.82939826458929
 31
0.0
  0
LINE
  5
C2B
  8
2
 10
289.7004879760176
 20
139.82939826458929
 30
0.0
 11
281.7004879760176
 21
139.82939826458929
 31
0.0
  0
LINE
  5
C2E
  8
2
 10
288.93369422601762
 20
141.82939826458929
 30
0.0
 11
282.46728172601757
 21
141.82939826458929
 31
0.0
  0
LINE
  5
C30
  8
2
 10
282.46728172601757
 20
141.82939826458929
 30
0.0
 11
285.7004879760176
 21
143.69609076337241
 31
0.0
  0
LINE
  5
C27
  8
2
 10
281.7004879760176
 20
139.82939826458929
 30
0.0
 11
282.46728172601757
 21
141.15752399851559
 31
0.0
  0
LINE
  5
C25
  8
2
 10
289.7004879760176
 20
139.82939826458929
 30
0.0
 11
288.93369422601762
 21
141.15752399851559
 31
0.0
  0
LINE
  5
C2F
  8
2
 10
288.93369422601762
 20
141.82939826458929
 30
0.0
 11
285.7004879760176
 21
143.69609076337241
 31
0.0
  0
LINE
  5
C0C
  8
2
 10
282.43253878358649
 20
145.82939826458929
 30
0.0
 11
285.70048797601771
 21
145.82939826458929
 31
0.0
  0
LINE
  5
C0B
  8
2
 10
288.9684371684487
 20
145.82939826458929
 30
0.0
 11
285.7004879760176
 21
145.82939826458929
 31
0.0
  0
ENDSEC
  0
EOF
