  0
SECTION
  2
HEADER
  9
$ACADVER
  1
AC1014
  9
$ACADMAINTVER
 70
     0
  9
$DWGCODEPAGE
  3
ANSI_932
  9
$INSBASE
 10
0.0
 20
0.0
 30
0.0
  9
$EXTMIN
 10
0.700265
 20
0.0
 30
0.0
  9
$EXTMAX
 10
375.576537
 20
275.947021
 30
0.0
  9
$LIMMIN
 10
0.0
 20
0.0
  9
$LIMMAX
 10
375.0
 20
270.0
  9
$ORTHOMODE
 70
     0
  9
$REGENMODE
 70
     1
  9
$FILLMODE
 70
     1
  9
$QTEXTMODE
 70
     0
  9
$MIRRTEXT
 70
     1
  9
$DRAGMODE
 70
     1
  9
$LTSCALE
 40
10.0
  9
$OSMODE
 70
     0
  9
$ATTMODE
 70
     1
  9
$TEXTSIZE
 40
5.5
  9
$TRACEWID
 40
0.05
  9
$TEXTSTYLE
  7
BIGFONT
  9
$CLAYER
  8
10
  9
$CELTYPE
  6
BYLAYER
  9
$CECOLOR
 62
   256
  9
$CELTSCALE
 40
1.0
  9
$DELOBJ
 70
     1
  9
$DISPSILH
 70
     0
  9
$DIMSCALE
 40
1.0
  9
$DIMASZ
 40
3.0
  9
$DIMEXO
 40
2.0
  9
$DIMDLI
 40
0.38
  9
$DIMRND
 40
0.0
  9
$DIMDLE
 40
0.0
  9
$DIMEXE
 40
2.0
  9
$DIMTP
 40
0.0
  9
$DIMTM
 40
0.0
  9
$DIMTXT
 40
3.2
  9
$DIMCEN
 40
0.09
  9
$DIMTSZ
 40
0.0
  9
$DIMTOL
 70
     0
  9
$DIMLIM
 70
     0
  9
$DIMTIH
 70
     0
  9
$DIMTOH
 70
     0
  9
$DIMSE1
 70
     0
  9
$DIMSE2
 70
     0
  9
$DIMTAD
 70
     1
  9
$DIMZIN
 70
     0
  9
$DIMBLK
  1

  9
$DIMASO
 70
     0
  9
$DIMSHO
 70
     0
  9
$DIMPOST
  1

  9
$DIMAPOST
  1

  9
$DIMALT
 70
     0
  9
$DIMALTD
 70
     2
  9
$DIMALTF
 40
25.4
  9
$DIMLFAC
 40
1.0
  9
$DIMTOFL
 70
     0
  9
$DIMTVP
 40
1.6
  9
$DIMTIX
 70
     1
  9
$DIMSOXD
 70
     0
  9
$DIMSAH
 70
     0
  9
$DIMBLK1
  1

  9
$DIMBLK2
  1

  9
$DIMSTYLE
  2
STANDARD
  9
$DIMCLRD
 70
     0
  9
$DIMCLRE
 70
     0
  9
$DIMCLRT
 70
     0
  9
$DIMTFAC
 40
1.0
  9
$DIMGAP
 40
0.09
  9
$DIMJUST
 70
     0
  9
$DIMSD1
 70
     0
  9
$DIMSD2
 70
     0
  9
$DIMTOLJ
 70
     1
  9
$DIMTZIN
 70
     0
  9
$DIMALTZ
 70
     0
  9
$DIMALTTZ
 70
     0
  9
$DIMFIT
 70
     5
  9
$DIMUPT
 70
     0
  9
$DIMUNIT
 70
     2
  9
$DIMDEC
 70
     4
  9
$DIMTDEC
 70
     4
  9
$DIMALTU
 70
     2
  9
$DIMALTTD
 70
     2
  9
$DIMTXSTY
  7
BIGFONT
  9
$DIMAUNIT
 70
     0
  9
$LUNITS
 70
     2
  9
$LUPREC
 70
     4
  9
$SKETCHINC
 40
0.1
  9
$FILLETRAD
 40
0.4
  9
$AUNITS
 70
     0
  9
$AUPREC
 70
     0
  9
$MENU
  1
ACAD
  9
$ELEVATION
 40
0.0
  9
$PELEVATION
 40
0.0
  9
$THICKNESS
 40
0.0
  9
$LIMCHECK
 70
     0
  9
$BLIPMODE
 70
     0
  9
$CHAMFERA
 40
0.0
  9
$CHAMFERB
 40
0.0
  9
$CHAMFERC
 40
0.0
  9
$CHAMFERD
 40
0.0
  9
$SKPOLY
 70
     0
  9
$TDCREATE
 40
2450687.561261574
  9
$TDUPDATE
 40
2453550.764158888
  9
$TDINDWG
 40
0.0001117708
  9
$TDUSRTIMER
 40
0.0001117708
  9
$USRTIMER
 70
     1
  9
$ANGBASE
 50
0.0
  9
$ANGDIR
 70
     0
  9
$PDMODE
 70
     0
  9
$PDSIZE
 40
0.0
  9
$PLINEWID
 40
0.0
  9
$COORDS
 70
     2
  9
$SPLFRAME
 70
     0
  9
$SPLINETYPE
 70
     6
  9
$SPLINESEGS
 70
     8
  9
$ATTDIA
 70
     0
  9
$ATTREQ
 70
     1
  9
$HANDLING
 70
     1
  9
$HANDSEED
  5
18E
  9
$SURFTAB1
 70
     6
  9
$SURFTAB2
 70
     6
  9
$SURFTYPE
 70
     6
  9
$SURFU
 70
     6
  9
$SURFV
 70
     6
  9
$UCSNAME
  2

  9
$UCSORG
 10
0.0
 20
0.0
 30
0.0
  9
$UCSXDIR
 10
1.0
 20
0.0
 30
0.0
  9
$UCSYDIR
 10
0.0
 20
1.0
 30
0.0
  9
$PUCSNAME
  2

  9
$PUCSORG
 10
0.0
 20
0.0
 30
0.0
  9
$PUCSXDIR
 10
1.0
 20
0.0
 30
0.0
  9
$PUCSYDIR
 10
0.0
 20
1.0
 30
0.0
  9
$USERI1
 70
     0
  9
$USERI2
 70
     0
  9
$USERI3
 70
     0
  9
$USERI4
 70
     0
  9
$USERI5
 70
     0
  9
$USERR1
 40
0.0
  9
$USERR2
 40
0.0
  9
$USERR3
 40
0.0
  9
$USERR4
 40
0.0
  9
$USERR5
 40
0.0
  9
$WORLDVIEW
 70
     1
  9
$SHADEDGE
 70
     3
  9
$SHADEDIF
 70
    70
  9
$TILEMODE
 70
     1
  9
$MAXACTVP
 70
    16
  9
$PINSBASE
 10
0.0
 20
0.0
 30
0.0
  9
$PLIMCHECK
 70
     0
  9
$PEXTMIN
 10
1.000000E+20
 20
1.000000E+20
 30
1.000000E+20
  9
$PEXTMAX
 10
-1.000000E+20
 20
-1.000000E+20
 30
-1.000000E+20
  9
$PLIMMIN
 10
0.0
 20
0.0
  9
$PLIMMAX
 10
12.0
 20
9.0
  9
$UNITMODE
 70
     0
  9
$VISRETAIN
 70
     0
  9
$PLINEGEN
 70
     1
  9
$PSLTSCALE
 70
     0
  9
$TREEDEPTH
 70
  3020
  9
$PICKSTYLE
 70
     1
  9
$CMLSTYLE
  2
STANDARD
  9
$CMLJUST
 70
     0
  9
$CMLSCALE
 40
1.0
  9
$PROXYGRAPHICS
 70
     1
  9
$MEASUREMENT
 70
     0
  0
ENDSEC
  0
SECTION
  2
CLASSES
  0
CLASS
  1
DICTIONARYVAR
  2
AcDbDictionaryVar
  3
"AutoCAD"
 90
        0
280
     0
281
     0
  0
CLASS
  1
LWPOLYLINE
  2
AcDbPolyline
  3
"AutoCAD"
 90
        0
280
     0
281
     1
  0
ENDSEC
  0
SECTION
  2
TABLES
  0
TABLE
  2
VPORT
  5
164
100
AcDbSymbolTable
 70
     2
  0
VPORT
  5
18D
100
AcDbSymbolTableRecord
100
AcDbViewportTableRecord
  2
*ACTIVE
 70
     0
 10
0.0
 20
0.0
 11
1.0
 21
1.0
 12
213.979971
 22
149.120757
 13
0.0
 23
0.0
 14
0.5
 24
0.5
 15
1.0
 25
1.0
 16
0.0
 26
0.0
 36
1.0
 17
0.0
 27
0.0
 37
0.0
 40
596.483028
 41
1.434944
 42
50.0
 43
0.0
 44
0.0
 50
0.0
 51
0.0
 71
     0
 72
   500
 73
     1
 74
     1
 75
     1
 76
     1
 77
     0
 78
     1
  0
ENDTAB
  0
TABLE
  2
LTYPE
  5
161
100
AcDbSymbolTable
 70
     3
  0
LTYPE
  5
16D
100
AcDbSymbolTableRecord
100
AcDbLinetypeTableRecord
  2
BYBLOCK
 70
     0
  3

 72
    65
 73
     0
 40
0.0
  0
LTYPE
  5
16E
100
AcDbSymbolTableRecord
100
AcDbLinetypeTableRecord
  2
BYLAYER
 70
     0
  3

 72
    65
 73
     0
 40
0.0
  0
LTYPE
  5
16F
100
AcDbSymbolTableRecord
100
AcDbLinetypeTableRecord
  2
CONTINUOUS
 70
     0
  3
実線
 72
    65
 73
     0
 40
0.0
  0
LTYPE
  5
17B
100
AcDbSymbolTableRecord
100
AcDbLinetypeTableRecord
  2
CENTER
 70
     0
  3
____ _ ____ _ ____ _ ____ _ ____ _ ____ _ ____
 72
    65
 73
     4
 40
2.0
 49
1.25
 74
     0
 49
-0.25
 74
     0
 49
0.25
 74
     0
 49
-0.25
 74
     0
  0
LTYPE
  5
17C
100
AcDbSymbolTableRecord
100
AcDbLinetypeTableRecord
  2
TENSEN1
 70
     0
  3

 72
    65
 73
     2
 40
0.4
 49
0.3
 74
     0
 49
-0.1
 74
     0
  0
ENDTAB
  0
TABLE
  2
LAYER
  5
15E
100
AcDbSymbolTable
 70
     5
  0
LAYER
  5
16A
100
AcDbSymbolTableRecord
100
AcDbLayerTableRecord
  2
0
 70
     0
 62
     7
  6
CONTINUOUS
  0
LAYER
  5
180
100
AcDbSymbolTableRecord
100
AcDbLayerTableRecord
  2
1
 70
     0
 62
     1
  6
CENTER
  0
LAYER
  5
181
100
AcDbSymbolTableRecord
100
AcDbLayerTableRecord
  2
3
 70
     0
 62
     3
  6
CONTINUOUS
  0
LAYER
  5
182
100
AcDbSymbolTableRecord
100
AcDbLayerTableRecord
  2
10
 70
     0
 62
     2
  6
TENSEN1
  0
LAYER
  5
183
100
AcDbSymbolTableRecord
100
AcDbLayerTableRecord
  2
11
 70
     0
 62
     3
  6
CONTINUOUS
  0
ENDTAB
  0
TABLE
  2
STYLE
  5
15F
100
AcDbSymbolTable
 70
     3
  0
STYLE
  5
16B
100
AcDbSymbolTableRecord
100
AcDbTextStyleTableRecord
  2
STANDARD
 70
     0
 40
0.0
 41
1.0
 50
0.0
 71
     0
 42
0.2
  3
TXT
  4
BIGFONT
  0
STYLE
  5
179
100
AcDbSymbolTableRecord
100
AcDbTextStyleTableRecord
  2
07500
 70
     0
 40
0.0
 41
0.75
 50
0.0
 71
     0
 42
6.0
  3
TXT
  4
BIGFONT
  0
STYLE
  5
17A
100
AcDbSymbolTableRecord
100
AcDbTextStyleTableRecord
  2
BIGFONT
 70
     0
 40
5.5
 41
0.8
 50
0.0
 71
     0
 42
5.5
  3

  4
bigfont
  0
ENDTAB
  0
TABLE
  2
VIEW
  5
162
100
AcDbSymbolTable
 70
     1
  0
VIEW
  5
17D
100
AcDbSymbolTableRecord
100
AcDbViewTableRecord
  2
ALL
 70
     0
 40
270.0
 10
220.991597
 20
135.0
 41
0.0
 11
0.0
 21
0.0
 31
1.0
 12
0.0
 22
0.0
 32
0.0
 42
0.0
 43
0.0
 44
0.0
 50
0.0
 71
     0
  0
ENDTAB
  0
TABLE
  2
UCS
  5
163
100
AcDbSymbolTable
 70
     0
  0
ENDTAB
  0
TABLE
  2
APPID
  5
165
100
AcDbSymbolTable
 70
     1
  0
APPID
  5
16C
100
AcDbSymbolTableRecord
100
AcDbRegAppTableRecord
  2
ACAD
 70
     0
  0
ENDTAB
  0
TABLE
  2
DIMSTYLE
  5
166
100
AcDbSymbolTable
 70
     1
  0
DIMSTYLE
105
17F
100
AcDbSymbolTableRecord
100
AcDbDimStyleTableRecord
  2
STANDARD
 70
     0
  3

  4

  5

  6

  7

 40
1.0
 41
0.18
 42
0.0625
 43
0.38
 44
0.18
 45
0.0
 46
0.0
 47
0.0
 48
0.0
140
0.18
141
0.09
142
0.0
143
25.4
144
1.0
145
0.0
146
1.0
147
0.09
 71
     0
 72
     0
 73
     1
 74
     1
 75
     0
 76
     0
 77
     0
 78
     0
170
     0
171
     2
172
     0
173
     0
174
     0
175
     0
176
     0
177
     0
178
     0
270
     2
271
     4
272
     4
273
     2
274
     2
340
17A
275
     0
280
     0
281
     0
282
     0
283
     1
284
     0
285
     0
286
     0
287
     5
288
     0
  0
ENDTAB
  0
TABLE
  2
BLOCK_RECORD
  5
15D
100
AcDbSymbolTable
 70
     1
  0
BLOCK_RECORD
  5
173
100
AcDbSymbolTableRecord
100
AcDbBlockTableRecord
  2
*MODEL_SPACE
  0
BLOCK_RECORD
  5
170
100
AcDbSymbolTableRecord
100
AcDbBlockTableRecord
  2
*PAPER_SPACE
  0
BLOCK_RECORD
  5
178
100
AcDbSymbolTableRecord
100
AcDbBlockTableRecord
  2
QQ
  0
ENDTAB
  0
ENDSEC
  0
SECTION
  2
BLOCKS
  0
BLOCK
  5
186
100
AcDbEntity
  8
0
100
AcDbBlockBegin
  2
*MODEL_SPACE
 70
     0
 10
0.0
 20
0.0
 30
0.0
  3
*MODEL_SPACE
  1

  0
ENDBLK
  5
187
100
AcDbEntity
  8
0
100
AcDbBlockEnd
  0
BLOCK
  5
184
100
AcDbEntity
 67
     1
  8
0
100
AcDbBlockBegin
  2
*PAPER_SPACE
 70
     0
 10
0.0
 20
0.0
 30
0.0
  3
*PAPER_SPACE
  1

  0
ENDBLK
  5
185
100
AcDbEntity
 67
     1
  8
0
100
AcDbBlockEnd
  0
BLOCK
  5
2C
100
AcDbEntity
  8
0
100
AcDbBlockBegin
  2
QQ
 70
     0
 10
270.0
 20
0.0
 30
0.0
  3
QQ
  1

  0
LINE
  5
2D
100
AcDbEntity
  8
11
100
AcDbLine
 10
173.0
 20
36.0
 30
0.0
 11
270.0
 21
36.0
 31
0.0
  0
TEXT
  5
2E
100
AcDbEntity
  8
11
100
AcDbText
 10
175.0
 20
32.5
 30
0.0
 40
2.5
  1
部品名称
100
AcDbText
  0
LINE
  5
2F
100
AcDbEntity
  8
11
100
AcDbLine
 10
173.0
 20
36.0
 30
0.0
 11
173.0
 21
0.0
 31
0.0
  0
LINE
  5
30
100
AcDbEntity
  8
11
100
AcDbLine
 10
173.0
 20
24.0
 30
0.0
 11
270.0
 21
24.0
 31
0.0
  0
TEXT
  5
31
100
AcDbEntity
  8
11
100
AcDbText
 10
175.0
 20
20.5
 30
0.0
 40
2.5
  1
品番
100
AcDbText
  0
LINE
  5
32
100
AcDbEntity
  8
11
100
AcDbLine
 10
173.0
 20
12.0
 30
0.0
 11
270.0
 21
12.0
 31
0.0
  0
TEXT
  5
33
100
AcDbEntity
  8
11
100
AcDbText
 10
175.0
 20
8.5
 30
0.0
 40
2.5
  1
尺度
100
AcDbText
  0
TEXT
  5
34
100
AcDbEntity
  8
11
100
AcDbText
 10
200.0
 20
8.5
 30
0.0
 40
2.5
  1
図番
100
AcDbText
  0
LINE
  5
35
100
AcDbEntity
  8
11
100
AcDbLine
 10
198.0
 20
0.0
 30
0.0
 11
198.0
 21
12.0
 31
0.0
  0
ENDBLK
  5
36
100
AcDbEntity
  8
0
100
AcDbBlockEnd
  0
ENDSEC
  0
SECTION
  2
ENTITIES
  0
LINE
  5
B7
100
AcDbEntity
  8
1
100
AcDbLine
 10
172.0
 20
177.0
 30
0.0
 11
172.0
 21
138.0
 31
0.0
  0
LINE
  5
BF
100
AcDbEntity
  8
0
100
AcDbLine
 10
111.0
 20
144.5
 30
0.0
 11
112.0
 21
163.5
 31
0.0
  0
LINE
  5
C0
100
AcDbEntity
  8
0
100
AcDbLine
 10
233.0
 20
144.5
 30
0.0
 11
232.0
 21
163.5
 31
0.0
  0
ARC
  5
C1
100
AcDbEntity
  8
0
100
AcDbCircle
 10
172.0
 20
-32.0
 30
0.0
 40
204.5
100
AcDbArc
 50
72.938469
 51
107.061531
  0
LINE
  5
C2
100
AcDbEntity
  8
1
100
AcDbLine
 10
121.0
 20
139.0
 30
0.0
 11
121.0
 21
159.5
 31
0.0
  0
LINE
  5
C7
100
AcDbEntity
  8
0
100
AcDbLine
 10
129.0
 20
144.5
 30
0.0
 11
129.5
 21
151.5
 31
0.0
  0
LINE
  5
C9
100
AcDbEntity
  8
0
100
AcDbLine
 10
215.0
 20
144.5
 30
0.0
 11
214.5
 21
151.5
 31
0.0
  0
ARC
  5
CF
100
AcDbEntity
  8
0
100
AcDbCircle
 10
172.0
 20
29.375
 30
0.0
 40
138.125
100
AcDbArc
 50
76.177546
 51
103.822454
  0
ARC
  5
D0
100
AcDbEntity
  8
0
100
AcDbCircle
 10
202.295455
 20
151.598485
 30
0.0
 40
12.204943
100
AcDbArc
 50
359.53766
 51
77.19731
  0
ARC
  5
D1
100
AcDbEntity
  8
0
100
AcDbCircle
 10
141.704545
 20
151.598485
 30
0.0
 40
12.204943
100
AcDbArc
 50
102.80269
 51
180.46234
  0
LINE
  5
D2
100
AcDbEntity
  8
0
100
AcDbLine
 10
233.0
 20
144.5
 30
0.0
 11
215.0
 21
144.5
 31
0.0
  0
LINE
  5
D3
100
AcDbEntity
  8
0
100
AcDbLine
 10
111.0
 20
144.5
 30
0.0
 11
129.0
 21
144.5
 31
0.0
  0
LINE
  5
E2
100
AcDbEntity
  8
1
100
AcDbLine
 10
223.0
 20
139.5
 30
0.0
 11
223.0
 21
160.0
 31
0.0
  0
LINE
  5
E9
100
AcDbEntity
  8
1
100
AcDbLine
 10
107.0
 20
208.0
 30
0.0
 11
237.0
 21
208.0
 31
0.0
  0
LINE
  5
EA
100
AcDbEntity
  8
1
100
AcDbLine
 10
172.0
 20
196.0
 30
0.0
 11
172.0
 21
219.5
 31
0.0
  0
LINE
  5
EE
100
AcDbEntity
  8
0
100
AcDbLine
 10
233.0
 20
203.5
 30
0.0
 11
233.0
 21
212.5
 31
0.0
  0
LINE
  5
EF
100
AcDbEntity
  8
0
100
AcDbLine
 10
111.0
 20
203.5
 30
0.0
 11
111.0
 21
212.5
 31
0.0
  0
ARC
  5
F0
100
AcDbEntity
  8
0
100
AcDbCircle
 10
172.0
 20
-1647.5
 30
0.0
 40
1861.0
100
AcDbArc
 50
88.121618
 51
91.878382
  0
ARC
  5
F1
100
AcDbEntity
  8
0
100
AcDbCircle
 10
172.0
 20
2063.5
 30
0.0
 40
1861.0
100
AcDbArc
 50
268.121618
 51
271.878382
  0
ARC
  5
FA
100
AcDbEntity
  8
0
100
AcDbCircle
 10
172.0
 20
1950.0
 30
0.0
 40
1861.0
100
AcDbArc
 50
268.121618
 51
271.878382
  0
ARC
  5
FB
100
AcDbEntity
  8
0
100
AcDbCircle
 10
172.0
 20
-1761.0
 30
0.0
 40
1861.0
100
AcDbArc
 50
88.121618
 51
91.878382
  0
LINE
  5
FC
100
AcDbEntity
  8
1
100
AcDbLine
 10
107.0
 20
94.5
 30
0.0
 11
237.0
 21
94.5
 31
0.0
  0
ARC
  5
FD
100
AcDbEntity
  8
0
100
AcDbCircle
 10
107.5
 20
94.0
 30
0.0
 40
21.505813
100
AcDbArc
 50
347.942909
 51
14.7811
  0
LINE
  5
FE
100
AcDbEntity
  8
1
100
AcDbLine
 10
121.0
 20
85.5
 30
0.0
 11
121.0
 21
103.0
 31
0.0
  0
LINE
  5
FF
100
AcDbEntity
  8
0
100
AcDbLine
 10
111.0
 20
90.0
 30
0.0
 11
111.0
 21
99.0
 31
0.0
  0
CIRCLE
  5
100
100
AcDbEntity
  8
0
100
AcDbCircle
 10
121.0
 20
94.5
 30
0.0
 40
2.0
  0
CIRCLE
  5
101
100
AcDbEntity
  8
0
100
AcDbCircle
 10
121.0
 20
94.5
 30
0.0
 40
3.0
  0
LINE
  5
102
100
AcDbEntity
  8
1
100
AcDbLine
 10
172.0
 20
82.5
 30
0.0
 11
172.0
 21
106.0
 31
0.0
  0
ARC
  5
103
100
AcDbEntity
  8
0
100
AcDbCircle
 10
236.5
 20
94.0
 30
0.0
 40
21.505813
100
AcDbArc
 50
165.2189
 51
192.057091
  0
LINE
  5
104
100
AcDbEntity
  8
1
100
AcDbLine
 10
223.0
 20
85.5
 30
0.0
 11
223.0
 21
103.0
 31
0.0
  0
CIRCLE
  5
105
100
AcDbEntity
  8
0
100
AcDbCircle
 10
223.0
 20
94.5
 30
0.0
 40
3.0
  0
CIRCLE
  5
106
100
AcDbEntity
  8
0
100
AcDbCircle
 10
223.0
 20
94.5
 30
0.0
 40
2.0
  0
LINE
  5
107
100
AcDbEntity
  8
0
100
AcDbLine
 10
233.0
 20
90.0
 30
0.0
 11
233.0
 21
99.0
 31
0.0
  0
LINE
  5
108
100
AcDbEntity
  8
1
100
AcDbLine
 10
282.0
 20
177.0
 30
0.0
 11
282.0
 21
138.5
 31
0.0
  0
LINE
  5
109
100
AcDbEntity
  8
0
100
AcDbLine
 10
276.5
 20
144.5
 30
0.0
 11
287.5
 21
144.5
 31
0.0
  0
LINE
  5
10C
100
AcDbEntity
  8
0
100
AcDbLine
 10
277.5
 20
172.5
 30
0.0
 11
286.5
 21
172.5
 31
0.0
  0
LINE
  5
10D
100
AcDbEntity
  8
0
100
AcDbLine
 10
286.5
 20
172.5
 30
0.0
 11
287.5
 21
144.5
 31
0.0
  0
LINE
  5
10E
100
AcDbEntity
  8
0
100
AcDbLine
 10
277.5
 20
172.5
 30
0.0
 11
276.5
 21
144.5
 31
0.0
  0
LINE
  5
11D
100
AcDbEntity
  8
1
100
AcDbLine
 10
61.5
 20
177.0
 30
0.0
 11
61.5
 21
141.0
 31
0.0
  0
LINE
  5
124
100
AcDbEntity
  8
0
100
AcDbLine
 10
57.0
 20
172.5
 30
0.0
 11
56.0
 21
144.5
 31
0.0
  0
LINE
  5
125
100
AcDbEntity
  8
0
100
AcDbLine
 10
66.0
 20
172.5
 30
0.0
 11
67.0
 21
144.5
 31
0.0
  0
LINE
  5
126
100
AcDbEntity
  8
0
100
AcDbLine
 10
56.0
 20
144.5
 30
0.0
 11
67.0
 21
144.5
 31
0.0
  0
LINE
  5
127
100
AcDbEntity
  8
0
100
AcDbLine
 10
57.0
 20
172.5
 30
0.0
 11
66.0
 21
172.5
 31
0.0
  0
LINE
  5
12C
100
AcDbEntity
  8
10
100
AcDbLine
 10
64.5
 20
144.5
 30
0.0
 11
64.5
 21
154.5
 31
0.0
  0
LINE
  5
12F
100
AcDbEntity
  8
10
100
AcDbLine
 10
64.5
 20
154.5
 30
0.0
 11
63.5
 21
155.5
 31
0.0
  0
LINE
  5
130
100
AcDbEntity
  8
10
100
AcDbLine
 10
63.5
 20
155.5
 30
0.0
 11
61.5
 21
155.5
 31
0.0
  0
LINE
  5
131
100
AcDbEntity
  8
10
100
AcDbLine
 10
64.5
 20
154.5
 30
0.0
 11
61.5
 21
154.5
 31
0.0
  0
LINE
  5
132
100
AcDbEntity
  8
10
100
AcDbLine
 10
63.5
 20
155.5
 30
0.0
 11
63.5
 21
144.5
 31
0.0
  0
LINE
  5
133
100
AcDbEntity
  8
10
100
AcDbLine
 10
59.5
 20
155.5
 30
0.0
 11
59.5
 21
144.5
 31
0.0
  0
LINE
  5
134
100
AcDbEntity
  8
10
100
AcDbLine
 10
58.5
 20
144.5
 30
0.0
 11
58.5
 21
154.5
 31
0.0
  0
LINE
  5
135
100
AcDbEntity
  8
10
100
AcDbLine
 10
58.5
 20
154.5
 30
0.0
 11
61.5
 21
154.5
 31
0.0
  0
LINE
  5
136
100
AcDbEntity
  8
10
100
AcDbLine
 10
59.5
 20
155.5
 30
0.0
 11
61.5
 21
155.5
 31
0.0
  0
LINE
  5
137
100
AcDbEntity
  8
10
100
AcDbLine
 10
58.5
 20
154.5
 30
0.0
 11
59.5
 21
155.5
 31
0.0
  0
LINE
  5
138
100
AcDbEntity
  8
10
100
AcDbLine
 10
118.0
 20
144.5
 30
0.0
 11
118.0
 21
154.5
 31
0.0
  0
LINE
  5
139
100
AcDbEntity
  8
10
100
AcDbLine
 10
119.0
 20
155.5
 30
0.0
 11
119.0
 21
144.5
 31
0.0
  0
LINE
  5
13A
100
AcDbEntity
  8
10
100
AcDbLine
 10
123.0
 20
155.5
 30
0.0
 11
123.0
 21
144.5
 31
0.0
  0
LINE
  5
13B
100
AcDbEntity
  8
10
100
AcDbLine
 10
124.0
 20
144.5
 30
0.0
 11
124.0
 21
154.5
 31
0.0
  0
LINE
  5
13C
100
AcDbEntity
  8
10
100
AcDbLine
 10
124.0
 20
154.5
 30
0.0
 11
121.0
 21
154.5
 31
0.0
  0
LINE
  5
13D
100
AcDbEntity
  8
10
100
AcDbLine
 10
123.0
 20
155.5
 30
0.0
 11
121.0
 21
155.5
 31
0.0
  0
LINE
  5
13E
100
AcDbEntity
  8
10
100
AcDbLine
 10
118.0
 20
154.5
 30
0.0
 11
119.0
 21
155.5
 31
0.0
  0
LINE
  5
13F
100
AcDbEntity
  8
10
100
AcDbLine
 10
118.0
 20
154.5
 30
0.0
 11
121.0
 21
154.5
 31
0.0
  0
LINE
  5
140
100
AcDbEntity
  8
10
100
AcDbLine
 10
119.0
 20
155.5
 30
0.0
 11
121.0
 21
155.5
 31
0.0
  0
LINE
  5
141
100
AcDbEntity
  8
10
100
AcDbLine
 10
124.0
 20
154.5
 30
0.0
 11
123.0
 21
155.5
 31
0.0
  0
LINE
  5
142
100
AcDbEntity
  8
10
100
AcDbLine
 10
226.0
 20
144.5
 30
0.0
 11
226.0
 21
154.5
 31
0.0
  0
LINE
  5
143
100
AcDbEntity
  8
10
100
AcDbLine
 10
225.0
 20
155.5
 30
0.0
 11
225.0
 21
144.5
 31
0.0
  0
LINE
  5
144
100
AcDbEntity
  8
10
100
AcDbLine
 10
221.0
 20
155.5
 30
0.0
 11
221.0
 21
144.5
 31
0.0
  0
LINE
  5
145
100
AcDbEntity
  8
10
100
AcDbLine
 10
220.0
 20
144.5
 30
0.0
 11
220.0
 21
154.5
 31
0.0
  0
LINE
  5
146
100
AcDbEntity
  8
10
100
AcDbLine
 10
225.0
 20
155.5
 30
0.0
 11
223.0
 21
155.5
 31
0.0
  0
LINE
  5
147
100
AcDbEntity
  8
10
100
AcDbLine
 10
226.0
 20
154.5
 30
0.0
 11
223.0
 21
154.5
 31
0.0
  0
LINE
  5
148
100
AcDbEntity
  8
10
100
AcDbLine
 10
220.0
 20
154.5
 30
0.0
 11
223.0
 21
154.5
 31
0.0
  0
LINE
  5
149
100
AcDbEntity
  8
10
100
AcDbLine
 10
220.0
 20
154.5
 30
0.0
 11
221.0
 21
155.5
 31
0.0
  0
LINE
  5
14A
100
AcDbEntity
  8
10
100
AcDbLine
 10
221.0
 20
155.5
 30
0.0
 11
223.0
 21
155.5
 31
0.0
  0
LINE
  5
14B
100
AcDbEntity
  8
10
100
AcDbLine
 10
226.0
 20
154.5
 30
0.0
 11
225.0
 21
155.5
 31
0.0
  0
LINE
  5
14C
100
AcDbEntity
  8
10
100
AcDbLine
 10
279.0
 20
144.5
 30
0.0
 11
279.0
 21
154.5
 31
0.0
  0
LINE
  5
14D
100
AcDbEntity
  8
10
100
AcDbLine
 10
280.0
 20
155.5
 30
0.0
 11
280.0
 21
144.5
 31
0.0
  0
LINE
  5
14E
100
AcDbEntity
  8
10
100
AcDbLine
 10
284.0
 20
155.5
 30
0.0
 11
284.0
 21
144.5
 31
0.0
  0
LINE
  5
14F
100
AcDbEntity
  8
10
100
AcDbLine
 10
285.0
 20
144.5
 30
0.0
 11
285.0
 21
154.5
 31
0.0
  0
LINE
  5
150
100
AcDbEntity
  8
10
100
AcDbLine
 10
285.0
 20
154.5
 30
0.0
 11
282.0
 21
154.5
 31
0.0
  0
LINE
  5
151
100
AcDbEntity
  8
10
100
AcDbLine
 10
284.0
 20
155.5
 30
0.0
 11
282.0
 21
155.5
 31
0.0
  0
LINE
  5
152
100
AcDbEntity
  8
10
100
AcDbLine
 10
279.0
 20
154.5
 30
0.0
 11
280.0
 21
155.5
 31
0.0
  0
LINE
  5
153
100
AcDbEntity
  8
10
100
AcDbLine
 10
279.0
 20
154.5
 30
0.0
 11
282.0
 21
154.5
 31
0.0
  0
LINE
  5
154
100
AcDbEntity
  8
10
100
AcDbLine
 10
280.0
 20
155.5
 30
0.0
 11
282.0
 21
155.5
 31
0.0
  0
LINE
  5
155
100
AcDbEntity
  8
10
100
AcDbLine
 10
285.0
 20
154.5
 30
0.0
 11
284.0
 21
155.5
 31
0.0
  0
ENDSEC
  0
SECTION
  2
OBJECTS
  0
DICTIONARY
  5
168
100
AcDbDictionary
  3
ACAD_GROUP
350
169
  3
ACAD_MLINESTYLE
350
176
  3
ACDBVARIABLEDICTIONARY
350
188
  0
DICTIONARY
  5
169
102
{ACAD_REACTORS
330
168
102
}
100
AcDbDictionary
  0
DICTIONARY
  5
176
102
{ACAD_REACTORS
330
168
102
}
100
AcDbDictionary
  3
STANDARD
350
177
  0
DICTIONARY
  5
188
102
{ACAD_REACTORS
330
168
102
}
100
AcDbDictionary
  3
DIMADEC
350
189
  0
MLINESTYLE
  5
177
102
{ACAD_REACTORS
330
176
102
}
100
AcDbMlineStyle
  2
STANDARD
 70
     0
  3

 62
   256
 51
90.0
 52
90.0
 71
     2
 49
0.5
 62
   256
  6
BYLAYER
 49
-0.5
 62
   256
  6
BYLAYER
  0
DICTIONARYVAR
  5
189
102
{ACAD_REACTORS
330
188
102
}
100
DictionaryVariables
280
     0
  1
0
  0
ENDSEC
  0
EOF
