  0
SECTION
  2
HEADER
  9
$ACADVER
  1
AC1009
  9
$INSBASE
 10
0.0
 20
0.0
 30
0.0
  9
$EXTMIN
 10
57.0
 20
57.75
 30
0.0
  9
$EXTMAX
 10
194.0
 20
147.75
 30
0.0
  9
$LIMMIN
 10
0.0
 20
0.0
  9
$LIMMAX
 10
265.0
 20
200.0
  9
$ORTHOMODE
 70
     1
  9
$REGENMODE
 70
     1
  9
$FILLMODE
 70
     1
  9
$QTEXTMODE
 70
     0
  9
$MIRRTEXT
 70
     1
  9
$DRAGMODE
 70
     2
  9
$LTSCALE
 40
1.0
  9
$OSMODE
 70
     0
  9
$ATTMODE
 70
     1
  9
$TEXTSIZE
 40
2.5
  9
$TRACEWID
 40
1.0
  9
$TEXTSTYLE
  7
STANDARD
  9
$CLAYER
  8
2
  9
$CELTYPE
  6
BYLAYER
  9
$CECOLOR
 62
   256
  9
$DIMSCALE
 40
1.0
  9
$DIMASZ
 40
2.5
  9
$DIMEXO
 40
0.625
  9
$DIMDLI
 40
3.75
  9
$DIMRND
 40
0.0
  9
$DIMDLE
 40
0.0
  9
$DIMEXE
 40
1.25
  9
$DIMTP
 40
0.0
  9
$DIMTM
 40
0.0
  9
$DIMTXT
 40
2.5
  9
$DIMCEN
 40
2.5
  9
$DIMTSZ
 40
0.0
  9
$DIMTOL
 70
     0
  9
$DIMLIM
 70
     0
  9
$DIMTIH
 70
     0
  9
$DIMTOH
 70
     0
  9
$DIMSE1
 70
     0
  9
$DIMSE2
 70
     0
  9
$DIMTAD
 70
     1
  9
$DIMZIN
 70
     8
  9
$DIMBLK
  1

  9
$DIMASO
 70
     1
  9
$DIMSHO
 70
     1
  9
$DIMPOST
  1

  9
$DIMAPOST
  1

  9
$DIMALT
 70
     0
  9
$DIMALTD
 70
     4
  9
$DIMALTF
 40
0.0394
  9
$DIMLFAC
 40
1.0
  9
$DIMTOFL
 70
     1
  9
$DIMTVP
 40
0.0
  9
$DIMTIX
 70
     0
  9
$DIMSOXD
 70
     0
  9
$DIMSAH
 70
     0
  9
$DIMBLK1
  1

  9
$DIMBLK2
  1

  9
$DIMSTYLE
  2
STANDARD
  9
$DIMCLRD
 70
     0
  9
$DIMCLRE
 70
     0
  9
$DIMCLRT
 70
     0
  9
$DIMTFAC
 40
1.0
  9
$DIMGAP
 40
0.625
  9
$LUNITS
 70
     2
  9
$LUPREC
 70
     4
  9
$SKETCHINC
 40
1.0
  9
$FILLETRAD
 40
10.0
  9
$AUNITS
 70
     0
  9
$AUPREC
 70
     0
  9
$MENU
  1
.
  9
$ELEVATION
 40
0.0
  9
$PELEVATION
 40
0.0
  9
$THICKNESS
 40
0.0
  9
$LIMCHECK
 70
     0
  9
$BLIPMODE
 70
     0
  9
$CHAMFERA
 40
10.0
  9
$CHAMFERB
 40
10.0
  9
$SKPOLY
 70
     0
  9
$TDCREATE
 40
2452361.611515
  9
$TDUPDATE
 40
2452366.420583
  9
$TDINDWG
 40
0.216417
  9
$TDUSRTIMER
 40
0.216417
  9
$USRTIMER
 70
     1
  9
$ANGBASE
 50
0.0
  9
$ANGDIR
 70
     0
  9
$PDMODE
 70
     0
  9
$PDSIZE
 40
0.0
  9
$PLINEWID
 40
0.0
  9
$COORDS
 70
     2
  9
$SPLFRAME
 70
     0
  9
$SPLINETYPE
 70
     6
  9
$SPLINESEGS
 70
     8
  9
$ATTDIA
 70
     0
  9
$ATTREQ
 70
     1
  9
$HANDLING
 70
     1
  9
$HANDSEED
  5
585
  9
$SURFTAB1
 70
     6
  9
$SURFTAB2
 70
     6
  9
$SURFTYPE
 70
     6
  9
$SURFU
 70
     6
  9
$SURFV
 70
     6
  9
$UCSNAME
  2

  9
$UCSORG
 10
0.0
 20
0.0
 30
0.0
  9
$UCSXDIR
 10
1.0
 20
0.0
 30
0.0
  9
$UCSYDIR
 10
0.0
 20
1.0
 30
0.0
  9
$PUCSNAME
  2

  9
$PUCSORG
 10
0.0
 20
0.0
 30
0.0
  9
$PUCSXDIR
 10
1.0
 20
0.0
 30
0.0
  9
$PUCSYDIR
 10
0.0
 20
1.0
 30
0.0
  9
$USERI1
 70
     0
  9
$USERI2
 70
     0
  9
$USERI3
 70
     0
  9
$USERI4
 70
     0
  9
$USERI5
 70
     0
  9
$USERR1
 40
0.0
  9
$USERR2
 40
0.0
  9
$USERR3
 40
0.0
  9
$USERR4
 40
0.0
  9
$USERR5
 40
0.0
  9
$WORLDVIEW
 70
     1
  9
$SHADEDGE
 70
     3
  9
$SHADEDIF
 70
    70
  9
$TILEMODE
 70
     1
  9
$MAXACTVP
 70
    48
  9
$PLIMCHECK
 70
     0
  9
$PEXTMIN
 10
1.000000E+020
 20
1.000000E+020
 30
1.000000E+020
  9
$PEXTMAX
 10
-1.000000E+020
 20
-1.000000E+020
 30
-1.000000E+020
  9
$PLIMMIN
 10
0.0
 20
0.0
  9
$PLIMMAX
 10
420.0
 20
297.0
  9
$UNITMODE
 70
     0
  9
$VISRETAIN
 70
     1
  9
$PLINEGEN
 70
     0
  9
$PSLTSCALE
 70
     1
  0
ENDSEC
  0
SECTION
  2
TABLES
  0
TABLE
  2
VPORT
 70
     2
  0
VPORT
  2
*ACTIVE
 70
     0
 10
0.0
 20
0.0
 11
1.0
 21
1.0
 12
305.568001
 22
260.837269
 13
0.0
 23
0.0
 14
0.25
 24
0.25
 15
1.0
 25
1.0
 16
0.0
 26
0.0
 36
1.0
 17
0.0
 27
0.0
 37
0.0
 40
521.684258
 41
1.171492
 42
50.0
 43
0.0
 44
0.0
 50
0.0
 51
0.0
 71
     0
 72
 20000
 73
     1
 74
     1
 75
     0
 76
     0
 77
     0
 78
     0
  0
ENDTAB
  0
TABLE
  2
LTYPE
 70
     7
  0
LTYPE
  2
CONTINUOUS
 70
     0
  3
Solid line
 72
    65
 73
     0
 40
0.0
  0
LTYPE
  2
CENTERX2
 70
     0
  3
Center (2x) ________  __  ________  __  _____
 72
    65
 73
     4
 40
101.6
 49
63.5
 49
-12.7
 49
12.7
 49
-12.7
  0
LTYPE
  2
DASHEDX2
 70
     0
  3
Dashed (2x) ____  ____  ____  ____  ____  ___
 72
    65
 73
     2
 40
38.1
 49
25.4
 49
-12.7
  0
LTYPE
  2
DASHED
 70
     0
  3
Dashed __ __ __ __ __ __ __ __ __ __ __ __ __ _
 72
    65
 73
     2
 40
19.05
 49
12.7
 49
-6.35
  0
LTYPE
  2
CENTER
 70
     0
  3
Center ____ _ ____ _ ____ _ ____ _ ____ _ ____
 72
    65
 73
     4
 40
50.8
 49
31.75
 49
-6.35
 49
6.35
 49
-6.35
  0
LTYPE
  2
CENTER2
 70
     0
  3
Center (.5x) ___ _ ___ _ ___ _ ___ _ ___ _ ___
 72
    65
 73
     4
 40
28.575
 49
19.05
 49
-3.175
 49
3.175
 49
-3.175
  0
LTYPE
  2
DASHED2
 70
     0
  3
Dashed (.5x) _ _ _ _ _ _ _ _ _ _ _ _ _ _ _ _ _
 72
    65
 73
     2
 40
9.525
 49
6.35
 49
-3.175
  0
ENDTAB
  0
TABLE
  2
LAYER
 70
     5
  0
LAYER
  2
0
 70
     0
 62
     7
  6
CONTINUOUS
  0
LAYER
  2
1
 70
     0
 62
     1
  6
CENTER2
  0
LAYER
  2
2
 70
     0
 62
     2
  6
DASHED2
  0
LAYER
  2
3
 70
     0
 62
     4
  6
CONTINUOUS
  0
LAYER
  2
DEFPOINTS
 70
     0
 62
     7
  6
CONTINUOUS
  0
ENDTAB
  0
TABLE
  2
STYLE
 70
     2
  0
STYLE
  2
STANDARD
 70
     0
 40
0.0
 41
1.0
 50
0.0
 71
     0
 42
2.5
  3
txt
  4

  0
STYLE
  2

 70
     1
 40
0.0
 41
1.0
 50
0.0
 71
     0
 42
2.5
  3
ltypeshp.shx
  4

  0
ENDTAB
  0
TABLE
  2
VIEW
 70
     0
  0
ENDTAB
  0
TABLE
  2
UCS
 70
     0
  0
ENDTAB
  0
TABLE
  2
APPID
 70
     1
  0
APPID
  2
ACAD
 70
     0
  0
ENDTAB
  0
TABLE
  2
DIMSTYLE
 70
     1
  0
DIMSTYLE
  2
STANDARD
 70
     0
  3

  4

  5

  6

  7

 40
1.0
 41
0.18
 42
0.0625
 43
0.38
 44
0.18
 45
0.0
 46
0.0
 47
0.0
 48
0.0
140
0.18
141
0.09
142
0.0
143
25.4
144
1.0
145
0.0
146
1.0
147
0.09
 71
     0
 72
     0
 73
     1
 74
     1
 75
     0
 76
     0
 77
     0
 78
     0
170
     0
171
     2
172
     0
173
     0
174
     0
175
     0
176
     0
177
     0
178
     0
  0
ENDTAB
  0
ENDSEC
  0
SECTION
  2
BLOCKS
  0
BLOCK
  8
0
  2
$MODEL_SPACE
 70
     0
 10
0.0
 20
0.0
 30
0.0
  3
$MODEL_SPACE
  1

  0
ENDBLK
  5
1A
  8
0
  0
BLOCK
 67
     1
  8
0
  2
$PAPER_SPACE
 70
     0
 10
0.0
 20
0.0
 30
0.0
  3
$PAPER_SPACE
  1

  0
ENDBLK
  5
17
 67
     1
  8
0
  0
BLOCK
  8
0
  2
A$C0C8C6A90
 70
     0
 10
0.0
 20
0.0
 30
0.0
  3
A$C0C8C6A90
  1

  0
LINE
  5
52E
  8
0
 10
19.5
 20
34.5
 30
0.0
 11
19.5
 21
24.5
 31
0.0
  0
LINE
  5
52F
  8
0
 10
19.5
 20
34.5
 30
0.0
 11
19.5
 21
16.0
 31
0.0
  0
LINE
  5
530
  8
0
 10
15.5
 20
34.5
 30
0.0
 11
15.5
 21
15.0
 31
0.0
  0
LINE
  5
531
  8
0
 10
17.15
 20
15.0
 30
0.0
 11
17.15
 21
34.5
 31
0.0
  0
LINE
  5
532
  8
0
 10
19.5
 20
34.5
 30
0.0
 11
19.5
 21
0.0
 31
0.0
  0
LINE
  5
533
  8
0
 10
6.5
 20
34.5
 30
0.0
 11
6.5
 21
17.5
 31
0.0
  0
LINE
  5
534
  8
0
 10
6.5
 20
16.0
 30
0.0
 11
6.5
 21
34.5
 31
0.0
  0
LINE
  5
535
  8
0
 10
4.5
 20
0.0
 30
0.0
 11
4.5
 21
34.5
 31
0.0
  0
LINE
  5
536
  8
1
 10
22.5
 20
6.5
 30
0.0
 11
3.25
 21
6.5
 31
0.0
  0
LINE
  5
537
  8
0
 10
19.5
 20
1.0
 30
0.0
 11
13.0
 21
1.0
 31
0.0
  0
LINE
  5
538
  8
0
 10
13.0
 20
12.0
 30
0.0
 11
19.5
 21
12.0
 31
0.0
  0
LINE
  5
539
  8
0
 10
19.5
 20
0.0
 30
0.0
 11
4.5
 21
0.0
 31
0.0
  0
LINE
  5
53A
  8
0
 10
15.5
 20
24.5
 30
0.0
 11
6.5
 21
24.5
 31
0.0
  0
LINE
  5
53B
  8
0
 10
13.345208
 20
22.5
 30
0.0
 11
15.5
 21
22.5
 31
0.0
  0
LINE
  5
53C
  8
0
 10
13.345208
 20
18.0
 30
0.0
 11
15.5
 21
18.0
 31
0.0
  0
LINE
  5
53D
  8
0
 10
15.5
 20
16.0
 30
0.0
 11
6.5
 21
16.0
 31
0.0
  0
LINE
  5
53E
  8
0
 10
4.5
 20
3.1
 30
0.0
 11
13.0
 21
3.1
 31
0.0
  0
LINE
  5
53F
  8
0
 10
4.5
 20
2.5
 30
0.0
 11
13.0
 21
2.5
 31
0.0
  0
LINE
  5
540
  8
0
 10
4.5
 20
10.5
 30
0.0
 11
13.0
 21
10.5
 31
0.0
  0
LINE
  5
541
  8
0
 10
4.5
 20
9.9
 30
0.0
 11
13.0
 21
9.9
 31
0.0
  0
LINE
  5
542
  8
0
 10
13.0
 20
1.0
 30
0.0
 11
13.0
 21
12.0
 31
0.0
  0
LINE
  5
543
  8
0
 10
6.5
 20
17.5
 30
0.0
 11
4.5
 21
17.5
 31
0.0
  0
CIRCLE
  5
544
  8
0
 10
11.0
 20
20.25
 30
0.0
 40
3.25
  0
LINE
  5
545
  8
0
 10
7.0
 20
21.75
 30
0.0
 11
7.0
 21
18.75
 31
0.0
  0
LINE
  5
546
  8
0
 10
7.0
 20
18.75
 30
0.0
 11
7.75
 21
18.0
 31
0.0
  0
LINE
  5
547
  8
0
 10
6.5
 20
18.0
 30
0.0
 11
8.654792
 21
18.0
 31
0.0
  0
LINE
  5
548
  8
0
 10
6.5
 20
22.5
 30
0.0
 11
8.654792
 21
22.5
 31
0.0
  0
LINE
  5
549
  8
0
 10
7.75
 20
22.5
 30
0.0
 11
7.0
 21
21.75
 31
0.0
  0
LINE
  5
54A
  8
0
 10
15.0
 20
21.75
 30
0.0
 11
15.0
 21
18.75
 31
0.0
  0
LINE
  5
54B
  8
0
 10
15.0
 20
18.75
 30
0.0
 11
14.25
 21
18.0
 31
0.0
  0
LINE
  5
54C
  8
0
 10
14.25
 20
22.5
 30
0.0
 11
15.0
 21
21.75
 31
0.0
  0
LINE
  5
54D
  8
0
 10
19.5
 20
6.5
 30
0.0
 11
19.5
 21
1.0
 31
0.0
  0
LINE
  5
54E
  8
0
 10
15.5
 20
15.0
 30
0.0
 11
17.15
 21
15.0
 31
0.0
  0
LINE
  5
54F
  8
0
 10
19.5
 20
16.0
 30
0.0
 11
17.15
 21
16.0
 31
0.0
  0
LINE
  5
550
  8
0
 10
15.5
 20
53.0
 30
0.0
 11
6.5
 21
53.0
 31
0.0
  0
LINE
  5
551
  8
0
 10
13.345208
 20
46.5
 30
0.0
 11
15.5
 21
46.5
 31
0.0
  0
LINE
  5
552
  8
0
 10
13.345208
 20
51.0
 30
0.0
 11
15.5
 21
51.0
 31
0.0
  0
LINE
  5
553
  8
0
 10
13.0
 20
57.0
 30
0.0
 11
19.5
 21
57.0
 31
0.0
  0
LINE
  5
554
  8
0
 10
19.5
 20
68.0
 30
0.0
 11
13.0
 21
68.0
 31
0.0
  0
LINE
  5
555
  8
0
 10
15.5
 20
44.5
 30
0.0
 11
6.5
 21
44.5
 31
0.0
  0
LINE
  5
556
  8
0
 10
19.5
 20
69.0
 30
0.0
 11
4.5
 21
69.0
 31
0.0
  0
LINE
  5
557
  8
1
 10
22.5
 20
62.5
 30
0.0
 11
3.25
 21
62.5
 31
0.0
  0
LINE
  5
558
  8
1
 10
25.5
 20
34.5
 30
0.0
 11
0.0
 21
34.5
 31
0.0
  0
LINE
  5
559
  8
0
 10
13.0
 20
68.0
 30
0.0
 11
13.0
 21
57.0
 31
0.0
  0
LINE
  5
55A
  8
0
 10
4.5
 20
69.0
 30
0.0
 11
4.5
 21
34.5
 31
0.0
  0
LINE
  5
55B
  8
0
 10
7.75
 20
46.5
 30
0.0
 11
7.0
 21
47.25
 31
0.0
  0
LINE
  5
55C
  8
0
 10
14.25
 20
46.5
 30
0.0
 11
15.0
 21
47.25
 31
0.0
  0
CIRCLE
  5
55D
  8
0
 10
11.0
 20
48.75
 30
0.0
 40
3.25
  0
LINE
  5
55E
  8
0
 10
6.5
 20
34.5
 30
0.0
 11
6.5
 21
51.5
 31
0.0
  0
LINE
  5
55F
  8
0
 10
6.5
 20
53.0
 30
0.0
 11
6.5
 21
34.5
 31
0.0
  0
LINE
  5
560
  8
0
 10
6.5
 20
46.5
 30
0.0
 11
8.654792
 21
46.5
 31
0.0
  0
LINE
  5
561
  8
0
 10
4.5
 20
58.5
 30
0.0
 11
13.0
 21
58.5
 31
0.0
  0
LINE
  5
562
  8
0
 10
4.5
 20
59.1
 30
0.0
 11
13.0
 21
59.1
 31
0.0
  0
LINE
  5
563
  8
0
 10
6.5
 20
51.5
 30
0.0
 11
4.5
 21
51.5
 31
0.0
  0
LINE
  5
564
  8
0
 10
7.0
 20
50.25
 30
0.0
 11
7.75
 21
51.0
 31
0.0
  0
LINE
  5
565
  8
0
 10
6.5
 20
51.0
 30
0.0
 11
8.654792
 21
51.0
 31
0.0
  0
LINE
  5
566
  8
0
 10
7.0
 20
47.25
 30
0.0
 11
7.0
 21
50.25
 31
0.0
  0
LINE
  5
567
  8
0
 10
15.0
 20
50.25
 30
0.0
 11
14.25
 21
51.0
 31
0.0
  0
LINE
  5
568
  8
0
 10
15.0
 20
47.25
 30
0.0
 11
15.0
 21
50.25
 31
0.0
  0
LINE
  5
569
  8
0
 10
4.5
 20
65.9
 30
0.0
 11
13.0
 21
65.9
 31
0.0
  0
LINE
  5
56A
  8
0
 10
4.5
 20
66.5
 30
0.0
 11
13.0
 21
66.5
 31
0.0
  0
LINE
  5
56B
  8
0
 10
19.5
 20
62.5
 30
0.0
 11
19.5
 21
68.0
 31
0.0
  0
LINE
  5
56C
  8
0
 10
19.5
 20
34.5
 30
0.0
 11
19.5
 21
69.0
 31
0.0
  0
LINE
  5
56D
  8
0
 10
17.15
 20
54.0
 30
0.0
 11
17.15
 21
34.5
 31
0.0
  0
LINE
  5
56E
  8
0
 10
15.5
 20
34.5
 30
0.0
 11
15.5
 21
54.0
 31
0.0
  0
LINE
  5
56F
  8
0
 10
19.5
 20
34.5
 30
0.0
 11
19.5
 21
53.0
 31
0.0
  0
LINE
  5
570
  8
0
 10
19.5
 20
34.5
 30
0.0
 11
19.5
 21
44.5
 31
0.0
  0
LINE
  5
571
  8
0
 10
19.5
 20
53.0
 30
0.0
 11
17.15
 21
53.0
 31
0.0
  0
LINE
  5
572
  8
0
 10
15.5
 20
54.0
 30
0.0
 11
17.15
 21
54.0
 31
0.0
  0
ENDBLK
  5
574
  8
0
  0
ENDSEC
  0
SECTION
  2
ENTITIES
  0
LINE
  5
3C2
  8
1
 10
131.25
 20
103.0
 30
0.0
 11
194.0
 21
103.0
 31
0.0
  0
LINE
  5
3C3
  8
1
 10
163.0
 20
63.0
 30
0.0
 11
163.0
 21
147.75
 31
0.0
  0
ARC
  5
49F
  8
0
 10
163.0
 20
103.0
 30
0.0
 40
34.5
 50
47.065689
 51
132.934311
  0
CIRCLE
  5
4A1
  8
0
 10
151.0
 20
128.5
 30
0.0
 40
5.5
  0
CIRCLE
  5
4A3
  8
0
 10
151.0
 20
77.5
 30
0.0
 40
5.5
  0
CIRCLE
  5
4A5
  8
0
 10
151.0
 20
128.5
 30
0.0
 40
4.0
  0
CIRCLE
  5
4A7
  8
0
 10
151.0
 20
77.5
 30
0.0
 40
4.0
  0
CIRCLE
  5
4A9
  8
0
 10
151.0
 20
128.5
 30
0.0
 40
3.4
  0
CIRCLE
  5
4AB
  8
0
 10
151.0
 20
77.5
 30
0.0
 40
3.4
  0
CIRCLE
  5
4AD
  8
0
 10
163.0
 20
103.0
 30
0.0
 40
10.0
  0
LINE
  5
50C
  8
0
 10
186.5
 20
77.741338
 30
0.0
 11
186.5
 21
128.258662
 31
0.0
  0
LINE
  5
50E
  8
0
 10
139.5
 20
128.258662
 30
0.0
 11
139.5
 21
77.741338
 31
0.0
  0
ARC
  5
50F
  8
0
 10
163.0
 20
103.0
 30
0.0
 40
34.5
 50
227.065689
 51
312.934311
  0
LINE
  5
512
  8
1
 10
143.0
 20
77.5
 30
0.0
 11
182.25
 21
77.5
 31
0.0
  0
LINE
  5
514
  8
1
 10
182.25
 20
128.5
 30
0.0
 11
142.75
 21
128.5
 31
0.0
  0
LINE
  5
516
  8
1
 10
175.0
 20
69.5
 30
0.0
 11
175.0
 21
86.5
 31
0.0
  0
LINE
  5
518
  8
1
 10
151.0
 20
137.0
 30
0.0
 11
151.0
 21
119.0
 31
0.0
  0
CIRCLE
  5
51C
  8
0
 10
175.0
 20
128.5
 30
0.0
 40
3.4
  0
CIRCLE
  5
51D
  8
0
 10
175.0
 20
128.5
 30
0.0
 40
4.0
  0
CIRCLE
  5
51E
  8
0
 10
175.0
 20
128.5
 30
0.0
 40
5.5
  0
CIRCLE
  5
521
  8
0
 10
175.0
 20
77.5
 30
0.0
 40
3.4
  0
CIRCLE
  5
522
  8
0
 10
175.0
 20
77.5
 30
0.0
 40
4.0
  0
CIRCLE
  5
523
  8
0
 10
175.0
 20
77.5
 30
0.0
 40
5.5
  0
LINE
  5
524
  8
1
 10
151.0
 20
86.5
 30
0.0
 11
151.0
 21
69.25
 31
0.0
  0
LINE
  5
525
  8
1
 10
175.0
 20
119.25
 30
0.0
 11
175.0
 21
136.75
 31
0.0
  0
TEXT
  5
52C
  8
0
 10
101.25
 20
57.75
 30
0.0
 40
2.5
  1
BER-6904ZZ
  0
INSERT
  5
575
  8
0
  2
A$C0C8C6A90
 10
57.0
 20
68.5
 30
0.0
  0
CIRCLE
  5
57B
  8
0
 10
163.0
 20
103.0
 30
0.0
 40
18.43578
  0
CIRCLE
  5
57C
  8
2
 10
163.0
 20
103.0
 30
0.0
 40
19.422018
  0
CIRCLE
  5
57D
  8
2
 10
163.0
 20
103.0
 30
0.0
 40
17.055046
  0
ENDSEC
  0
EOF
