  0
SECTION
  2
HEADER
  9
$ACADVER
  1
AC1014
  9
$ACADMAINTVER
 70
     0
  9
$DWGCODEPAGE
  3
ANSI_932
  9
$INSBASE
 10
0.0
 20
0.0
 30
0.0
  9
$EXTMIN
 10
57.25
 20
4.570574
 30
0.0
  9
$EXTMAX
 10
245.584162
 20
187.317793
 30
0.0
  9
$LIMMIN
 10
0.0
 20
0.0
  9
$LIMMAX
 10
265.0
 20
200.0
  9
$ORTHOMODE
 70
     0
  9
$REGENMODE
 70
     1
  9
$FILLMODE
 70
     1
  9
$QTEXTMODE
 70
     0
  9
$MIRRTEXT
 70
     1
  9
$DRAGMODE
 70
     2
  9
$LTSCALE
 40
1.0
  9
$OSMODE
 70
     0
  9
$ATTMODE
 70
     1
  9
$TEXTSIZE
 40
2.5
  9
$TRACEWID
 40
1.0
  9
$TEXTSTYLE
  7
STANDARD
  9
$CLAYER
  8
0
  9
$CELTYPE
  6
BYLAYER
  9
$CECOLOR
 62
   256
  9
$CELTSCALE
 40
1.0
  9
$DELOBJ
 70
     1
  9
$DISPSILH
 70
     0
  9
$DIMSCALE
 40
1.0
  9
$DIMASZ
 40
2.5
  9
$DIMEXO
 40
0.625
  9
$DIMDLI
 40
3.75
  9
$DIMRND
 40
0.0
  9
$DIMDLE
 40
0.0
  9
$DIMEXE
 40
1.25
  9
$DIMTP
 40
0.0
  9
$DIMTM
 40
0.0
  9
$DIMTXT
 40
2.5
  9
$DIMCEN
 40
2.5
  9
$DIMTSZ
 40
0.0
  9
$DIMTOL
 70
     0
  9
$DIMLIM
 70
     0
  9
$DIMTIH
 70
     0
  9
$DIMTOH
 70
     0
  9
$DIMSE1
 70
     0
  9
$DIMSE2
 70
     0
  9
$DIMTAD
 70
     1
  9
$DIMZIN
 70
     8
  9
$DIMBLK
  1

  9
$DIMASO
 70
     1
  9
$DIMSHO
 70
     1
  9
$DIMPOST
  1

  9
$DIMAPOST
  1

  9
$DIMALT
 70
     0
  9
$DIMALTD
 70
     4
  9
$DIMALTF
 40
0.0394
  9
$DIMLFAC
 40
1.0
  9
$DIMTOFL
 70
     1
  9
$DIMTVP
 40
0.0
  9
$DIMTIX
 70
     0
  9
$DIMSOXD
 70
     0
  9
$DIMSAH
 70
     0
  9
$DIMBLK1
  1

  9
$DIMBLK2
  1

  9
$DIMSTYLE
  2
STANDARD
  9
$DIMCLRD
 70
     0
  9
$DIMCLRE
 70
     0
  9
$DIMCLRT
 70
     0
  9
$DIMTFAC
 40
1.0
  9
$DIMGAP
 40
0.625
  9
$DIMJUST
 70
     0
  9
$DIMSD1
 70
     0
  9
$DIMSD2
 70
     0
  9
$DIMTOLJ
 70
     1
  9
$DIMTZIN
 70
     0
  9
$DIMALTZ
 70
     0
  9
$DIMALTTZ
 70
     0
  9
$DIMFIT
 70
     3
  9
$DIMUPT
 70
     0
  9
$DIMUNIT
 70
     8
  9
$DIMDEC
 70
     4
  9
$DIMTDEC
 70
     4
  9
$DIMALTU
 70
     8
  9
$DIMALTTD
 70
     4
  9
$DIMTXSTY
  7
STANDARD
  9
$DIMAUNIT
 70
     0
  9
$LUNITS
 70
     2
  9
$LUPREC
 70
     4
  9
$SKETCHINC
 40
1.0
  9
$FILLETRAD
 40
10.0
  9
$AUNITS
 70
     0
  9
$AUPREC
 70
     0
  9
$MENU
  1
.
  9
$ELEVATION
 40
0.0
  9
$PELEVATION
 40
0.0
  9
$THICKNESS
 40
0.0
  9
$LIMCHECK
 70
     0
  9
$BLIPMODE
 70
     0
  9
$CHAMFERA
 40
10.0
  9
$CHAMFERB
 40
10.0
  9
$CHAMFERC
 40
20.0
  9
$CHAMFERD
 40
0.0
  9
$SKPOLY
 70
     0
  9
$TDCREATE
 40
2452361.611514583
  9
$TDUPDATE
 40
2452819.701041898
  9
$TDINDWG
 40
0.2933693287
  9
$TDUSRTIMER
 40
0.2933693287
  9
$USRTIMER
 70
     1
  9
$ANGBASE
 50
0.0
  9
$ANGDIR
 70
     0
  9
$PDMODE
 70
     0
  9
$PDSIZE
 40
0.0
  9
$PLINEWID
 40
0.0
  9
$COORDS
 70
     2
  9
$SPLFRAME
 70
     0
  9
$SPLINETYPE
 70
     6
  9
$SPLINESEGS
 70
     8
  9
$ATTDIA
 70
     0
  9
$ATTREQ
 70
     1
  9
$HANDLING
 70
     1
  9
$HANDSEED
  5
7A9
  9
$SURFTAB1
 70
     6
  9
$SURFTAB2
 70
     6
  9
$SURFTYPE
 70
     6
  9
$SURFU
 70
     6
  9
$SURFV
 70
     6
  9
$UCSNAME
  2

  9
$UCSORG
 10
0.0
 20
0.0
 30
0.0
  9
$UCSXDIR
 10
1.0
 20
0.0
 30
0.0
  9
$UCSYDIR
 10
0.0
 20
1.0
 30
0.0
  9
$PUCSNAME
  2

  9
$PUCSORG
 10
0.0
 20
0.0
 30
0.0
  9
$PUCSXDIR
 10
1.0
 20
0.0
 30
0.0
  9
$PUCSYDIR
 10
0.0
 20
1.0
 30
0.0
  9
$USERI1
 70
     0
  9
$USERI2
 70
     0
  9
$USERI3
 70
     0
  9
$USERI4
 70
     0
  9
$USERI5
 70
     0
  9
$USERR1
 40
0.0
  9
$USERR2
 40
0.0
  9
$USERR3
 40
0.0
  9
$USERR4
 40
0.0
  9
$USERR5
 40
0.0
  9
$WORLDVIEW
 70
     1
  9
$SHADEDGE
 70
     3
  9
$SHADEDIF
 70
    70
  9
$TILEMODE
 70
     1
  9
$MAXACTVP
 70
    48
  9
$PINSBASE
 10
0.0
 20
0.0
 30
0.0
  9
$PLIMCHECK
 70
     0
  9
$PEXTMIN
 10
1.000000E+20
 20
1.000000E+20
 30
1.000000E+20
  9
$PEXTMAX
 10
-1.000000E+20
 20
-1.000000E+20
 30
-1.000000E+20
  9
$PLIMMIN
 10
0.0
 20
0.0
  9
$PLIMMAX
 10
420.0
 20
297.0
  9
$UNITMODE
 70
     0
  9
$VISRETAIN
 70
     1
  9
$PLINEGEN
 70
     0
  9
$PSLTSCALE
 70
     1
  9
$TREEDEPTH
 70
  3020
  9
$PICKSTYLE
 70
     1
  9
$CMLSTYLE
  2
STANDARD
  9
$CMLJUST
 70
     0
  9
$CMLSCALE
 40
20.0
  9
$PROXYGRAPHICS
 70
     1
  9
$MEASUREMENT
 70
     1
  0
ENDSEC
  0
SECTION
  2
CLASSES
  0
ENDSEC
  0
SECTION
  2
TABLES
  0
TABLE
  2
VPORT
  5
8
100
AcDbSymbolTable
 70
     4
  0
VPORT
  5
7A8
100
AcDbSymbolTableRecord
100
AcDbViewportTableRecord
  2
*ACTIVE
 70
     0
 10
0.0
 20
0.0
 11
1.0
 21
1.0
 12
148.626178
 22
100.131185
 13
0.0
 23
0.0
 14
0.25
 24
0.25
 15
1.0
 25
1.0
 16
0.0
 26
0.0
 36
1.0
 17
0.0
 27
0.0
 37
0.0
 40
196.604828
 41
1.454412
 42
50.0
 43
0.0
 44
0.0
 50
0.0
 51
0.0
 71
     0
 72
 20000
 73
     1
 74
     1
 75
     0
 76
     0
 77
     0
 78
     0
  0
ENDTAB
  0
TABLE
  2
LTYPE
  5
5
100
AcDbSymbolTable
 70
     7
  0
LTYPE
  5
12
100
AcDbSymbolTableRecord
100
AcDbLinetypeTableRecord
  2
BYBLOCK
 70
     0
  3

 72
    65
 73
     0
 40
0.0
  0
LTYPE
  5
13
100
AcDbSymbolTableRecord
100
AcDbLinetypeTableRecord
  2
BYLAYER
 70
     0
  3

 72
    65
 73
     0
 40
0.0
  0
LTYPE
  5
14
100
AcDbSymbolTableRecord
100
AcDbLinetypeTableRecord
  2
CONTINUOUS
 70
     0
  3
Solid line
 72
    65
 73
     0
 40
0.0
  0
LTYPE
  5
22
100
AcDbSymbolTableRecord
100
AcDbLinetypeTableRecord
  2
CENTERX2
 70
     0
  3
Center (2x) ________  __  ________  __  _____
 72
    65
 73
     4
 40
101.6
 49
63.5
 74
     0
 49
-12.7
 74
     0
 49
12.7
 74
     0
 49
-12.7
 74
     0
  0
LTYPE
  5
25
100
AcDbSymbolTableRecord
100
AcDbLinetypeTableRecord
  2
DASHEDX2
 70
     0
  3
Dashed (2x) ____  ____  ____  ____  ____  ___
 72
    65
 73
     2
 40
38.1
 49
25.4
 74
     0
 49
-12.7
 74
     0
  0
LTYPE
  5
28
100
AcDbSymbolTableRecord
100
AcDbLinetypeTableRecord
  2
DASHED
 70
     0
  3
Dashed __ __ __ __ __ __ __ __ __ __ __ __ __ _
 72
    65
 73
     2
 40
19.05
 49
12.7
 74
     0
 49
-6.35
 74
     0
  0
LTYPE
  5
29
100
AcDbSymbolTableRecord
100
AcDbLinetypeTableRecord
  2
CENTER
 70
     0
  3
Center ____ _ ____ _ ____ _ ____ _ ____ _ ____
 72
    65
 73
     4
 40
50.8
 49
31.75
 74
     0
 49
-6.35
 74
     0
 49
6.35
 74
     0
 49
-6.35
 74
     0
  0
LTYPE
  5
2B
100
AcDbSymbolTableRecord
100
AcDbLinetypeTableRecord
  2
CENTER2
 70
     0
  3
Center (.5x) ___ _ ___ _ ___ _ ___ _ ___ _ ___
 72
    65
 73
     4
 40
28.575
 49
19.05
 74
     0
 49
-3.175
 74
     0
 49
3.175
 74
     0
 49
-3.175
 74
     0
  0
LTYPE
  5
2C
100
AcDbSymbolTableRecord
100
AcDbLinetypeTableRecord
  2
DASHED2
 70
     0
  3
Dashed (.5x) _ _ _ _ _ _ _ _ _ _ _ _ _ _ _ _ _
 72
    65
 73
     2
 40
9.525
 49
6.35
 74
     0
 49
-3.175
 74
     0
  0
ENDTAB
  0
TABLE
  2
LAYER
  5
2
100
AcDbSymbolTable
 70
     5
  0
LAYER
  5
E
100
AcDbSymbolTableRecord
100
AcDbLayerTableRecord
  2
0
 70
     0
 62
     7
  6
CONTINUOUS
  0
LAYER
  5
23
100
AcDbSymbolTableRecord
100
AcDbLayerTableRecord
  2
1
 70
     0
 62
     1
  6
CENTER2
  0
LAYER
  5
24
100
AcDbSymbolTableRecord
100
AcDbLayerTableRecord
  2
2
 70
     0
 62
     2
  6
DASHED2
  0
LAYER
  5
26
100
AcDbSymbolTableRecord
100
AcDbLayerTableRecord
  2
3
 70
     0
 62
     4
  6
CONTINUOUS
  0
LAYER
  5
333
100
AcDbSymbolTableRecord
100
AcDbLayerTableRecord
  2
DEFPOINTS
 70
     0
 62
     7
  6
CONTINUOUS
  0
ENDTAB
  0
TABLE
  2
STYLE
  5
3
100
AcDbSymbolTable
 70
     2
  0
STYLE
  5
F
100
AcDbSymbolTableRecord
100
AcDbTextStyleTableRecord
  2
STANDARD
 70
     0
 40
0.0
 41
1.0
 50
0.0
 71
     0
 42
2.5
  3
txt
  4

  0
STYLE
  5
21
100
AcDbSymbolTableRecord
100
AcDbTextStyleTableRecord
  2

 70
     1
 40
0.0
 41
1.0
 50
0.0
 71
     0
 42
2.5
  3
ltypeshp.shx
  4

  0
ENDTAB
  0
TABLE
  2
VIEW
  5
6
100
AcDbSymbolTable
 70
     0
  0
ENDTAB
  0
TABLE
  2
UCS
  5
7
100
AcDbSymbolTable
 70
     0
  0
ENDTAB
  0
TABLE
  2
APPID
  5
9
100
AcDbSymbolTable
 70
     1
  0
APPID
  5
10
100
AcDbSymbolTableRecord
100
AcDbRegAppTableRecord
  2
ACAD
 70
     0
  0
ENDTAB
  0
TABLE
  2
DIMSTYLE
  5
A
100
AcDbSymbolTable
 70
     1
  0
DIMSTYLE
105
1D
100
AcDbSymbolTableRecord
100
AcDbDimStyleTableRecord
  2
STANDARD
 70
     0
  3

  4

  5

  6

  7

 40
1.0
 41
0.18
 42
0.0625
 43
0.38
 44
0.18
 45
0.0
 46
0.0
 47
0.0
 48
0.0
140
0.18
141
0.09
142
0.0
143
25.4
144
1.0
145
0.0
146
1.0
147
0.09
 71
     0
 72
     0
 73
     1
 74
     1
 75
     0
 76
     0
 77
     0
 78
     0
170
     0
171
     2
172
     0
173
     0
174
     0
175
     0
176
     0
177
     0
178
     0
270
     2
271
     4
272
     4
273
     2
274
     2
340
F
275
     0
280
     0
281
     0
282
     0
283
     1
284
     0
285
     0
286
     0
287
     3
288
     0
  0
ENDTAB
  0
TABLE
  2
BLOCK_RECORD
  5
1
100
AcDbSymbolTable
 70
     0
  0
BLOCK_RECORD
  5
18
100
AcDbSymbolTableRecord
100
AcDbBlockTableRecord
  2
*MODEL_SPACE
  0
BLOCK_RECORD
  5
15
100
AcDbSymbolTableRecord
100
AcDbBlockTableRecord
  2
*PAPER_SPACE
  0
ENDTAB
  0
ENDSEC
  0
SECTION
  2
BLOCKS
  0
BLOCK
  5
19
100
AcDbEntity
  8
0
100
AcDbBlockBegin
  2
*MODEL_SPACE
 70
     0
 10
0.0
 20
0.0
 30
0.0
  3
*MODEL_SPACE
  1

  0
ENDBLK
  5
1A
100
AcDbEntity
  8
0
100
AcDbBlockEnd
  0
BLOCK
  5
16
100
AcDbEntity
 67
     1
  8
0
100
AcDbBlockBegin
  2
*PAPER_SPACE
 70
     0
 10
0.0
 20
0.0
 30
0.0
  3
*PAPER_SPACE
  1

  0
ENDBLK
  5
17
100
AcDbEntity
 67
     1
  8
0
100
AcDbBlockEnd
  0
ENDSEC
  0
SECTION
  2
ENTITIES
  0
LINE
  5
712
100
AcDbEntity
  8
1
100
AcDbLine
 10
57.25
 20
103.0
 30
0.0
 11
89.5
 21
103.0
 31
0.0
  0
LINE
  5
714
100
AcDbEntity
  8
1
100
AcDbLine
 10
89.5
 20
147.0
 30
0.0
 11
60.5
 21
147.0
 31
0.0
  0
LINE
  5
715
100
AcDbEntity
  8
0
100
AcDbLine
 10
85.5
 20
103.0
 30
0.0
 11
85.5
 21
155.0
 31
0.0
  0
LINE
  5
716
100
AcDbEntity
  8
0
100
AcDbLine
 10
85.5
 20
155.0
 30
0.0
 11
62.5
 21
155.0
 31
0.0
  0
LINE
  5
717
100
AcDbEntity
  8
0
100
AcDbLine
 10
62.5
 20
155.0
 30
0.0
 11
62.5
 21
103.0
 31
0.0
  0
LINE
  5
719
100
AcDbEntity
  8
0
100
AcDbLine
 10
62.5
 20
130.5
 30
0.0
 11
64.5
 21
130.5
 31
0.0
  0
LINE
  5
71B
100
AcDbEntity
  8
0
100
AcDbLine
 10
64.5
 20
103.0
 30
0.0
 11
64.5
 21
134.0
 31
0.0
  0
LINE
  5
71E
100
AcDbEntity
  8
0
100
AcDbLine
 10
64.5
 20
134.0
 30
0.0
 11
80.5
 21
134.0
 31
0.0
  0
LINE
  5
71F
100
AcDbEntity
  8
0
100
AcDbLine
 10
80.5
 20
134.0
 30
0.0
 11
80.5
 21
103.0
 31
0.0
  0
LINE
  5
720
100
AcDbEntity
  8
0
100
AcDbLine
 10
80.5
 20
103.0
 30
0.0
 11
80.5
 21
136.0
 31
0.0
  0
LINE
  5
721
100
AcDbEntity
  8
0
100
AcDbLine
 10
80.5
 20
136.0
 30
0.0
 11
82.5
 21
136.0
 31
0.0
  0
LINE
  5
722
100
AcDbEntity
  8
0
100
AcDbLine
 10
82.5
 20
136.0
 30
0.0
 11
82.5
 21
103.0
 31
0.0
  0
LINE
  5
724
100
AcDbEntity
  8
0
100
AcDbLine
 10
82.5
 20
134.0
 30
0.0
 11
85.5
 21
134.0
 31
0.0
  0
LINE
  5
726
100
AcDbEntity
  8
0
100
AcDbLine
 10
82.5
 20
132.0
 30
0.0
 11
80.5
 21
132.0
 31
0.0
  0
LINE
  5
728
100
AcDbEntity
  8
0
100
AcDbLine
 10
64.5
 20
118.0
 30
0.0
 11
80.5
 21
118.0
 31
0.0
  0
CIRCLE
  5
729
100
AcDbEntity
  8
0
100
AcDbCircle
 10
72.75
 20
126.0
 30
0.0
 40
5.0
  0
LINE
  5
72A
100
AcDbEntity
  8
0
100
AcDbLine
 10
64.5
 20
129.75
 30
0.0
 11
69.442811
 21
129.75
 31
0.0
  0
LINE
  5
72B
100
AcDbEntity
  8
0
100
AcDbLine
 10
64.5
 20
122.25
 30
0.0
 11
69.442811
 21
122.25
 31
0.0
  0
LINE
  5
72C
100
AcDbEntity
  8
0
100
AcDbLine
 10
78.5
 20
129.75
 30
0.0
 11
79.5
 21
128.75
 31
0.0
  0
LINE
  5
72D
100
AcDbEntity
  8
0
100
AcDbLine
 10
79.5
 20
128.75
 30
0.0
 11
79.5
 21
123.25
 31
0.0
  0
LINE
  5
72E
100
AcDbEntity
  8
0
100
AcDbLine
 10
79.5
 20
123.25
 30
0.0
 11
78.5
 21
122.25
 31
0.0
  0
LINE
  5
72F
100
AcDbEntity
  8
0
100
AcDbLine
 10
66.0
 20
128.75
 30
0.0
 11
66.0
 21
123.25
 31
0.0
  0
LINE
  5
730
100
AcDbEntity
  8
0
100
AcDbLine
 10
66.0
 20
123.25
 30
0.0
 11
67.0
 21
122.25
 31
0.0
  0
LINE
  5
731
100
AcDbEntity
  8
0
100
AcDbLine
 10
67.0
 20
129.75
 30
0.0
 11
66.0
 21
128.75
 31
0.0
  0
LINE
  5
732
100
AcDbEntity
  8
0
100
AcDbLine
 10
76.057189
 20
129.75
 30
0.0
 11
80.5
 21
129.75
 31
0.0
  0
LINE
  5
733
100
AcDbEntity
  8
0
100
AcDbLine
 10
76.057189
 20
122.25
 30
0.0
 11
80.5
 21
122.25
 31
0.0
  0
LINE
  5
734
100
AcDbEntity
  8
0
100
AcDbLine
 10
76.9
 20
154.0
 30
0.0
 11
76.9
 21
147.0
 31
0.0
  0
LINE
  5
735
100
AcDbEntity
  8
0
100
AcDbLine
 10
76.9
 20
140.0
 30
0.0
 11
76.9
 21
147.0
 31
0.0
  0
LINE
  5
736
100
AcDbEntity
  8
0
100
AcDbLine
 10
76.9
 20
147.0
 30
0.0
 11
76.9
 21
142.0
 31
0.0
  0
LINE
  5
737
100
AcDbEntity
  8
0
100
AcDbLine
 10
85.5
 20
140.0
 30
0.0
 11
76.9
 21
140.0
 31
0.0
  0
LINE
  5
738
100
AcDbEntity
  8
0
100
AcDbLine
 10
85.5
 20
154.0
 30
0.0
 11
76.9
 21
154.0
 31
0.0
  0
LINE
  5
739
100
AcDbEntity
  8
0
100
AcDbLine
 10
76.9
 20
147.0
 30
0.0
 11
76.9
 21
152.0
 31
0.0
  0
LINE
  5
73A
100
AcDbEntity
  8
0
100
AcDbLine
 10
76.9
 20
152.0
 30
0.0
 11
62.5
 21
152.0
 31
0.0
  0
LINE
  5
73C
100
AcDbEntity
  8
0
100
AcDbLine
 10
62.5
 20
151.0
 30
0.0
 11
76.9
 21
151.0
 31
0.0
  0
LINE
  5
73D
100
AcDbEntity
  8
0
100
AcDbLine
 10
62.5
 20
143.0
 30
0.0
 11
76.9
 21
143.0
 31
0.0
  0
LINE
  5
73E
100
AcDbEntity
  8
0
100
AcDbLine
 10
76.9
 20
142.0
 30
0.0
 11
62.5
 21
142.0
 31
0.0
  0
LINE
  5
740
100
AcDbEntity
  8
0
100
AcDbLine
 10
82.5
 20
70.0
 30
0.0
 11
82.5
 21
103.0
 31
0.0
  0
LINE
  5
741
100
AcDbEntity
  8
0
100
AcDbLine
 10
80.5
 20
103.0
 30
0.0
 11
80.5
 21
70.0
 31
0.0
  0
LINE
  5
742
100
AcDbEntity
  8
0
100
AcDbLine
 10
80.5
 20
72.0
 30
0.0
 11
80.5
 21
103.0
 31
0.0
  0
LINE
  5
743
100
AcDbEntity
  8
0
100
AcDbLine
 10
62.5
 20
51.0
 30
0.0
 11
62.5
 21
103.0
 31
0.0
  0
LINE
  5
744
100
AcDbEntity
  8
0
100
AcDbLine
 10
64.5
 20
103.0
 30
0.0
 11
64.5
 21
72.0
 31
0.0
  0
LINE
  5
745
100
AcDbEntity
  8
0
100
AcDbLine
 10
85.5
 20
103.0
 30
0.0
 11
85.5
 21
51.0
 31
0.0
  0
CIRCLE
  5
746
100
AcDbEntity
  8
0
100
AcDbCircle
 10
72.75
 20
80.0
 30
0.0
 40
5.0
  0
LINE
  5
747
100
AcDbEntity
  8
0
100
AcDbLine
 10
64.5
 20
88.0
 30
0.0
 11
80.5
 21
88.0
 31
0.0
  0
LINE
  5
748
100
AcDbEntity
  8
0
100
AcDbLine
 10
66.0
 20
77.25
 30
0.0
 11
66.0
 21
82.75
 31
0.0
  0
LINE
  5
749
100
AcDbEntity
  8
0
100
AcDbLine
 10
64.5
 20
83.75
 30
0.0
 11
69.442811
 21
83.75
 31
0.0
  0
LINE
  5
74A
100
AcDbEntity
  8
0
100
AcDbLine
 10
66.0
 20
82.75
 30
0.0
 11
67.0
 21
83.75
 31
0.0
  0
LINE
  5
74B
100
AcDbEntity
  8
0
100
AcDbLine
 10
62.5
 20
75.5
 30
0.0
 11
64.5
 21
75.5
 31
0.0
  0
LINE
  5
74C
100
AcDbEntity
  8
0
100
AcDbLine
 10
64.5
 20
76.25
 30
0.0
 11
69.442811
 21
76.25
 31
0.0
  0
LINE
  5
74D
100
AcDbEntity
  8
0
100
AcDbLine
 10
67.0
 20
76.25
 30
0.0
 11
66.0
 21
77.25
 31
0.0
  0
LINE
  5
74E
100
AcDbEntity
  8
0
100
AcDbLine
 10
76.057189
 20
83.75
 30
0.0
 11
80.5
 21
83.75
 31
0.0
  0
LINE
  5
74F
100
AcDbEntity
  8
0
100
AcDbLine
 10
76.057189
 20
76.25
 30
0.0
 11
80.5
 21
76.25
 31
0.0
  0
LINE
  5
750
100
AcDbEntity
  8
0
100
AcDbLine
 10
79.5
 20
77.25
 30
0.0
 11
79.5
 21
82.75
 31
0.0
  0
LINE
  5
751
100
AcDbEntity
  8
0
100
AcDbLine
 10
79.5
 20
82.75
 30
0.0
 11
78.5
 21
83.75
 31
0.0
  0
LINE
  5
752
100
AcDbEntity
  8
0
100
AcDbLine
 10
78.5
 20
76.25
 30
0.0
 11
79.5
 21
77.25
 31
0.0
  0
LINE
  5
753
100
AcDbEntity
  8
0
100
AcDbLine
 10
76.9
 20
64.0
 30
0.0
 11
62.5
 21
64.0
 31
0.0
  0
LINE
  5
754
100
AcDbEntity
  8
0
100
AcDbLine
 10
62.5
 20
63.0
 30
0.0
 11
76.9
 21
63.0
 31
0.0
  0
LINE
  5
755
100
AcDbEntity
  8
0
100
AcDbLine
 10
62.5
 20
55.0
 30
0.0
 11
76.9
 21
55.0
 31
0.0
  0
LINE
  5
756
100
AcDbEntity
  8
0
100
AcDbLine
 10
76.9
 20
54.0
 30
0.0
 11
62.5
 21
54.0
 31
0.0
  0
LINE
  5
757
100
AcDbEntity
  8
0
100
AcDbLine
 10
64.5
 20
72.0
 30
0.0
 11
80.5
 21
72.0
 31
0.0
  0
LINE
  5
758
100
AcDbEntity
  8
0
100
AcDbLine
 10
85.5
 20
51.0
 30
0.0
 11
62.5
 21
51.0
 31
0.0
  0
LINE
  5
759
100
AcDbEntity
  8
1
100
AcDbLine
 10
89.5
 20
59.0
 30
0.0
 11
60.5
 21
59.0
 31
0.0
  0
LINE
  5
75A
100
AcDbEntity
  8
0
100
AcDbLine
 10
76.9
 20
59.0
 30
0.0
 11
76.9
 21
64.0
 31
0.0
  0
LINE
  5
75B
100
AcDbEntity
  8
0
100
AcDbLine
 10
76.9
 20
66.0
 30
0.0
 11
76.9
 21
59.0
 31
0.0
  0
LINE
  5
75C
100
AcDbEntity
  8
0
100
AcDbLine
 10
85.5
 20
66.0
 30
0.0
 11
76.9
 21
66.0
 31
0.0
  0
LINE
  5
75D
100
AcDbEntity
  8
0
100
AcDbLine
 10
82.5
 20
72.0
 30
0.0
 11
85.5
 21
72.0
 31
0.0
  0
LINE
  5
75E
100
AcDbEntity
  8
0
100
AcDbLine
 10
82.5
 20
74.0
 30
0.0
 11
80.5
 21
74.0
 31
0.0
  0
LINE
  5
75F
100
AcDbEntity
  8
0
100
AcDbLine
 10
80.5
 20
70.0
 30
0.0
 11
82.5
 21
70.0
 31
0.0
  0
LINE
  5
760
100
AcDbEntity
  8
0
100
AcDbLine
 10
85.5
 20
52.0
 30
0.0
 11
76.9
 21
52.0
 31
0.0
  0
LINE
  5
761
100
AcDbEntity
  8
0
100
AcDbLine
 10
76.9
 20
59.0
 30
0.0
 11
76.9
 21
54.0
 31
0.0
  0
LINE
  5
762
100
AcDbEntity
  8
0
100
AcDbLine
 10
76.9
 20
52.0
 30
0.0
 11
76.9
 21
59.0
 31
0.0
  0
LINE
  5
763
100
AcDbEntity
  8
1
100
AcDbLine
 10
134.961237
 20
103.0
 30
0.0
 11
231.431359
 21
103.0
 31
0.0
  0
LINE
  5
764
100
AcDbEntity
  8
1
100
AcDbLine
 10
183.5
 20
158.75
 30
0.0
 11
183.5
 21
47.5
 31
0.0
  0
ARC
  5
765
100
AcDbEntity
  8
0
100
AcDbCircle
 10
183.5
 20
103.0
 30
0.0
 40
52.0
100
AcDbArc
 50
224.639773
 51
315.360227
  0
CIRCLE
  5
766
100
AcDbEntity
  8
0
100
AcDbCircle
 10
183.5
 20
103.0
 30
0.0
 40
15.0
  0
CIRCLE
  5
767
100
AcDbEntity
  8
0
100
AcDbCircle
 10
183.5
 20
103.0
 30
0.0
 40
31.25
  0
CIRCLE
  5
768
100
AcDbEntity
  8
2
100
AcDbCircle
 10
183.5
 20
103.0
 30
0.0
 40
27.5
  0
CIRCLE
  5
769
100
AcDbEntity
  8
2
100
AcDbCircle
 10
183.5
 20
103.0
 30
0.0
 40
33.0
  0
TEXT
  5
786
100
AcDbEntity
  8
0
100
AcDbText
 10
103.25
 20
55.0
 30
0.0
 40
2.5
  1
BER-6206ZZ
100
AcDbText
  0
TEXT
  5
787
100
AcDbEntity
  8
0
100
AcDbText
 10
103.25
 20
50.833333
 30
0.0
 40
2.5
  1
BERM-6206ZZ
100
AcDbText
  0
TEXT
  5
788
100
AcDbEntity
  8
0
100
AcDbText
 10
103.25
 20
46.666667
 30
0.0
 40
2.5
  1
BERS-6206ZZ
100
AcDbText
  0
LINE
  5
78A
100
AcDbEntity
  8
0
100
AcDbLine
 10
220.5
 20
139.537652
 30
0.0
 11
220.5
 21
66.462348
 31
0.0
  0
LINE
  5
78C
100
AcDbEntity
  8
0
100
AcDbLine
 10
146.5
 20
66.462348
 30
0.0
 11
146.5
 21
139.537652
 31
0.0
  0
LINE
  5
78E
100
AcDbEntity
  8
1
100
AcDbLine
 10
161.5
 20
152.09637
 30
0.0
 11
161.5
 21
132.753458
 31
0.0
  0
LINE
  5
790
100
AcDbEntity
  8
1
100
AcDbLine
 10
205.5
 20
58.268809
 30
0.0
 11
205.5
 21
75.30212
 31
0.0
  0
LINE
  5
792
100
AcDbEntity
  8
1
100
AcDbLine
 10
215.834394
 20
141.5
 30
0.0
 11
197.637933
 21
141.5
 31
0.0
  0
LINE
  5
794
100
AcDbEntity
  8
1
100
AcDbLine
 10
151.424701
 20
64.5
 30
0.0
 11
174.242484
 21
64.5
 31
0.0
  0
ARC
  5
796
100
AcDbEntity
  8
0
100
AcDbCircle
 10
183.5
 20
103.0
 30
0.0
 40
52.0
100
AcDbArc
 50
44.639773
 51
135.360227
  0
LINE
  5
797
100
AcDbEntity
  8
1
100
AcDbLine
 10
197.060267
 20
64.5
 30
0.0
 11
215.545561
 21
64.5
 31
0.0
  0
LINE
  5
798
100
AcDbEntity
  8
1
100
AcDbLine
 10
170.776492
 20
141.5
 30
0.0
 11
151.135868
 21
141.5
 31
0.0
  0
LINE
  5
799
100
AcDbEntity
  8
1
100
AcDbLine
 10
161.5
 20
76.16822
 30
0.0
 11
161.5
 21
57.980109
 31
0.0
  0
LINE
  5
79A
100
AcDbEntity
  8
1
100
AcDbLine
 10
205.5
 20
132.753458
 30
0.0
 11
205.5
 21
152.38507
 31
0.0
  0
CIRCLE
  5
79B
100
AcDbEntity
  8
0
100
AcDbCircle
 10
161.5
 20
141.5
 30
0.0
 40
4.0
  0
CIRCLE
  5
79C
100
AcDbEntity
  8
0
100
AcDbCircle
 10
161.5
 20
141.5
 30
0.0
 40
5.0
  0
CIRCLE
  5
79D
100
AcDbEntity
  8
0
100
AcDbCircle
 10
161.5
 20
141.5
 30
0.0
 40
7.0
  0
CIRCLE
  5
79E
100
AcDbEntity
  8
0
100
AcDbCircle
 10
205.5
 20
141.5
 30
0.0
 40
4.0
  0
CIRCLE
  5
79F
100
AcDbEntity
  8
0
100
AcDbCircle
 10
205.5
 20
141.5
 30
0.0
 40
5.0
  0
CIRCLE
  5
7A0
100
AcDbEntity
  8
0
100
AcDbCircle
 10
205.5
 20
141.5
 30
0.0
 40
7.0
  0
CIRCLE
  5
7A1
100
AcDbEntity
  8
0
100
AcDbCircle
 10
161.5
 20
64.5
 30
0.0
 40
4.0
  0
CIRCLE
  5
7A2
100
AcDbEntity
  8
0
100
AcDbCircle
 10
161.5
 20
64.5
 30
0.0
 40
5.0
  0
CIRCLE
  5
7A3
100
AcDbEntity
  8
0
100
AcDbCircle
 10
161.5
 20
64.5
 30
0.0
 40
7.0
  0
CIRCLE
  5
7A4
100
AcDbEntity
  8
0
100
AcDbCircle
 10
205.5
 20
64.5
 30
0.0
 40
4.0
  0
CIRCLE
  5
7A5
100
AcDbEntity
  8
0
100
AcDbCircle
 10
205.5
 20
64.5
 30
0.0
 40
5.0
  0
CIRCLE
  5
7A6
100
AcDbEntity
  8
0
100
AcDbCircle
 10
205.5
 20
64.5
 30
0.0
 40
7.0
  0
ENDSEC
  0
SECTION
  2
OBJECTS
  0
DICTIONARY
  5
C
100
AcDbDictionary
  3
ACAD_GROUP
350
D
  3
ACAD_MLINESTYLE
350
1B
  0
DICTIONARY
  5
D
102
{ACAD_REACTORS
330
C
102
}
100
AcDbDictionary
  0
DICTIONARY
  5
1B
102
{ACAD_REACTORS
330
C
102
}
100
AcDbDictionary
  3
STANDARD
350
1C
  0
MLINESTYLE
  5
1C
102
{ACAD_REACTORS
330
1B
102
}
100
AcDbMlineStyle
  2
STANDARD
 70
     0
  3

 62
   256
 51
90.0
 52
90.0
 71
     2
 49
0.5
 62
   256
  6
BYLAYER
 49
-0.5
 62
   256
  6
BYLAYER
  0
ENDSEC
  0
EOF
