  0
SECTION
  2
HEADER
  9
$ACADVER
  1
AC1009
  9
$INSBASE
 10
0.0
 20
0.0
 30
0.0
  9
$EXTMIN
 10
38.971601
 20
47.827727
 30
0.0
  9
$EXTMAX
 10
199.0
 20
147.75
 30
0.0
  9
$LIMMIN
 10
0.0
 20
0.0
  9
$LIMMAX
 10
265.0
 20
200.0
  9
$ORTHOMODE
 70
     1
  9
$REGENMODE
 70
     1
  9
$FILLMODE
 70
     1
  9
$QTEXTMODE
 70
     0
  9
$MIRRTEXT
 70
     1
  9
$DRAGMODE
 70
     2
  9
$LTSCALE
 40
1.0
  9
$OSMODE
 70
     0
  9
$ATTMODE
 70
     1
  9
$TEXTSIZE
 40
2.5
  9
$TRACEWID
 40
1.0
  9
$TEXTSTYLE
  7
STANDARD
  9
$CLAYER
  8
2
  9
$CELTYPE
  6
BYLAYER
  9
$CECOLOR
 62
   256
  9
$DIMSCALE
 40
1.0
  9
$DIMASZ
 40
2.5
  9
$DIMEXO
 40
0.625
  9
$DIMDLI
 40
3.75
  9
$DIMRND
 40
0.0
  9
$DIMDLE
 40
0.0
  9
$DIMEXE
 40
1.25
  9
$DIMTP
 40
0.0
  9
$DIMTM
 40
0.0
  9
$DIMTXT
 40
2.5
  9
$DIMCEN
 40
2.5
  9
$DIMTSZ
 40
0.0
  9
$DIMTOL
 70
     0
  9
$DIMLIM
 70
     0
  9
$DIMTIH
 70
     0
  9
$DIMTOH
 70
     0
  9
$DIMSE1
 70
     0
  9
$DIMSE2
 70
     0
  9
$DIMTAD
 70
     1
  9
$DIMZIN
 70
     8
  9
$DIMBLK
  1

  9
$DIMASO
 70
     1
  9
$DIMSHO
 70
     1
  9
$DIMPOST
  1

  9
$DIMAPOST
  1

  9
$DIMALT
 70
     0
  9
$DIMALTD
 70
     4
  9
$DIMALTF
 40
0.0394
  9
$DIMLFAC
 40
1.0
  9
$DIMTOFL
 70
     1
  9
$DIMTVP
 40
0.0
  9
$DIMTIX
 70
     0
  9
$DIMSOXD
 70
     0
  9
$DIMSAH
 70
     0
  9
$DIMBLK1
  1

  9
$DIMBLK2
  1

  9
$DIMSTYLE
  2
STANDARD
  9
$DIMCLRD
 70
     0
  9
$DIMCLRE
 70
     0
  9
$DIMCLRT
 70
     0
  9
$DIMTFAC
 40
1.0
  9
$DIMGAP
 40
0.625
  9
$LUNITS
 70
     2
  9
$LUPREC
 70
     4
  9
$SKETCHINC
 40
1.0
  9
$FILLETRAD
 40
10.0
  9
$AUNITS
 70
     0
  9
$AUPREC
 70
     0
  9
$MENU
  1
.
  9
$ELEVATION
 40
0.0
  9
$PELEVATION
 40
0.0
  9
$THICKNESS
 40
0.0
  9
$LIMCHECK
 70
     0
  9
$BLIPMODE
 70
     0
  9
$CHAMFERA
 40
10.0
  9
$CHAMFERB
 40
10.0
  9
$SKPOLY
 70
     0
  9
$TDCREATE
 40
2452361.611515
  9
$TDUPDATE
 40
2452366.414313
  9
$TDINDWG
 40
0.229699
  9
$TDUSRTIMER
 40
0.229699
  9
$USRTIMER
 70
     1
  9
$ANGBASE
 50
0.0
  9
$ANGDIR
 70
     0
  9
$PDMODE
 70
     0
  9
$PDSIZE
 40
0.0
  9
$PLINEWID
 40
0.0
  9
$COORDS
 70
     2
  9
$SPLFRAME
 70
     0
  9
$SPLINETYPE
 70
     6
  9
$SPLINESEGS
 70
     8
  9
$ATTDIA
 70
     0
  9
$ATTREQ
 70
     1
  9
$HANDLING
 70
     1
  9
$HANDSEED
  5
624
  9
$SURFTAB1
 70
     6
  9
$SURFTAB2
 70
     6
  9
$SURFTYPE
 70
     6
  9
$SURFU
 70
     6
  9
$SURFV
 70
     6
  9
$UCSNAME
  2

  9
$UCSORG
 10
0.0
 20
0.0
 30
0.0
  9
$UCSXDIR
 10
1.0
 20
0.0
 30
0.0
  9
$UCSYDIR
 10
0.0
 20
1.0
 30
0.0
  9
$PUCSNAME
  2

  9
$PUCSORG
 10
0.0
 20
0.0
 30
0.0
  9
$PUCSXDIR
 10
1.0
 20
0.0
 30
0.0
  9
$PUCSYDIR
 10
0.0
 20
1.0
 30
0.0
  9
$USERI1
 70
     0
  9
$USERI2
 70
     0
  9
$USERI3
 70
     0
  9
$USERI4
 70
     0
  9
$USERI5
 70
     0
  9
$USERR1
 40
0.0
  9
$USERR2
 40
0.0
  9
$USERR3
 40
0.0
  9
$USERR4
 40
0.0
  9
$USERR5
 40
0.0
  9
$WORLDVIEW
 70
     1
  9
$SHADEDGE
 70
     3
  9
$SHADEDIF
 70
    70
  9
$TILEMODE
 70
     1
  9
$MAXACTVP
 70
    48
  9
$PLIMCHECK
 70
     0
  9
$PEXTMIN
 10
1.000000E+020
 20
1.000000E+020
 30
1.000000E+020
  9
$PEXTMAX
 10
-1.000000E+020
 20
-1.000000E+020
 30
-1.000000E+020
  9
$PLIMMIN
 10
0.0
 20
0.0
  9
$PLIMMAX
 10
420.0
 20
297.0
  9
$UNITMODE
 70
     0
  9
$VISRETAIN
 70
     1
  9
$PLINEGEN
 70
     0
  9
$PSLTSCALE
 70
     1
  0
ENDSEC
  0
SECTION
  2
TABLES
  0
TABLE
  2
VPORT
 70
     2
  0
VPORT
  2
*ACTIVE
 70
     0
 10
0.0
 20
0.0
 11
1.0
 21
1.0
 12
305.568001
 22
260.837269
 13
0.0
 23
0.0
 14
0.25
 24
0.25
 15
1.0
 25
1.0
 16
0.0
 26
0.0
 36
1.0
 17
0.0
 27
0.0
 37
0.0
 40
521.684258
 41
1.171492
 42
50.0
 43
0.0
 44
0.0
 50
0.0
 51
0.0
 71
     0
 72
 20000
 73
     1
 74
     1
 75
     1
 76
     0
 77
     0
 78
     0
  0
ENDTAB
  0
TABLE
  2
LTYPE
 70
     7
  0
LTYPE
  2
CONTINUOUS
 70
     0
  3
Solid line
 72
    65
 73
     0
 40
0.0
  0
LTYPE
  2
CENTERX2
 70
     0
  3
Center (2x) ________  __  ________  __  _____
 72
    65
 73
     4
 40
101.6
 49
63.5
 49
-12.7
 49
12.7
 49
-12.7
  0
LTYPE
  2
DASHEDX2
 70
     0
  3
Dashed (2x) ____  ____  ____  ____  ____  ___
 72
    65
 73
     2
 40
38.1
 49
25.4
 49
-12.7
  0
LTYPE
  2
DASHED
 70
     0
  3
Dashed __ __ __ __ __ __ __ __ __ __ __ __ __ _
 72
    65
 73
     2
 40
19.05
 49
12.7
 49
-6.35
  0
LTYPE
  2
CENTER
 70
     0
  3
Center ____ _ ____ _ ____ _ ____ _ ____ _ ____
 72
    65
 73
     4
 40
50.8
 49
31.75
 49
-6.35
 49
6.35
 49
-6.35
  0
LTYPE
  2
CENTER2
 70
     0
  3
Center (.5x) ___ _ ___ _ ___ _ ___ _ ___ _ ___
 72
    65
 73
     4
 40
28.575
 49
19.05
 49
-3.175
 49
3.175
 49
-3.175
  0
LTYPE
  2
DASHED2
 70
     0
  3
Dashed (.5x) _ _ _ _ _ _ _ _ _ _ _ _ _ _ _ _ _
 72
    65
 73
     2
 40
9.525
 49
6.35
 49
-3.175
  0
ENDTAB
  0
TABLE
  2
LAYER
 70
     5
  0
LAYER
  2
0
 70
     0
 62
     7
  6
CONTINUOUS
  0
LAYER
  2
1
 70
     0
 62
     1
  6
CENTER2
  0
LAYER
  2
2
 70
     0
 62
     2
  6
DASHED2
  0
LAYER
  2
3
 70
     0
 62
     4
  6
CONTINUOUS
  0
LAYER
  2
DEFPOINTS
 70
     0
 62
     7
  6
CONTINUOUS
  0
ENDTAB
  0
TABLE
  2
STYLE
 70
     2
  0
STYLE
  2
STANDARD
 70
     0
 40
0.0
 41
1.0
 50
0.0
 71
     0
 42
2.5
  3
txt
  4

  0
STYLE
  2

 70
     1
 40
0.0
 41
1.0
 50
0.0
 71
     0
 42
2.5
  3
ltypeshp.shx
  4

  0
ENDTAB
  0
TABLE
  2
VIEW
 70
     0
  0
ENDTAB
  0
TABLE
  2
UCS
 70
     0
  0
ENDTAB
  0
TABLE
  2
APPID
 70
     1
  0
APPID
  2
ACAD
 70
     0
  0
ENDTAB
  0
TABLE
  2
DIMSTYLE
 70
     1
  0
DIMSTYLE
  2
STANDARD
 70
     0
  3

  4

  5

  6

  7

 40
1.0
 41
0.18
 42
0.0625
 43
0.38
 44
0.18
 45
0.0
 46
0.0
 47
0.0
 48
0.0
140
0.18
141
0.09
142
0.0
143
25.4
144
1.0
145
0.0
146
1.0
147
0.09
 71
     0
 72
     0
 73
     1
 74
     1
 75
     0
 76
     0
 77
     0
 78
     0
170
     0
171
     2
172
     0
173
     0
174
     0
175
     0
176
     0
177
     0
178
     0
  0
ENDTAB
  0
ENDSEC
  0
SECTION
  2
BLOCKS
  0
BLOCK
  8
0
  2
$MODEL_SPACE
 70
     0
 10
0.0
 20
0.0
 30
0.0
  3
$MODEL_SPACE
  1

  0
ENDBLK
  5
1A
  8
0
  0
BLOCK
 67
     1
  8
0
  2
$PAPER_SPACE
 70
     0
 10
0.0
 20
0.0
 30
0.0
  3
$PAPER_SPACE
  1

  0
ENDBLK
  5
17
 67
     1
  8
0
  0
BLOCK
  8
0
  2
A$C3AEE246E
 70
     0
 10
0.0
 20
0.0
 30
0.0
  3
A$C3AEE246E
  1

  0
LINE
  5
5BA
  8
0
 10
25.0
 20
40.5
 30
0.0
 11
25.0
 21
30.5
 31
0.0
  0
LINE
  5
5BB
  8
0
 10
25.0
 20
40.5
 30
0.0
 11
25.0
 21
17.0
 31
0.0
  0
LINE
  5
5BC
  8
0
 10
21.0
 20
40.5
 30
0.0
 11
21.0
 21
15.75
 31
0.0
  0
LINE
  5
5BD
  8
0
 10
22.9
 20
15.75
 30
0.0
 11
22.9
 21
40.5
 31
0.0
  0
LINE
  5
5BE
  8
0
 10
25.0
 20
40.5
 30
0.0
 11
25.0
 21
0.0
 31
0.0
  0
LINE
  5
5BF
  8
0
 10
7.0
 20
40.5
 30
0.0
 11
7.0
 21
20.5
 31
0.0
  0
LINE
  5
5C0
  8
0
 10
7.0
 20
17.0
 30
0.0
 11
7.0
 21
40.5
 31
0.0
  0
LINE
  5
5C1
  8
0
 10
5.0
 20
0.0
 30
0.0
 11
5.0
 21
40.5
 31
0.0
  0
LINE
  5
5C2
  8
1
 10
28.0
 20
6.5
 30
0.0
 11
8.75
 21
6.5
 31
0.0
  0
LINE
  5
5C3
  8
0
 10
25.0
 20
1.0
 30
0.0
 11
18.5
 21
1.0
 31
0.0
  0
LINE
  5
5C4
  8
0
 10
18.5
 20
12.0
 30
0.0
 11
25.0
 21
12.0
 31
0.0
  0
LINE
  5
5C5
  8
0
 10
25.0
 20
0.0
 30
0.0
 11
5.0
 21
0.0
 31
0.0
  0
LINE
  5
5C6
  8
0
 10
21.0
 20
30.5
 30
0.0
 11
7.0
 21
30.5
 31
0.0
  0
LINE
  5
5C7
  8
0
 10
17.570714
 20
27.25
 30
0.0
 11
21.0
 21
27.25
 31
0.0
  0
LINE
  5
5C8
  8
0
 10
17.570714
 20
20.25
 30
0.0
 11
21.0
 21
20.25
 31
0.0
  0
LINE
  5
5C9
  8
0
 10
21.0
 20
17.0
 30
0.0
 11
7.0
 21
17.0
 31
0.0
  0
LINE
  5
5CA
  8
0
 10
18.5
 20
1.0
 30
0.0
 11
18.5
 21
12.0
 31
0.0
  0
LINE
  5
5CB
  8
0
 10
11.0
 20
3.1
 30
0.0
 11
5.0
 21
3.1
 31
0.0
  0
LINE
  5
5CC
  8
0
 10
11.0
 20
2.5
 30
0.0
 11
5.0
 21
2.5
 31
0.0
  0
LINE
  5
5CD
  8
0
 10
14.0
 20
2.5
 30
0.0
 11
18.5
 21
2.5
 31
0.0
  0
LINE
  5
5CE
  8
0
 10
14.0
 20
3.1
 30
0.0
 11
18.5
 21
3.1
 31
0.0
  0
LINE
  5
5CF
  8
0
 10
14.0
 20
2.5
 30
0.0
 11
11.0
 21
2.5
 31
0.0
  0
LINE
  5
5D0
  8
0
 10
14.0
 20
3.1
 30
0.0
 11
11.0
 21
3.1
 31
0.0
  0
LINE
  5
5D1
  8
0
 10
20.25
 20
26.25
 30
0.0
 11
20.25
 21
21.25
 31
0.0
  0
LINE
  5
5D2
  8
0
 10
7.75
 20
26.25
 30
0.0
 11
7.75
 21
21.25
 31
0.0
  0
CIRCLE
  5
5D3
  8
0
 10
14.0
 20
23.75
 30
0.0
 40
5.0
  0
LINE
  5
5D4
  8
0
 10
11.0
 20
9.9
 30
0.0
 11
5.0
 21
9.9
 31
0.0
  0
LINE
  5
5D5
  8
0
 10
11.0
 20
10.5
 30
0.0
 11
5.0
 21
10.5
 31
0.0
  0
LINE
  5
5D6
  8
1
 10
8.75
 20
6.5
 30
0.0
 11
0.75
 21
6.5
 31
0.0
  0
LINE
  5
5D7
  8
0
 10
7.0
 20
20.5
 30
0.0
 11
5.0
 21
20.5
 31
0.0
  0
LINE
  5
5D8
  8
0
 10
7.0
 20
20.25
 30
0.0
 11
10.429286
 21
20.25
 31
0.0
  0
LINE
  5
5D9
  8
0
 10
7.75
 20
21.25
 30
0.0
 11
8.75
 21
20.25
 31
0.0
  0
LINE
  5
5DA
  8
0
 10
14.0
 20
9.9
 30
0.0
 11
18.5
 21
9.9
 31
0.0
  0
LINE
  5
5DB
  8
0
 10
14.0
 20
10.5
 30
0.0
 11
18.5
 21
10.5
 31
0.0
  0
LINE
  5
5DC
  8
0
 10
14.0
 20
9.9
 30
0.0
 11
11.0
 21
9.9
 31
0.0
  0
LINE
  5
5DD
  8
0
 10
14.0
 20
10.5
 30
0.0
 11
11.0
 21
10.5
 31
0.0
  0
LINE
  5
5DE
  8
0
 10
20.25
 20
21.25
 30
0.0
 11
19.25
 21
20.25
 31
0.0
  0
LINE
  5
5DF
  8
0
 10
7.0
 20
27.25
 30
0.0
 11
10.429286
 21
27.25
 31
0.0
  0
LINE
  5
5E0
  8
0
 10
8.75
 20
27.25
 30
0.0
 11
7.75
 21
26.25
 31
0.0
  0
LINE
  5
5E1
  8
0
 10
19.25
 20
27.25
 30
0.0
 11
20.25
 21
26.25
 31
0.0
  0
LINE
  5
5E2
  8
0
 10
25.0
 20
17.0
 30
0.0
 11
22.9
 21
17.0
 31
0.0
  0
LINE
  5
5E3
  8
0
 10
21.0
 20
15.75
 30
0.0
 11
22.9
 21
15.75
 31
0.0
  0
LINE
  5
5E4
  8
0
 10
21.0
 20
64.0
 30
0.0
 11
7.0
 21
64.0
 31
0.0
  0
LINE
  5
5E5
  8
0
 10
17.570714
 20
53.75
 30
0.0
 11
21.0
 21
53.75
 31
0.0
  0
LINE
  5
5E6
  8
0
 10
17.570714
 20
60.75
 30
0.0
 11
21.0
 21
60.75
 31
0.0
  0
LINE
  5
5E7
  8
0
 10
21.0
 20
50.5
 30
0.0
 11
7.0
 21
50.5
 31
0.0
  0
LINE
  5
5E8
  8
0
 10
25.0
 20
81.0
 30
0.0
 11
5.0
 21
81.0
 31
0.0
  0
LINE
  5
5E9
  8
0
 10
18.5
 20
69.0
 30
0.0
 11
25.0
 21
69.0
 31
0.0
  0
LINE
  5
5EA
  8
0
 10
25.0
 20
80.0
 30
0.0
 11
18.5
 21
80.0
 31
0.0
  0
LINE
  5
5EB
  8
1
 10
28.0
 20
74.5
 30
0.0
 11
8.75
 21
74.5
 31
0.0
  0
LINE
  5
5EC
  8
1
 10
31.0
 20
40.5
 30
0.0
 11
5.5
 21
40.5
 31
0.0
  0
LINE
  5
5ED
  8
0
 10
5.0
 20
81.0
 30
0.0
 11
5.0
 21
40.5
 31
0.0
  0
LINE
  5
5EE
  8
1
 10
5.5
 20
40.5
 30
0.0
 11
0.0
 21
40.5
 31
0.0
  0
LINE
  5
5EF
  8
1
 10
5.5
 20
40.5
 30
0.0
 11
0.0
 21
40.5
 31
0.0
  0
CIRCLE
  5
5F0
  8
0
 10
14.0
 20
57.25
 30
0.0
 40
5.0
  0
LINE
  5
5F1
  8
0
 10
7.0
 20
40.5
 30
0.0
 11
7.0
 21
60.5
 31
0.0
  0
LINE
  5
5F2
  8
0
 10
7.0
 20
64.0
 30
0.0
 11
7.0
 21
40.5
 31
0.0
  0
LINE
  5
5F3
  8
0
 10
7.0
 20
60.5
 30
0.0
 11
5.0
 21
60.5
 31
0.0
  0
LINE
  5
5F4
  8
0
 10
7.75
 20
54.75
 30
0.0
 11
7.75
 21
59.75
 31
0.0
  0
LINE
  5
5F5
  8
0
 10
8.75
 20
53.75
 30
0.0
 11
7.75
 21
54.75
 31
0.0
  0
LINE
  5
5F6
  8
0
 10
7.0
 20
53.75
 30
0.0
 11
10.429286
 21
53.75
 31
0.0
  0
LINE
  5
5F7
  8
0
 10
7.75
 20
59.75
 30
0.0
 11
8.75
 21
60.75
 31
0.0
  0
LINE
  5
5F8
  8
0
 10
7.0
 20
60.75
 30
0.0
 11
10.429286
 21
60.75
 31
0.0
  0
LINE
  5
5F9
  8
0
 10
20.25
 20
54.75
 30
0.0
 11
20.25
 21
59.75
 31
0.0
  0
LINE
  5
5FA
  8
0
 10
19.25
 20
53.75
 30
0.0
 11
20.25
 21
54.75
 31
0.0
  0
LINE
  5
5FB
  8
0
 10
20.25
 20
59.75
 30
0.0
 11
19.25
 21
60.75
 31
0.0
  0
LINE
  5
5FC
  8
0
 10
11.0
 20
70.5
 30
0.0
 11
5.0
 21
70.5
 31
0.0
  0
LINE
  5
5FD
  8
0
 10
11.0
 20
71.1
 30
0.0
 11
5.0
 21
71.1
 31
0.0
  0
LINE
  5
5FE
  8
0
 10
11.0
 20
77.9
 30
0.0
 11
5.0
 21
77.9
 31
0.0
  0
LINE
  5
5FF
  8
0
 10
11.0
 20
78.5
 30
0.0
 11
5.0
 21
78.5
 31
0.0
  0
LINE
  5
600
  8
1
 10
8.75
 20
74.5
 30
0.0
 11
0.75
 21
74.5
 31
0.0
  0
LINE
  5
601
  8
0
 10
18.5
 20
80.0
 30
0.0
 11
18.5
 21
69.0
 31
0.0
  0
LINE
  5
602
  8
0
 10
14.0
 20
70.5
 30
0.0
 11
18.5
 21
70.5
 31
0.0
  0
LINE
  5
603
  8
0
 10
14.0
 20
71.1
 30
0.0
 11
18.5
 21
71.1
 31
0.0
  0
LINE
  5
604
  8
0
 10
14.0
 20
70.5
 30
0.0
 11
11.0
 21
70.5
 31
0.0
  0
LINE
  5
605
  8
0
 10
14.0
 20
71.1
 30
0.0
 11
11.0
 21
71.1
 31
0.0
  0
LINE
  5
606
  8
0
 10
14.0
 20
77.9
 30
0.0
 11
18.5
 21
77.9
 31
0.0
  0
LINE
  5
607
  8
0
 10
14.0
 20
78.5
 30
0.0
 11
18.5
 21
78.5
 31
0.0
  0
LINE
  5
608
  8
0
 10
14.0
 20
77.9
 30
0.0
 11
11.0
 21
77.9
 31
0.0
  0
LINE
  5
609
  8
0
 10
14.0
 20
78.5
 30
0.0
 11
11.0
 21
78.5
 31
0.0
  0
LINE
  5
60A
  8
0
 10
25.0
 20
40.5
 30
0.0
 11
25.0
 21
81.0
 31
0.0
  0
LINE
  5
60B
  8
0
 10
22.9
 20
65.25
 30
0.0
 11
22.9
 21
40.5
 31
0.0
  0
LINE
  5
60C
  8
0
 10
21.0
 20
40.5
 30
0.0
 11
21.0
 21
65.25
 31
0.0
  0
LINE
  5
60D
  8
0
 10
25.0
 20
40.5
 30
0.0
 11
25.0
 21
64.0
 31
0.0
  0
LINE
  5
60E
  8
0
 10
25.0
 20
40.5
 30
0.0
 11
25.0
 21
50.5
 31
0.0
  0
LINE
  5
60F
  8
0
 10
25.0
 20
64.0
 30
0.0
 11
22.9
 21
64.0
 31
0.0
  0
LINE
  5
610
  8
0
 10
21.0
 20
65.25
 30
0.0
 11
22.9
 21
65.25
 31
0.0
  0
ENDBLK
  5
612
  8
0
  0
ENDSEC
  0
SECTION
  2
ENTITIES
  0
LINE
  5
3C2
  8
1
 10
127.0
 20
103.0
 30
0.0
 11
199.0
 21
103.0
 31
0.0
  0
LINE
  5
3C3
  8
1
 10
163.0
 20
63.0
 30
0.0
 11
163.0
 21
147.75
 31
0.0
  0
CIRCLE
  5
4A1
  8
0
 10
180.0
 20
132.444864
 30
0.0
 40
5.5
  0
CIRCLE
  5
4A3
  8
0
 10
180.0
 20
73.5
 30
0.0
 40
5.5
  0
CIRCLE
  5
4A5
  8
0
 10
180.0
 20
132.444864
 30
0.0
 40
4.0
  0
CIRCLE
  5
4A7
  8
0
 10
180.0
 20
73.5
 30
0.0
 40
4.0
  0
CIRCLE
  5
4A9
  8
0
 10
180.0
 20
132.444864
 30
0.0
 40
3.4
  0
CIRCLE
  5
4AB
  8
0
 10
180.0
 20
73.5
 30
0.0
 40
3.4
  0
CIRCLE
  5
4AD
  8
0
 10
163.0
 20
103.0
 30
0.0
 40
10.0
  0
ARC
  5
549
  8
0
 10
163.0
 20
103.0
 30
0.0
 40
40.5
 50
224.270734
 51
315.729266
  0
LINE
  5
59A
  8
0
 10
134.0
 20
131.27101
 30
0.0
 11
134.0
 21
74.72899
 31
0.0
  0
LINE
  5
59C
  8
0
 10
192.0
 20
74.72899
 30
0.0
 11
192.0
 21
131.27101
 31
0.0
  0
ARC
  5
59D
  8
0
 10
163.0
 20
103.0
 30
0.0
 40
40.5
 50
44.270734
 51
135.729266
  0
LINE
  5
59F
  8
1
 10
137.698187
 20
73.5
 30
0.0
 11
155.125593
 21
73.5
 31
0.0
  0
LINE
  5
5A1
  8
1
 10
187.239016
 20
132.5
 30
0.0
 11
171.965559
 21
132.5
 31
0.0
  0
LINE
  5
5A3
  8
1
 10
146.0
 20
141.360092
 30
0.0
 11
146.0
 21
123.941131
 31
0.0
  0
LINE
  5
5A5
  8
1
 10
180.0
 20
64.051223
 30
0.0
 11
180.0
 21
81.274465
 31
0.0
  0
CIRCLE
  5
5A6
  8
0
 10
146.095858
 20
132.444864
 30
0.0
 40
5.5
  0
CIRCLE
  5
5A7
  8
0
 10
146.095858
 20
132.444864
 30
0.0
 40
4.0
  0
CIRCLE
  5
5A8
  8
0
 10
146.095858
 20
132.444864
 30
0.0
 40
3.4
  0
CIRCLE
  5
5AA
  8
0
 10
146.0
 20
73.5
 30
0.0
 40
5.5
  0
CIRCLE
  5
5AB
  8
0
 10
146.0
 20
73.5
 30
0.0
 40
4.0
  0
CIRCLE
  5
5AC
  8
0
 10
146.0
 20
73.5
 30
0.0
 40
3.4
  0
LINE
  5
5AD
  8
1
 10
153.754899
 20
132.5
 30
0.0
 11
137.894
 21
132.5
 31
0.0
  0
LINE
  5
5AE
  8
1
 10
180.0
 20
123.353975
 30
0.0
 11
180.0
 21
142.142966
 31
0.0
  0
LINE
  5
5AF
  8
1
 10
146.0
 20
82.253058
 30
0.0
 11
146.0
 21
64.246942
 31
0.0
  0
LINE
  5
5B0
  8
1
 10
171.182305
 20
73.5
 30
0.0
 11
187.239016
 21
73.5
 31
0.0
  0
TEXT
  5
5B8
  8
0
 10
91.916525
 20
47.827727
 30
0.0
 40
2.5
  1
BER-6204ZZ
  0
INSERT
  5
613
  8
0
  2
A$C3AEE246E
 10
38.971601
 20
62.5
 30
0.0
  0
CIRCLE
  5
61A
  8
0
 10
163.0
 20
103.0
 30
0.0
 40
23.5
  0
CIRCLE
  5
61C
  8
2
 10
163.0
 20
103.0
 30
0.0
 40
24.75
  0
CIRCLE
  5
61D
  8
2
 10
163.0
 20
103.0
 30
0.0
 40
20.0
  0
ENDSEC
  0
EOF
