  0
SECTION
  2
HEADER
  9
$ACADVER
  1
AC1014
  9
$ACADMAINTVER
 70
     0
  9
$DWGCODEPAGE
  3
ANSI_932
  9
$INSBASE
 10
0.0
 20
0.0
 30
0.0
  9
$EXTMIN
 10
56.75
 20
28.583333
 30
0.0
  9
$EXTMAX
 10
258.25
 20
176.057212
 30
0.0
  9
$LIMMIN
 10
0.0
 20
0.0
  9
$LIMMAX
 10
265.0
 20
200.0
  9
$ORTHOMODE
 70
     0
  9
$REGENMODE
 70
     1
  9
$FILLMODE
 70
     1
  9
$QTEXTMODE
 70
     0
  9
$MIRRTEXT
 70
     1
  9
$DRAGMODE
 70
     2
  9
$LTSCALE
 40
1.0
  9
$OSMODE
 70
     0
  9
$ATTMODE
 70
     1
  9
$TEXTSIZE
 40
2.5
  9
$TRACEWID
 40
1.0
  9
$TEXTSTYLE
  7
STANDARD
  9
$CLAYER
  8
0
  9
$CELTYPE
  6
BYLAYER
  9
$CECOLOR
 62
   256
  9
$CELTSCALE
 40
1.0
  9
$DELOBJ
 70
     1
  9
$DISPSILH
 70
     0
  9
$DIMSCALE
 40
1.0
  9
$DIMASZ
 40
2.5
  9
$DIMEXO
 40
0.625
  9
$DIMDLI
 40
3.75
  9
$DIMRND
 40
0.0
  9
$DIMDLE
 40
0.0
  9
$DIMEXE
 40
1.25
  9
$DIMTP
 40
0.0
  9
$DIMTM
 40
0.0
  9
$DIMTXT
 40
2.5
  9
$DIMCEN
 40
2.5
  9
$DIMTSZ
 40
0.0
  9
$DIMTOL
 70
     0
  9
$DIMLIM
 70
     0
  9
$DIMTIH
 70
     0
  9
$DIMTOH
 70
     0
  9
$DIMSE1
 70
     0
  9
$DIMSE2
 70
     0
  9
$DIMTAD
 70
     1
  9
$DIMZIN
 70
     8
  9
$DIMBLK
  1

  9
$DIMASO
 70
     1
  9
$DIMSHO
 70
     1
  9
$DIMPOST
  1

  9
$DIMAPOST
  1

  9
$DIMALT
 70
     0
  9
$DIMALTD
 70
     4
  9
$DIMALTF
 40
0.0394
  9
$DIMLFAC
 40
1.0
  9
$DIMTOFL
 70
     1
  9
$DIMTVP
 40
0.0
  9
$DIMTIX
 70
     0
  9
$DIMSOXD
 70
     0
  9
$DIMSAH
 70
     0
  9
$DIMBLK1
  1

  9
$DIMBLK2
  1

  9
$DIMSTYLE
  2
STANDARD
  9
$DIMCLRD
 70
     0
  9
$DIMCLRE
 70
     0
  9
$DIMCLRT
 70
     0
  9
$DIMTFAC
 40
1.0
  9
$DIMGAP
 40
0.625
  9
$DIMJUST
 70
     0
  9
$DIMSD1
 70
     0
  9
$DIMSD2
 70
     0
  9
$DIMTOLJ
 70
     1
  9
$DIMTZIN
 70
     0
  9
$DIMALTZ
 70
     0
  9
$DIMALTTZ
 70
     0
  9
$DIMFIT
 70
     3
  9
$DIMUPT
 70
     0
  9
$DIMUNIT
 70
     8
  9
$DIMDEC
 70
     4
  9
$DIMTDEC
 70
     4
  9
$DIMALTU
 70
     8
  9
$DIMALTTD
 70
     4
  9
$DIMTXSTY
  7
STANDARD
  9
$DIMAUNIT
 70
     0
  9
$LUNITS
 70
     2
  9
$LUPREC
 70
     4
  9
$SKETCHINC
 40
1.0
  9
$FILLETRAD
 40
10.0
  9
$AUNITS
 70
     0
  9
$AUPREC
 70
     0
  9
$MENU
  1
.
  9
$ELEVATION
 40
0.0
  9
$PELEVATION
 40
0.0
  9
$THICKNESS
 40
0.0
  9
$LIMCHECK
 70
     0
  9
$BLIPMODE
 70
     0
  9
$CHAMFERA
 40
10.0
  9
$CHAMFERB
 40
10.0
  9
$CHAMFERC
 40
20.0
  9
$CHAMFERD
 40
0.0
  9
$SKPOLY
 70
     0
  9
$TDCREATE
 40
2452361.611514583
  9
$TDUPDATE
 40
2452819.694615393
  9
$TDINDWG
 40
0.3028884259
  9
$TDUSRTIMER
 40
0.3028884259
  9
$USRTIMER
 70
     1
  9
$ANGBASE
 50
0.0
  9
$ANGDIR
 70
     0
  9
$PDMODE
 70
     0
  9
$PDSIZE
 40
0.0
  9
$PLINEWID
 40
0.0
  9
$COORDS
 70
     2
  9
$SPLFRAME
 70
     0
  9
$SPLINETYPE
 70
     6
  9
$SPLINESEGS
 70
     8
  9
$ATTDIA
 70
     0
  9
$ATTREQ
 70
     1
  9
$HANDLING
 70
     1
  9
$HANDSEED
  5
869
  9
$SURFTAB1
 70
     6
  9
$SURFTAB2
 70
     6
  9
$SURFTYPE
 70
     6
  9
$SURFU
 70
     6
  9
$SURFV
 70
     6
  9
$UCSNAME
  2

  9
$UCSORG
 10
0.0
 20
0.0
 30
0.0
  9
$UCSXDIR
 10
1.0
 20
0.0
 30
0.0
  9
$UCSYDIR
 10
0.0
 20
1.0
 30
0.0
  9
$PUCSNAME
  2

  9
$PUCSORG
 10
0.0
 20
0.0
 30
0.0
  9
$PUCSXDIR
 10
1.0
 20
0.0
 30
0.0
  9
$PUCSYDIR
 10
0.0
 20
1.0
 30
0.0
  9
$USERI1
 70
     0
  9
$USERI2
 70
     0
  9
$USERI3
 70
     0
  9
$USERI4
 70
     0
  9
$USERI5
 70
     0
  9
$USERR1
 40
0.0
  9
$USERR2
 40
0.0
  9
$USERR3
 40
0.0
  9
$USERR4
 40
0.0
  9
$USERR5
 40
0.0
  9
$WORLDVIEW
 70
     1
  9
$SHADEDGE
 70
     3
  9
$SHADEDIF
 70
    70
  9
$TILEMODE
 70
     1
  9
$MAXACTVP
 70
    48
  9
$PINSBASE
 10
0.0
 20
0.0
 30
0.0
  9
$PLIMCHECK
 70
     0
  9
$PEXTMIN
 10
1.000000E+20
 20
1.000000E+20
 30
1.000000E+20
  9
$PEXTMAX
 10
-1.000000E+20
 20
-1.000000E+20
 30
-1.000000E+20
  9
$PLIMMIN
 10
0.0
 20
0.0
  9
$PLIMMAX
 10
420.0
 20
297.0
  9
$UNITMODE
 70
     0
  9
$VISRETAIN
 70
     1
  9
$PLINEGEN
 70
     0
  9
$PSLTSCALE
 70
     1
  9
$TREEDEPTH
 70
  3020
  9
$PICKSTYLE
 70
     1
  9
$CMLSTYLE
  2
STANDARD
  9
$CMLJUST
 70
     0
  9
$CMLSCALE
 40
20.0
  9
$PROXYGRAPHICS
 70
     1
  9
$MEASUREMENT
 70
     1
  0
ENDSEC
  0
SECTION
  2
CLASSES
  0
ENDSEC
  0
SECTION
  2
TABLES
  0
TABLE
  2
VPORT
  5
8
100
AcDbSymbolTable
 70
     4
  0
VPORT
  5
868
100
AcDbSymbolTableRecord
100
AcDbViewportTableRecord
  2
*ACTIVE
 70
     0
 10
0.0
 20
0.0
 11
1.0
 21
1.0
 12
148.626178
 22
100.131185
 13
0.0
 23
0.0
 14
0.25
 24
0.25
 15
1.0
 25
1.0
 16
0.0
 26
0.0
 36
1.0
 17
0.0
 27
0.0
 37
0.0
 40
196.604828
 41
1.454412
 42
50.0
 43
0.0
 44
0.0
 50
0.0
 51
0.0
 71
     0
 72
 20000
 73
     1
 74
     1
 75
     0
 76
     0
 77
     0
 78
     0
  0
ENDTAB
  0
TABLE
  2
LTYPE
  5
5
100
AcDbSymbolTable
 70
     7
  0
LTYPE
  5
12
100
AcDbSymbolTableRecord
100
AcDbLinetypeTableRecord
  2
BYBLOCK
 70
     0
  3

 72
    65
 73
     0
 40
0.0
  0
LTYPE
  5
13
100
AcDbSymbolTableRecord
100
AcDbLinetypeTableRecord
  2
BYLAYER
 70
     0
  3

 72
    65
 73
     0
 40
0.0
  0
LTYPE
  5
14
100
AcDbSymbolTableRecord
100
AcDbLinetypeTableRecord
  2
CONTINUOUS
 70
     0
  3
Solid line
 72
    65
 73
     0
 40
0.0
  0
LTYPE
  5
22
100
AcDbSymbolTableRecord
100
AcDbLinetypeTableRecord
  2
CENTERX2
 70
     0
  3
Center (2x) ________  __  ________  __  _____
 72
    65
 73
     4
 40
101.6
 49
63.5
 74
     0
 49
-12.7
 74
     0
 49
12.7
 74
     0
 49
-12.7
 74
     0
  0
LTYPE
  5
25
100
AcDbSymbolTableRecord
100
AcDbLinetypeTableRecord
  2
DASHEDX2
 70
     0
  3
Dashed (2x) ____  ____  ____  ____  ____  ___
 72
    65
 73
     2
 40
38.1
 49
25.4
 74
     0
 49
-12.7
 74
     0
  0
LTYPE
  5
28
100
AcDbSymbolTableRecord
100
AcDbLinetypeTableRecord
  2
DASHED
 70
     0
  3
Dashed __ __ __ __ __ __ __ __ __ __ __ __ __ _
 72
    65
 73
     2
 40
19.05
 49
12.7
 74
     0
 49
-6.35
 74
     0
  0
LTYPE
  5
29
100
AcDbSymbolTableRecord
100
AcDbLinetypeTableRecord
  2
CENTER
 70
     0
  3
Center ____ _ ____ _ ____ _ ____ _ ____ _ ____
 72
    65
 73
     4
 40
50.8
 49
31.75
 74
     0
 49
-6.35
 74
     0
 49
6.35
 74
     0
 49
-6.35
 74
     0
  0
LTYPE
  5
2B
100
AcDbSymbolTableRecord
100
AcDbLinetypeTableRecord
  2
CENTER2
 70
     0
  3
Center (.5x) ___ _ ___ _ ___ _ ___ _ ___ _ ___
 72
    65
 73
     4
 40
28.575
 49
19.05
 74
     0
 49
-3.175
 74
     0
 49
3.175
 74
     0
 49
-3.175
 74
     0
  0
LTYPE
  5
2C
100
AcDbSymbolTableRecord
100
AcDbLinetypeTableRecord
  2
DASHED2
 70
     0
  3
Dashed (.5x) _ _ _ _ _ _ _ _ _ _ _ _ _ _ _ _ _
 72
    65
 73
     2
 40
9.525
 49
6.35
 74
     0
 49
-3.175
 74
     0
  0
ENDTAB
  0
TABLE
  2
LAYER
  5
2
100
AcDbSymbolTable
 70
     5
  0
LAYER
  5
E
100
AcDbSymbolTableRecord
100
AcDbLayerTableRecord
  2
0
 70
     0
 62
     7
  6
CONTINUOUS
  0
LAYER
  5
23
100
AcDbSymbolTableRecord
100
AcDbLayerTableRecord
  2
1
 70
     0
 62
     1
  6
CENTER2
  0
LAYER
  5
24
100
AcDbSymbolTableRecord
100
AcDbLayerTableRecord
  2
2
 70
     0
 62
     2
  6
DASHED2
  0
LAYER
  5
26
100
AcDbSymbolTableRecord
100
AcDbLayerTableRecord
  2
3
 70
     0
 62
     4
  6
CONTINUOUS
  0
LAYER
  5
333
100
AcDbSymbolTableRecord
100
AcDbLayerTableRecord
  2
DEFPOINTS
 70
     0
 62
     7
  6
CONTINUOUS
  0
ENDTAB
  0
TABLE
  2
STYLE
  5
3
100
AcDbSymbolTable
 70
     2
  0
STYLE
  5
F
100
AcDbSymbolTableRecord
100
AcDbTextStyleTableRecord
  2
STANDARD
 70
     0
 40
0.0
 41
1.0
 50
0.0
 71
     0
 42
2.5
  3
txt
  4

  0
STYLE
  5
21
100
AcDbSymbolTableRecord
100
AcDbTextStyleTableRecord
  2

 70
     1
 40
0.0
 41
1.0
 50
0.0
 71
     0
 42
2.5
  3
ltypeshp.shx
  4

  0
ENDTAB
  0
TABLE
  2
VIEW
  5
6
100
AcDbSymbolTable
 70
     0
  0
ENDTAB
  0
TABLE
  2
UCS
  5
7
100
AcDbSymbolTable
 70
     0
  0
ENDTAB
  0
TABLE
  2
APPID
  5
9
100
AcDbSymbolTable
 70
     1
  0
APPID
  5
10
100
AcDbSymbolTableRecord
100
AcDbRegAppTableRecord
  2
ACAD
 70
     0
  0
ENDTAB
  0
TABLE
  2
DIMSTYLE
  5
A
100
AcDbSymbolTable
 70
     1
  0
DIMSTYLE
105
1D
100
AcDbSymbolTableRecord
100
AcDbDimStyleTableRecord
  2
STANDARD
 70
     0
  3

  4

  5

  6

  7

 40
1.0
 41
0.18
 42
0.0625
 43
0.38
 44
0.18
 45
0.0
 46
0.0
 47
0.0
 48
0.0
140
0.18
141
0.09
142
0.0
143
25.4
144
1.0
145
0.0
146
1.0
147
0.09
 71
     0
 72
     0
 73
     1
 74
     1
 75
     0
 76
     0
 77
     0
 78
     0
170
     0
171
     2
172
     0
173
     0
174
     0
175
     0
176
     0
177
     0
178
     0
270
     2
271
     4
272
     4
273
     2
274
     2
340
F
275
     0
280
     0
281
     0
282
     0
283
     1
284
     0
285
     0
286
     0
287
     3
288
     0
  0
ENDTAB
  0
TABLE
  2
BLOCK_RECORD
  5
1
100
AcDbSymbolTable
 70
     0
  0
BLOCK_RECORD
  5
18
100
AcDbSymbolTableRecord
100
AcDbBlockTableRecord
  2
*MODEL_SPACE
  0
BLOCK_RECORD
  5
15
100
AcDbSymbolTableRecord
100
AcDbBlockTableRecord
  2
*PAPER_SPACE
  0
ENDTAB
  0
ENDSEC
  0
SECTION
  2
BLOCKS
  0
BLOCK
  5
19
100
AcDbEntity
  8
0
100
AcDbBlockBegin
  2
*MODEL_SPACE
 70
     0
 10
0.0
 20
0.0
 30
0.0
  3
*MODEL_SPACE
  1

  0
ENDBLK
  5
1A
100
AcDbEntity
  8
0
100
AcDbBlockEnd
  0
BLOCK
  5
16
100
AcDbEntity
 67
     1
  8
0
100
AcDbBlockBegin
  2
*PAPER_SPACE
 70
     0
 10
0.0
 20
0.0
 30
0.0
  3
*PAPER_SPACE
  1

  0
ENDBLK
  5
17
100
AcDbEntity
 67
     1
  8
0
100
AcDbBlockEnd
  0
ENDSEC
  0
SECTION
  2
ENTITIES
  0
LINE
  5
7D0
100
AcDbEntity
  8
1
100
AcDbLine
 10
56.75
 20
103.0
 30
0.0
 11
91.25
 21
103.0
 31
0.0
  0
LINE
  5
7D2
100
AcDbEntity
  8
1
100
AcDbLine
 10
91.25
 20
151.0
 30
0.0
 11
59.25
 21
151.0
 31
0.0
  0
LINE
  5
7D3
100
AcDbEntity
  8
0
100
AcDbLine
 10
86.5
 20
103.0
 30
0.0
 11
86.5
 21
160.0
 31
0.0
  0
LINE
  5
7D4
100
AcDbEntity
  8
0
100
AcDbLine
 10
86.5
 20
160.0
 30
0.0
 11
63.5
 21
160.0
 31
0.0
  0
LINE
  5
7D5
100
AcDbEntity
  8
0
100
AcDbLine
 10
63.5
 20
160.0
 30
0.0
 11
63.5
 21
103.0
 31
0.0
  0
LINE
  5
7D6
100
AcDbEntity
  8
0
100
AcDbLine
 10
63.5
 20
103.0
 30
0.0
 11
63.5
 21
133.0
 31
0.0
  0
LINE
  5
7D7
100
AcDbEntity
  8
0
100
AcDbLine
 10
63.5
 20
133.0
 30
0.0
 11
65.5
 21
133.0
 31
0.0
  0
LINE
  5
7D8
100
AcDbEntity
  8
0
100
AcDbLine
 10
65.5
 20
133.0
 30
0.0
 11
65.5
 21
103.0
 31
0.0
  0
LINE
  5
7D9
100
AcDbEntity
  8
0
100
AcDbLine
 10
65.5
 20
103.0
 30
0.0
 11
65.5
 21
137.0
 31
0.0
  0
LINE
  5
7DA
100
AcDbEntity
  8
0
100
AcDbLine
 10
65.5
 20
137.0
 30
0.0
 11
80.5
 21
137.0
 31
0.0
  0
LINE
  5
7DB
100
AcDbEntity
  8
0
100
AcDbLine
 10
80.5
 20
137.0
 30
0.0
 11
80.5
 21
103.0
 31
0.0
  0
LINE
  5
7DC
100
AcDbEntity
  8
0
100
AcDbLine
 10
80.5
 20
103.0
 30
0.0
 11
80.5
 21
138.5
 31
0.0
  0
LINE
  5
7DD
100
AcDbEntity
  8
0
100
AcDbLine
 10
80.5
 20
138.5
 30
0.0
 11
82.5
 21
138.5
 31
0.0
  0
LINE
  5
7DE
100
AcDbEntity
  8
0
100
AcDbLine
 10
82.5
 20
138.5
 30
0.0
 11
82.5
 21
103.0
 31
0.0
  0
LINE
  5
7DF
100
AcDbEntity
  8
0
100
AcDbLine
 10
82.5
 20
103.0
 30
0.0
 11
82.5
 21
137.0
 31
0.0
  0
LINE
  5
7E0
100
AcDbEntity
  8
0
100
AcDbLine
 10
82.5
 20
137.0
 30
0.0
 11
86.5
 21
137.0
 31
0.0
  0
LINE
  5
7E1
100
AcDbEntity
  8
0
100
AcDbLine
 10
82.5
 20
135.25
 30
0.0
 11
80.5
 21
135.25
 31
0.0
  0
LINE
  5
7E2
100
AcDbEntity
  8
0
100
AcDbLine
 10
65.5
 20
103.0
 30
0.0
 11
65.5
 21
123.0
 31
0.0
  0
LINE
  5
7E3
100
AcDbEntity
  8
0
100
AcDbLine
 10
65.5
 20
123.0
 30
0.0
 11
80.5
 21
123.0
 31
0.0
  0
CIRCLE
  5
7E4
100
AcDbEntity
  8
0
100
AcDbCircle
 10
73.25
 20
130.0
 30
0.0
 40
4.75
  0
LINE
  5
7E5
100
AcDbEntity
  8
0
100
AcDbLine
 10
80.5
 20
133.75
 30
0.0
 11
76.165476
 21
133.75
 31
0.0
  0
LINE
  5
7E6
100
AcDbEntity
  8
0
100
AcDbLine
 10
80.5
 20
126.25
 30
0.0
 11
76.165476
 21
126.25
 31
0.0
  0
LINE
  5
7E7
100
AcDbEntity
  8
0
100
AcDbLine
 10
70.334524
 20
133.75
 30
0.0
 11
65.5
 21
133.75
 31
0.0
  0
LINE
  5
7E8
100
AcDbEntity
  8
0
100
AcDbLine
 10
70.334524
 20
126.25
 30
0.0
 11
65.5
 21
126.25
 31
0.0
  0
LINE
  5
7E9
100
AcDbEntity
  8
0
100
AcDbLine
 10
78.75
 20
133.75
 30
0.0
 11
79.75
 21
133.0
 31
0.0
  0
LINE
  5
7EA
100
AcDbEntity
  8
0
100
AcDbLine
 10
79.75
 20
133.0
 30
0.0
 11
79.75
 21
127.0
 31
0.0
  0
LINE
  5
7EB
100
AcDbEntity
  8
0
100
AcDbLine
 10
79.75
 20
127.0
 30
0.0
 11
78.75
 21
126.25
 31
0.0
  0
LINE
  5
7EC
100
AcDbEntity
  8
0
100
AcDbLine
 10
66.75
 20
133.0
 30
0.0
 11
66.75
 21
127.0
 31
0.0
  0
LINE
  5
7ED
100
AcDbEntity
  8
0
100
AcDbLine
 10
66.75
 20
127.0
 30
0.0
 11
67.75
 21
126.25
 31
0.0
  0
LINE
  5
7EE
100
AcDbEntity
  8
0
100
AcDbLine
 10
67.75
 20
133.75
 30
0.0
 11
66.75
 21
133.0
 31
0.0
  0
LINE
  5
7EF
100
AcDbEntity
  8
0
100
AcDbLine
 10
86.5
 20
158.0
 30
0.0
 11
77.9
 21
158.0
 31
0.0
  0
LINE
  5
7F0
100
AcDbEntity
  8
0
100
AcDbLine
 10
86.5
 20
144.0
 30
0.0
 11
77.9
 21
144.0
 31
0.0
  0
LINE
  5
7F1
100
AcDbEntity
  8
0
100
AcDbLine
 10
77.9
 20
144.0
 30
0.0
 11
77.9
 21
151.0
 31
0.0
  0
LINE
  5
7F2
100
AcDbEntity
  8
0
100
AcDbLine
 10
77.9
 20
151.0
 30
0.0
 11
77.9
 21
146.0
 31
0.0
  0
LINE
  5
7F3
100
AcDbEntity
  8
0
100
AcDbLine
 10
77.9
 20
158.0
 30
0.0
 11
77.9
 21
151.0
 31
0.0
  0
LINE
  5
7F6
100
AcDbEntity
  8
0
100
AcDbLine
 10
77.9
 20
156.0
 30
0.0
 11
63.5
 21
156.0
 31
0.0
  0
LINE
  5
7F8
100
AcDbEntity
  8
0
100
AcDbLine
 10
63.5
 20
155.0
 30
0.0
 11
77.75
 21
155.0
 31
0.0
  0
LINE
  5
7F9
100
AcDbEntity
  8
0
100
AcDbLine
 10
63.5
 20
147.0
 30
0.0
 11
77.75
 21
147.0
 31
0.0
  0
LINE
  5
7FA
100
AcDbEntity
  8
0
100
AcDbLine
 10
77.9
 20
146.0
 30
0.0
 11
63.5
 21
146.0
 31
0.0
  0
LINE
  5
7FB
100
AcDbEntity
  8
0
100
AcDbLine
 10
66.75
 20
73.0
 30
0.0
 11
66.75
 21
79.0
 31
0.0
  0
LINE
  5
7FC
100
AcDbEntity
  8
0
100
AcDbLine
 10
79.75
 20
73.0
 30
0.0
 11
79.75
 21
79.0
 31
0.0
  0
CIRCLE
  5
7FD
100
AcDbEntity
  8
0
100
AcDbCircle
 10
73.25
 20
76.0
 30
0.0
 40
4.75
  0
LINE
  5
7FE
100
AcDbEntity
  8
0
100
AcDbLine
 10
82.5
 20
103.0
 30
0.0
 11
82.5
 21
69.0
 31
0.0
  0
LINE
  5
7FF
100
AcDbEntity
  8
0
100
AcDbLine
 10
82.5
 20
67.5
 30
0.0
 11
82.5
 21
103.0
 31
0.0
  0
LINE
  5
800
100
AcDbEntity
  8
0
100
AcDbLine
 10
80.5
 20
103.0
 30
0.0
 11
80.5
 21
67.5
 31
0.0
  0
LINE
  5
801
100
AcDbEntity
  8
0
100
AcDbLine
 10
80.5
 20
69.0
 30
0.0
 11
80.5
 21
103.0
 31
0.0
  0
LINE
  5
802
100
AcDbEntity
  8
0
100
AcDbLine
 10
65.5
 20
103.0
 30
0.0
 11
65.5
 21
69.0
 31
0.0
  0
LINE
  5
803
100
AcDbEntity
  8
0
100
AcDbLine
 10
65.5
 20
73.0
 30
0.0
 11
65.5
 21
103.0
 31
0.0
  0
LINE
  5
804
100
AcDbEntity
  8
0
100
AcDbLine
 10
63.5
 20
103.0
 30
0.0
 11
63.5
 21
73.0
 31
0.0
  0
LINE
  5
805
100
AcDbEntity
  8
0
100
AcDbLine
 10
63.5
 20
46.0
 30
0.0
 11
63.5
 21
103.0
 31
0.0
  0
LINE
  5
806
100
AcDbEntity
  8
0
100
AcDbLine
 10
86.5
 20
103.0
 30
0.0
 11
86.5
 21
46.0
 31
0.0
  0
LINE
  5
807
100
AcDbEntity
  8
0
100
AcDbLine
 10
80.5
 20
79.75
 30
0.0
 11
76.165476
 21
79.75
 31
0.0
  0
LINE
  5
808
100
AcDbEntity
  8
0
100
AcDbLine
 10
65.5
 20
83.0
 30
0.0
 11
80.5
 21
83.0
 31
0.0
  0
LINE
  5
809
100
AcDbEntity
  8
0
100
AcDbLine
 10
65.5
 20
103.0
 30
0.0
 11
65.5
 21
83.0
 31
0.0
  0
LINE
  5
80A
100
AcDbEntity
  8
0
100
AcDbLine
 10
70.334524
 20
79.75
 30
0.0
 11
65.5
 21
79.75
 31
0.0
  0
LINE
  5
80B
100
AcDbEntity
  8
0
100
AcDbLine
 10
66.75
 20
79.0
 30
0.0
 11
67.75
 21
79.75
 31
0.0
  0
LINE
  5
80C
100
AcDbEntity
  8
0
100
AcDbLine
 10
79.75
 20
79.0
 30
0.0
 11
78.75
 21
79.75
 31
0.0
  0
LINE
  5
80D
100
AcDbEntity
  8
0
100
AcDbLine
 10
86.5
 20
62.0
 30
0.0
 11
77.9
 21
62.0
 31
0.0
  0
LINE
  5
80E
100
AcDbEntity
  8
0
100
AcDbLine
 10
86.5
 20
48.0
 30
0.0
 11
77.9
 21
48.0
 31
0.0
  0
LINE
  5
80F
100
AcDbEntity
  8
0
100
AcDbLine
 10
80.5
 20
72.25
 30
0.0
 11
76.165476
 21
72.25
 31
0.0
  0
LINE
  5
810
100
AcDbEntity
  8
0
100
AcDbLine
 10
65.5
 20
69.0
 30
0.0
 11
80.5
 21
69.0
 31
0.0
  0
LINE
  5
811
100
AcDbEntity
  8
0
100
AcDbLine
 10
86.5
 20
46.0
 30
0.0
 11
63.5
 21
46.0
 31
0.0
  0
LINE
  5
812
100
AcDbEntity
  8
1
100
AcDbLine
 10
91.25
 20
55.0
 30
0.0
 11
59.25
 21
55.0
 31
0.0
  0
LINE
  5
813
100
AcDbEntity
  8
0
100
AcDbLine
 10
77.9
 20
55.0
 30
0.0
 11
77.9
 21
60.0
 31
0.0
  0
LINE
  5
814
100
AcDbEntity
  8
0
100
AcDbLine
 10
77.9
 20
62.0
 30
0.0
 11
77.9
 21
55.0
 31
0.0
  0
LINE
  5
815
100
AcDbEntity
  8
0
100
AcDbLine
 10
77.9
 20
60.0
 30
0.0
 11
63.5
 21
60.0
 31
0.0
  0
LINE
  5
816
100
AcDbEntity
  8
0
100
AcDbLine
 10
70.334524
 20
72.25
 30
0.0
 11
65.5
 21
72.25
 31
0.0
  0
LINE
  5
817
100
AcDbEntity
  8
0
100
AcDbLine
 10
63.5
 20
73.0
 30
0.0
 11
65.5
 21
73.0
 31
0.0
  0
LINE
  5
818
100
AcDbEntity
  8
0
100
AcDbLine
 10
67.75
 20
72.25
 30
0.0
 11
66.75
 21
73.0
 31
0.0
  0
LINE
  5
819
100
AcDbEntity
  8
0
100
AcDbLine
 10
63.5
 20
59.0
 30
0.0
 11
77.75
 21
59.0
 31
0.0
  0
LINE
  5
81A
100
AcDbEntity
  8
0
100
AcDbLine
 10
63.5
 20
51.0
 30
0.0
 11
77.75
 21
51.0
 31
0.0
  0
LINE
  5
81B
100
AcDbEntity
  8
0
100
AcDbLine
 10
77.9
 20
50.0
 30
0.0
 11
63.5
 21
50.0
 31
0.0
  0
LINE
  5
81C
100
AcDbEntity
  8
0
100
AcDbLine
 10
77.9
 20
48.0
 30
0.0
 11
77.9
 21
55.0
 31
0.0
  0
LINE
  5
81D
100
AcDbEntity
  8
0
100
AcDbLine
 10
82.5
 20
69.0
 30
0.0
 11
86.5
 21
69.0
 31
0.0
  0
LINE
  5
81E
100
AcDbEntity
  8
0
100
AcDbLine
 10
78.75
 20
72.25
 30
0.0
 11
79.75
 21
73.0
 31
0.0
  0
LINE
  5
81F
100
AcDbEntity
  8
0
100
AcDbLine
 10
82.5
 20
70.75
 30
0.0
 11
80.5
 21
70.75
 31
0.0
  0
LINE
  5
820
100
AcDbEntity
  8
0
100
AcDbLine
 10
80.5
 20
67.5
 30
0.0
 11
82.5
 21
67.5
 31
0.0
  0
LINE
  5
822
100
AcDbEntity
  8
1
100
AcDbLine
 10
195.5
 20
163.25
 30
0.0
 11
195.5
 21
42.5
 31
0.0
  0
LINE
  5
823
100
AcDbEntity
  8
1
100
AcDbLine
 10
140.158765
 20
103.0
 30
0.0
 11
251.070523
 21
103.0
 31
0.0
  0
ARC
  5
824
100
AcDbEntity
  8
0
100
AcDbCircle
 10
195.5
 20
103.0
 30
0.0
 40
57.0
100
AcDbArc
 50
44.003427
 51
135.996573
  0
CIRCLE
  5
825
100
AcDbEntity
  8
0
100
AcDbCircle
 10
195.5
 20
103.0
 30
0.0
 40
20.0
  0
CIRCLE
  5
826
100
AcDbEntity
  8
0
100
AcDbCircle
 10
195.5
 20
103.0
 30
0.0
 40
34.0
  0
CIRCLE
  5
827
100
AcDbEntity
  8
2
100
AcDbCircle
 10
195.5
 20
103.0
 30
0.0
 40
30.0
  0
CIRCLE
  5
828
100
AcDbEntity
  8
2
100
AcDbCircle
 10
195.5
 20
103.0
 30
0.0
 40
35.5
  0
TEXT
  5
846
100
AcDbEntity
  8
0
100
AcDbText
 10
104.5
 20
53.0
 30
0.0
 40
2.5
  1
BER-6008ZZ
100
AcDbText
  0
TEXT
  5
847
100
AcDbEntity
  8
0
100
AcDbText
 10
104.5
 20
48.833333
 30
0.0
 40
2.5
  1
BERM-6008ZZ
100
AcDbText
  0
TEXT
  5
848
100
AcDbEntity
  8
0
100
AcDbText
 10
104.5
 20
44.666667
 30
0.0
 40
2.5
  1
BERS-6008ZZ
100
AcDbText
  0
LINE
  5
84A
100
AcDbEntity
  8
0
100
AcDbLine
 10
236.5
 20
142.59798
 30
0.0
 11
236.5
 21
63.40202
 31
0.0
  0
LINE
  5
84C
100
AcDbEntity
  8
0
100
AcDbLine
 10
154.5
 20
63.40202
 30
0.0
 11
154.5
 21
142.59798
 31
0.0
  0
LINE
  5
84E
100
AcDbEntity
  8
1
100
AcDbLine
 10
168.5
 20
150.940296
 30
0.0
 11
168.5
 21
133.329585
 31
0.0
  0
LINE
  5
850
100
AcDbEntity
  8
1
100
AcDbLine
 10
222.5
 20
54.514433
 30
0.0
 11
222.5
 21
76.744347
 31
0.0
  0
LINE
  5
852
100
AcDbEntity
  8
1
100
AcDbLine
 10
232.58523
 20
143.0
 30
0.0
 11
210.922777
 21
143.0
 31
0.0
  0
LINE
  5
854
100
AcDbEntity
  8
1
100
AcDbLine
 10
157.199894
 20
63.0
 30
0.0
 11
182.32834
 21
63.0
 31
0.0
  0
ARC
  5
856
100
AcDbEntity
  8
0
100
AcDbCircle
 10
195.5
 20
103.0
 30
0.0
 40
57.0
100
AcDbArc
 50
224.003427
 51
315.996573
  0
LINE
  5
857
100
AcDbEntity
  8
1
100
AcDbLine
 10
214.38877
 20
63.0
 30
0.0
 11
232.296397
 21
63.0
 31
0.0
  0
LINE
  5
858
100
AcDbEntity
  8
1
100
AcDbLine
 10
181.750674
 20
143.0
 30
0.0
 11
158.644058
 21
143.0
 31
0.0
  0
LINE
  5
859
100
AcDbEntity
  8
1
100
AcDbLine
 10
168.5
 20
73.279945
 30
0.0
 11
168.5
 21
54.803133
 31
0.0
  0
LINE
  5
85A
100
AcDbEntity
  8
1
100
AcDbLine
 10
222.5
 20
133.329585
 30
0.0
 11
222.5
 21
151.228996
 31
0.0
  0
CIRCLE
  5
85B
100
AcDbEntity
  8
0
100
AcDbCircle
 10
168.5
 20
143.0
 30
0.0
 40
7.0
  0
CIRCLE
  5
85C
100
AcDbEntity
  8
0
100
AcDbCircle
 10
168.5
 20
143.0
 30
0.0
 40
4.0
  0
CIRCLE
  5
85D
100
AcDbEntity
  8
0
100
AcDbCircle
 10
168.5
 20
143.0
 30
0.0
 40
5.0
  0
CIRCLE
  5
85E
100
AcDbEntity
  8
0
100
AcDbCircle
 10
222.5
 20
143.0
 30
0.0
 40
7.0
  0
CIRCLE
  5
85F
100
AcDbEntity
  8
0
100
AcDbCircle
 10
222.5
 20
143.0
 30
0.0
 40
4.0
  0
CIRCLE
  5
860
100
AcDbEntity
  8
0
100
AcDbCircle
 10
222.5
 20
143.0
 30
0.0
 40
5.0
  0
CIRCLE
  5
861
100
AcDbEntity
  8
0
100
AcDbCircle
 10
168.5
 20
63.0
 30
0.0
 40
7.0
  0
CIRCLE
  5
862
100
AcDbEntity
  8
0
100
AcDbCircle
 10
168.5
 20
63.0
 30
0.0
 40
4.0
  0
CIRCLE
  5
863
100
AcDbEntity
  8
0
100
AcDbCircle
 10
168.5
 20
63.0
 30
0.0
 40
5.0
  0
CIRCLE
  5
864
100
AcDbEntity
  8
0
100
AcDbCircle
 10
222.5
 20
63.0
 30
0.0
 40
7.0
  0
CIRCLE
  5
865
100
AcDbEntity
  8
0
100
AcDbCircle
 10
222.5
 20
63.0
 30
0.0
 40
4.0
  0
CIRCLE
  5
866
100
AcDbEntity
  8
0
100
AcDbCircle
 10
222.5
 20
63.0
 30
0.0
 40
5.0
  0
ENDSEC
  0
SECTION
  2
OBJECTS
  0
DICTIONARY
  5
C
100
AcDbDictionary
  3
ACAD_GROUP
350
D
  3
ACAD_MLINESTYLE
350
1B
  0
DICTIONARY
  5
D
102
{ACAD_REACTORS
330
C
102
}
100
AcDbDictionary
  0
DICTIONARY
  5
1B
102
{ACAD_REACTORS
330
C
102
}
100
AcDbDictionary
  3
STANDARD
350
1C
  0
MLINESTYLE
  5
1C
102
{ACAD_REACTORS
330
1B
102
}
100
AcDbMlineStyle
  2
STANDARD
 70
     0
  3

 62
   256
 51
90.0
 52
90.0
 71
     2
 49
0.5
 62
   256
  6
BYLAYER
 49
-0.5
 62
   256
  6
BYLAYER
  0
ENDSEC
  0
EOF
