  0
SECTION
  2
HEADER
  9
$ACADVER
  1
AC1009
  9
$INSBASE
 10
0.0
 20
0.0
 30
0.0
  9
$EXTMIN
 10
64.75
 20
62.0
 30
0.0
  9
$EXTMAX
 10
188.5
 20
147.75
 30
0.0
  9
$LIMMIN
 10
0.0
 20
0.0
  9
$LIMMAX
 10
265.0
 20
200.0
  9
$ORTHOMODE
 70
     1
  9
$REGENMODE
 70
     1
  9
$FILLMODE
 70
     1
  9
$QTEXTMODE
 70
     0
  9
$MIRRTEXT
 70
     1
  9
$DRAGMODE
 70
     2
  9
$LTSCALE
 40
1.0
  9
$OSMODE
 70
     0
  9
$ATTMODE
 70
     1
  9
$TEXTSIZE
 40
2.5
  9
$TRACEWID
 40
1.0
  9
$TEXTSTYLE
  7
STANDARD
  9
$CLAYER
  8
2
  9
$CELTYPE
  6
BYLAYER
  9
$CECOLOR
 62
   256
  9
$DIMSCALE
 40
1.0
  9
$DIMASZ
 40
2.5
  9
$DIMEXO
 40
0.625
  9
$DIMDLI
 40
3.75
  9
$DIMRND
 40
0.0
  9
$DIMDLE
 40
0.0
  9
$DIMEXE
 40
1.25
  9
$DIMTP
 40
0.0
  9
$DIMTM
 40
0.0
  9
$DIMTXT
 40
2.5
  9
$DIMCEN
 40
2.5
  9
$DIMTSZ
 40
0.0
  9
$DIMTOL
 70
     0
  9
$DIMLIM
 70
     0
  9
$DIMTIH
 70
     0
  9
$DIMTOH
 70
     0
  9
$DIMSE1
 70
     0
  9
$DIMSE2
 70
     0
  9
$DIMTAD
 70
     1
  9
$DIMZIN
 70
     8
  9
$DIMBLK
  1

  9
$DIMASO
 70
     1
  9
$DIMSHO
 70
     1
  9
$DIMPOST
  1

  9
$DIMAPOST
  1

  9
$DIMALT
 70
     0
  9
$DIMALTD
 70
     4
  9
$DIMALTF
 40
0.0394
  9
$DIMLFAC
 40
1.0
  9
$DIMTOFL
 70
     1
  9
$DIMTVP
 40
0.0
  9
$DIMTIX
 70
     0
  9
$DIMSOXD
 70
     0
  9
$DIMSAH
 70
     0
  9
$DIMBLK1
  1

  9
$DIMBLK2
  1

  9
$DIMSTYLE
  2
STANDARD
  9
$DIMCLRD
 70
     0
  9
$DIMCLRE
 70
     0
  9
$DIMCLRT
 70
     0
  9
$DIMTFAC
 40
1.0
  9
$DIMGAP
 40
0.625
  9
$LUNITS
 70
     2
  9
$LUPREC
 70
     4
  9
$SKETCHINC
 40
1.0
  9
$FILLETRAD
 40
10.0
  9
$AUNITS
 70
     0
  9
$AUPREC
 70
     0
  9
$MENU
  1
.
  9
$ELEVATION
 40
0.0
  9
$PELEVATION
 40
0.0
  9
$THICKNESS
 40
0.0
  9
$LIMCHECK
 70
     0
  9
$BLIPMODE
 70
     0
  9
$CHAMFERA
 40
10.0
  9
$CHAMFERB
 40
10.0
  9
$SKPOLY
 70
     0
  9
$TDCREATE
 40
2452361.611515
  9
$TDUPDATE
 40
2452366.410409
  9
$TDINDWG
 40
0.197383
  9
$TDUSRTIMER
 40
0.197383
  9
$USRTIMER
 70
     1
  9
$ANGBASE
 50
0.0
  9
$ANGDIR
 70
     0
  9
$PDMODE
 70
     0
  9
$PDSIZE
 40
0.0
  9
$PLINEWID
 40
0.0
  9
$COORDS
 70
     2
  9
$SPLFRAME
 70
     0
  9
$SPLINETYPE
 70
     6
  9
$SPLINESEGS
 70
     8
  9
$ATTDIA
 70
     0
  9
$ATTREQ
 70
     1
  9
$HANDLING
 70
     1
  9
$HANDSEED
  5
4CB
  9
$SURFTAB1
 70
     6
  9
$SURFTAB2
 70
     6
  9
$SURFTYPE
 70
     6
  9
$SURFU
 70
     6
  9
$SURFV
 70
     6
  9
$UCSNAME
  2

  9
$UCSORG
 10
0.0
 20
0.0
 30
0.0
  9
$UCSXDIR
 10
1.0
 20
0.0
 30
0.0
  9
$UCSYDIR
 10
0.0
 20
1.0
 30
0.0
  9
$PUCSNAME
  2

  9
$PUCSORG
 10
0.0
 20
0.0
 30
0.0
  9
$PUCSXDIR
 10
1.0
 20
0.0
 30
0.0
  9
$PUCSYDIR
 10
0.0
 20
1.0
 30
0.0
  9
$USERI1
 70
     0
  9
$USERI2
 70
     0
  9
$USERI3
 70
     0
  9
$USERI4
 70
     0
  9
$USERI5
 70
     0
  9
$USERR1
 40
0.0
  9
$USERR2
 40
0.0
  9
$USERR3
 40
0.0
  9
$USERR4
 40
0.0
  9
$USERR5
 40
0.0
  9
$WORLDVIEW
 70
     1
  9
$SHADEDGE
 70
     3
  9
$SHADEDIF
 70
    70
  9
$TILEMODE
 70
     1
  9
$MAXACTVP
 70
    48
  9
$PLIMCHECK
 70
     0
  9
$PEXTMIN
 10
1.000000E+020
 20
1.000000E+020
 30
1.000000E+020
  9
$PEXTMAX
 10
-1.000000E+020
 20
-1.000000E+020
 30
-1.000000E+020
  9
$PLIMMIN
 10
0.0
 20
0.0
  9
$PLIMMAX
 10
420.0
 20
297.0
  9
$UNITMODE
 70
     0
  9
$VISRETAIN
 70
     1
  9
$PLINEGEN
 70
     0
  9
$PSLTSCALE
 70
     1
  0
ENDSEC
  0
SECTION
  2
TABLES
  0
TABLE
  2
VPORT
 70
     2
  0
VPORT
  2
*ACTIVE
 70
     0
 10
0.0
 20
0.0
 11
1.0
 21
1.0
 12
305.568001
 22
260.837269
 13
0.0
 23
0.0
 14
0.25
 24
0.25
 15
1.0
 25
1.0
 16
0.0
 26
0.0
 36
1.0
 17
0.0
 27
0.0
 37
0.0
 40
521.684258
 41
1.171492
 42
50.0
 43
0.0
 44
0.0
 50
0.0
 51
0.0
 71
     0
 72
 20000
 73
     1
 74
     1
 75
     0
 76
     0
 77
     0
 78
     0
  0
ENDTAB
  0
TABLE
  2
LTYPE
 70
     7
  0
LTYPE
  2
CONTINUOUS
 70
     0
  3
Solid line
 72
    65
 73
     0
 40
0.0
  0
LTYPE
  2
CENTERX2
 70
     0
  3
Center (2x) ________  __  ________  __  _____
 72
    65
 73
     4
 40
101.6
 49
63.5
 49
-12.7
 49
12.7
 49
-12.7
  0
LTYPE
  2
DASHEDX2
 70
     0
  3
Dashed (2x) ____  ____  ____  ____  ____  ___
 72
    65
 73
     2
 40
38.1
 49
25.4
 49
-12.7
  0
LTYPE
  2
DASHED
 70
     0
  3
Dashed __ __ __ __ __ __ __ __ __ __ __ __ __ _
 72
    65
 73
     2
 40
19.05
 49
12.7
 49
-6.35
  0
LTYPE
  2
CENTER
 70
     0
  3
Center ____ _ ____ _ ____ _ ____ _ ____ _ ____
 72
    65
 73
     4
 40
50.8
 49
31.75
 49
-6.35
 49
6.35
 49
-6.35
  0
LTYPE
  2
CENTER2
 70
     0
  3
Center (.5x) ___ _ ___ _ ___ _ ___ _ ___ _ ___
 72
    65
 73
     4
 40
28.575
 49
19.05
 49
-3.175
 49
3.175
 49
-3.175
  0
LTYPE
  2
DASHED2
 70
     0
  3
Dashed (.5x) _ _ _ _ _ _ _ _ _ _ _ _ _ _ _ _ _
 72
    65
 73
     2
 40
9.525
 49
6.35
 49
-3.175
  0
ENDTAB
  0
TABLE
  2
LAYER
 70
     5
  0
LAYER
  2
0
 70
     0
 62
     7
  6
CONTINUOUS
  0
LAYER
  2
1
 70
     0
 62
     1
  6
CENTER2
  0
LAYER
  2
2
 70
     0
 62
     2
  6
DASHED2
  0
LAYER
  2
3
 70
     0
 62
     4
  6
CONTINUOUS
  0
LAYER
  2
DEFPOINTS
 70
     0
 62
     7
  6
CONTINUOUS
  0
ENDTAB
  0
TABLE
  2
STYLE
 70
     2
  0
STYLE
  2
STANDARD
 70
     0
 40
0.0
 41
1.0
 50
0.0
 71
     0
 42
2.5
  3
txt
  4

  0
STYLE
  2

 70
     1
 40
0.0
 41
1.0
 50
0.0
 71
     0
 42
2.5
  3
ltypeshp.shx
  4

  0
ENDTAB
  0
TABLE
  2
VIEW
 70
     0
  0
ENDTAB
  0
TABLE
  2
UCS
 70
     0
  0
ENDTAB
  0
TABLE
  2
APPID
 70
     1
  0
APPID
  2
ACAD
 70
     0
  0
ENDTAB
  0
TABLE
  2
DIMSTYLE
 70
     1
  0
DIMSTYLE
  2
STANDARD
 70
     0
  3

  4

  5

  6

  7

 40
1.0
 41
0.18
 42
0.0625
 43
0.38
 44
0.18
 45
0.0
 46
0.0
 47
0.0
 48
0.0
140
0.18
141
0.09
142
0.0
143
25.4
144
1.0
145
0.0
146
1.0
147
0.09
 71
     0
 72
     0
 73
     1
 74
     1
 75
     0
 76
     0
 77
     0
 78
     0
170
     0
171
     2
172
     0
173
     0
174
     0
175
     0
176
     0
177
     0
178
     0
  0
ENDTAB
  0
ENDSEC
  0
SECTION
  2
BLOCKS
  0
BLOCK
  8
0
  2
$MODEL_SPACE
 70
     0
 10
0.0
 20
0.0
 30
0.0
  3
$MODEL_SPACE
  1

  0
ENDBLK
  5
1A
  8
0
  0
BLOCK
 67
     1
  8
0
  2
$PAPER_SPACE
 70
     0
 10
0.0
 20
0.0
 30
0.0
  3
$PAPER_SPACE
  1

  0
ENDBLK
  5
17
 67
     1
  8
0
  0
BLOCK
  8
0
  2
A$C04E03369
 70
     0
 10
0.0
 20
0.0
 30
0.0
  3
A$C04E03369
  1

  0
LINE
  5
471
  8
0
 10
14.5
 20
30.0
 30
0.0
 11
14.5
 21
13.15
 31
0.0
  0
LINE
  5
472
  8
0
 10
15.85
 20
13.15
 30
0.0
 11
15.85
 21
30.0
 31
0.0
  0
LINE
  5
473
  8
0
 10
17.5
 20
30.0
 30
0.0
 11
17.5
 21
0.0
 31
0.0
  0
LINE
  5
474
  8
0
 10
5.5
 20
30.0
 30
0.0
 11
5.5
 21
14.0
 31
0.0
  0
LINE
  5
475
  8
0
 10
5.5
 20
16.0
 30
0.0
 11
5.5
 21
30.0
 31
0.0
  0
LINE
  5
476
  8
0
 10
3.5
 20
0.0
 30
0.0
 11
3.5
 21
30.0
 31
0.0
  0
LINE
  5
477
  8
0
 10
17.5
 20
1.25
 30
0.0
 11
12.1
 21
1.25
 31
0.0
  0
LINE
  5
478
  8
0
 10
12.1
 20
10.75
 30
0.0
 11
17.5
 21
10.75
 31
0.0
  0
LINE
  5
479
  8
0
 10
17.5
 20
0.0
 30
0.0
 11
3.5
 21
0.0
 31
0.0
  0
LINE
  5
47A
  8
1
 10
20.5
 20
6.0
 30
0.0
 11
1.25
 21
6.0
 31
0.0
  0
LINE
  5
47B
  8
0
 10
14.5
 20
22.5
 30
0.0
 11
5.5
 21
22.5
 31
0.0
  0
LINE
  5
47C
  8
0
 10
12.076656
 20
20.75
 30
0.0
 11
14.5
 21
20.75
 31
0.0
  0
LINE
  5
47D
  8
0
 10
13.25
 20
20.75
 30
0.0
 11
13.75
 21
20.0
 31
0.0
  0
LINE
  5
47E
  8
0
 10
12.076656
 20
15.75
 30
0.0
 11
14.5
 21
15.75
 31
0.0
  0
LINE
  5
47F
  8
0
 10
13.75
 20
16.5
 30
0.0
 11
13.25
 21
15.75
 31
0.0
  0
LINE
  5
480
  8
0
 10
5.5
 20
14.0
 30
0.0
 11
14.5
 21
14.0
 31
0.0
  0
LINE
  5
481
  8
0
 10
12.1
 20
1.25
 30
0.0
 11
12.1
 21
10.75
 31
0.0
  0
LINE
  5
482
  8
0
 10
8.5
 20
3.4
 30
0.0
 11
3.5
 21
3.4
 31
0.0
  0
LINE
  5
483
  8
0
 10
8.5
 20
3.0
 30
0.0
 11
3.5
 21
3.0
 31
0.0
  0
LINE
  5
484
  8
0
 10
12.1
 20
3.0
 30
0.0
 11
8.5
 21
3.0
 31
0.0
  0
LINE
  5
485
  8
0
 10
12.1
 20
3.4
 30
0.0
 11
8.5
 21
3.4
 31
0.0
  0
LINE
  5
486
  8
0
 10
8.5
 20
9.0
 30
0.0
 11
3.5
 21
9.0
 31
0.0
  0
LINE
  5
487
  8
0
 10
8.5
 20
8.6
 30
0.0
 11
3.5
 21
8.6
 31
0.0
  0
LINE
  5
488
  8
0
 10
12.1
 20
8.6
 30
0.0
 11
8.5
 21
8.6
 31
0.0
  0
LINE
  5
489
  8
0
 10
12.1
 20
9.0
 30
0.0
 11
8.5
 21
9.0
 31
0.0
  0
CIRCLE
  5
48A
  8
0
 10
10.0
 20
18.25
 30
0.0
 40
3.25
  0
LINE
  5
48B
  8
0
 10
6.25
 20
20.0
 30
0.0
 11
6.25
 21
16.5
 31
0.0
  0
LINE
  5
48C
  8
0
 10
5.5
 20
15.75
 30
0.0
 11
7.923344
 21
15.75
 31
0.0
  0
LINE
  5
48D
  8
0
 10
3.5
 20
16.0
 30
0.0
 11
5.5
 21
16.0
 31
0.0
  0
LINE
  5
48E
  8
0
 10
6.25
 20
16.5
 30
0.0
 11
6.75
 21
15.75
 31
0.0
  0
LINE
  5
48F
  8
0
 10
5.5
 20
20.75
 30
0.0
 11
7.923344
 21
20.75
 31
0.0
  0
LINE
  5
490
  8
0
 10
6.75
 20
20.75
 30
0.0
 11
6.25
 21
20.0
 31
0.0
  0
LINE
  5
491
  8
0
 10
17.5
 20
14.0
 30
0.0
 11
17.5
 21
22.5
 31
0.0
  0
LINE
  5
492
  8
0
 10
13.75
 20
20.0
 30
0.0
 11
13.75
 21
16.5
 31
0.0
  0
LINE
  5
493
  8
0
 10
15.85
 20
14.0
 30
0.0
 11
17.5
 21
14.0
 31
0.0
  0
LINE
  5
494
  8
0
 10
14.5
 20
13.15
 30
0.0
 11
15.85
 21
13.15
 31
0.0
  0
LINE
  5
495
  8
0
 10
12.076656
 20
39.25
 30
0.0
 11
14.5
 21
39.25
 31
0.0
  0
LINE
  5
496
  8
0
 10
12.076656
 20
44.25
 30
0.0
 11
14.5
 21
44.25
 31
0.0
  0
LINE
  5
497
  8
0
 10
13.75
 20
43.5
 30
0.0
 11
13.25
 21
44.25
 31
0.0
  0
LINE
  5
498
  8
0
 10
13.25
 20
39.25
 30
0.0
 11
13.75
 21
40.0
 31
0.0
  0
LINE
  5
499
  8
0
 10
14.5
 20
37.5
 30
0.0
 11
5.5
 21
37.5
 31
0.0
  0
LINE
  5
49A
  8
0
 10
5.5
 20
46.0
 30
0.0
 11
14.5
 21
46.0
 31
0.0
  0
LINE
  5
49B
  8
0
 10
17.5
 20
60.0
 30
0.0
 11
3.5
 21
60.0
 31
0.0
  0
LINE
  5
49C
  8
0
 10
12.1
 20
49.25
 30
0.0
 11
17.5
 21
49.25
 31
0.0
  0
LINE
  5
49D
  8
0
 10
17.5
 20
58.75
 30
0.0
 11
12.1
 21
58.75
 31
0.0
  0
LINE
  5
49E
  8
1
 10
20.5
 20
54.0
 30
0.0
 11
1.25
 21
54.0
 31
0.0
  0
LINE
  5
49F
  8
1
 10
20.25
 20
30.0
 30
0.0
 11
0.0
 21
30.0
 31
0.0
  0
LINE
  5
4A0
  8
0
 10
3.5
 20
60.0
 30
0.0
 11
3.5
 21
30.0
 31
0.0
  0
LINE
  5
4A1
  8
0
 10
12.1
 20
58.75
 30
0.0
 11
12.1
 21
49.25
 31
0.0
  0
LINE
  5
4A2
  8
0
 10
6.25
 20
40.0
 30
0.0
 11
6.25
 21
43.5
 31
0.0
  0
CIRCLE
  5
4A3
  8
0
 10
10.0
 20
41.75
 30
0.0
 40
3.25
  0
LINE
  5
4A4
  8
0
 10
5.5
 20
30.0
 30
0.0
 11
5.5
 21
46.0
 31
0.0
  0
LINE
  5
4A5
  8
0
 10
5.5
 20
44.0
 30
0.0
 11
5.5
 21
30.0
 31
0.0
  0
LINE
  5
4A6
  8
0
 10
5.5
 20
39.25
 30
0.0
 11
7.923344
 21
39.25
 31
0.0
  0
LINE
  5
4A7
  8
0
 10
6.75
 20
39.25
 30
0.0
 11
6.25
 21
40.0
 31
0.0
  0
LINE
  5
4A8
  8
0
 10
5.5
 20
44.25
 30
0.0
 11
7.923344
 21
44.25
 31
0.0
  0
LINE
  5
4A9
  8
0
 10
3.5
 20
44.0
 30
0.0
 11
5.5
 21
44.0
 31
0.0
  0
LINE
  5
4AA
  8
0
 10
6.25
 20
43.5
 30
0.0
 11
6.75
 21
44.25
 31
0.0
  0
LINE
  5
4AB
  8
0
 10
8.5
 20
51.0
 30
0.0
 11
3.5
 21
51.0
 31
0.0
  0
LINE
  5
4AC
  8
0
 10
8.5
 20
51.4
 30
0.0
 11
3.5
 21
51.4
 31
0.0
  0
LINE
  5
4AD
  8
0
 10
8.5
 20
56.6
 30
0.0
 11
3.5
 21
56.6
 31
0.0
  0
LINE
  5
4AE
  8
0
 10
8.5
 20
57.0
 30
0.0
 11
3.5
 21
57.0
 31
0.0
  0
LINE
  5
4AF
  8
0
 10
12.1
 20
51.0
 30
0.0
 11
8.5
 21
51.0
 31
0.0
  0
LINE
  5
4B0
  8
0
 10
12.1
 20
51.4
 30
0.0
 11
8.5
 21
51.4
 31
0.0
  0
LINE
  5
4B1
  8
0
 10
12.1
 20
56.6
 30
0.0
 11
8.5
 21
56.6
 31
0.0
  0
LINE
  5
4B2
  8
0
 10
12.1
 20
57.0
 30
0.0
 11
8.5
 21
57.0
 31
0.0
  0
LINE
  5
4B3
  8
0
 10
17.5
 20
30.0
 30
0.0
 11
17.5
 21
60.0
 31
0.0
  0
LINE
  5
4B4
  8
0
 10
15.85
 20
46.85
 30
0.0
 11
15.85
 21
30.0
 31
0.0
  0
LINE
  5
4B5
  8
0
 10
14.5
 20
30.0
 30
0.0
 11
14.5
 21
46.85
 31
0.0
  0
LINE
  5
4B6
  8
0
 10
13.75
 20
40.0
 30
0.0
 11
13.75
 21
43.5
 31
0.0
  0
LINE
  5
4B7
  8
0
 10
17.5
 20
46.0
 30
0.0
 11
17.5
 21
37.5
 31
0.0
  0
LINE
  5
4B8
  8
0
 10
15.85
 20
46.0
 30
0.0
 11
17.5
 21
46.0
 31
0.0
  0
LINE
  5
4B9
  8
0
 10
14.5
 20
46.85
 30
0.0
 11
15.85
 21
46.85
 31
0.0
  0
ENDBLK
  5
4BB
  8
0
  0
ENDSEC
  0
SECTION
  2
ENTITIES
  0
LINE
  5
3C2
  8
1
 10
137.25
 20
103.0
 30
0.0
 11
188.5
 21
103.0
 31
0.0
  0
LINE
  5
3C3
  8
1
 10
163.0
 20
63.0
 30
0.0
 11
163.0
 21
147.75
 31
0.0
  0
CIRCLE
  5
3C6
  8
0
 10
163.0
 20
127.0
 30
0.0
 40
4.75
  0
CIRCLE
  5
3C8
  8
0
 10
163.0
 20
79.0
 30
0.0
 40
4.75
  0
CIRCLE
  5
3CA
  8
0
 10
163.0
 20
127.0
 30
0.0
 40
3.0
  0
CIRCLE
  5
3CC
  8
0
 10
163.0
 20
79.0
 30
0.0
 40
3.0
  0
CIRCLE
  5
3CE
  8
0
 10
163.0
 20
127.0
 30
0.0
 40
2.6
  0
CIRCLE
  5
3D0
  8
0
 10
163.0
 20
79.0
 30
0.0
 40
2.6
  0
CIRCLE
  5
3D2
  8
0
 10
163.0
 20
103.0
 30
0.0
 40
7.5
  0
ARC
  5
41A
  8
0
 10
163.0
 20
103.0
 30
0.0
 40
30.0
 50
228.189685
 51
311.810315
  0
LINE
  5
45F
  8
0
 10
183.0
 20
80.63932
 30
0.0
 11
183.0
 21
125.36068
 31
0.0
  0
LINE
  5
461
  8
0
 10
143.0
 20
125.36068
 30
0.0
 11
143.0
 21
80.63932
 31
0.0
  0
ARC
  5
462
  8
0
 10
163.0
 20
103.0
 30
0.0
 40
30.0
 50
48.189685
 51
131.810315
  0
LINE
  5
464
  8
1
 10
149.0
 20
79.0
 30
0.0
 11
176.75
 21
79.0
 31
0.0
  0
LINE
  5
466
  8
1
 10
176.75
 20
127.0
 30
0.0
 11
149.25
 21
127.0
 31
0.0
  0
TEXT
  5
46F
  8
0
 10
104.5
 20
62.0
 30
0.0
 40
2.5
  1
BER-6002ZZ
  0
INSERT
  5
4BC
  8
0
  2
A$C04E03369
 10
64.75
 20
73.0
 30
0.0
  0
CIRCLE
  5
4C2
  8
0
 10
163.0
 20
103.0
 30
0.0
 40
16.0
  0
CIRCLE
  5
4C3
  8
2
 10
163.0
 20
103.0
 30
0.0
 40
16.892393
  0
CIRCLE
  5
4C4
  8
2
 10
163.0
 20
103.0
 30
0.0
 40
14.008218
  0
ENDSEC
  0
EOF
