  0
SECTION
  2
HEADER
  9
$ACADVER
  1
AC1009
  9
$INSBASE
 10
0.0
 20
0.0
 30
0.0
  9
$EXTMIN
 10
80.980782
 20
65.221396
 30
0.0
  9
$EXTMAX
 10
193.717308
 20
132.25
 30
0.0
  9
$LIMMIN
 10
0.0
 20
0.0
  9
$LIMMAX
 10
265.0
 20
200.0
  9
$ORTHOMODE
 70
     1
  9
$REGENMODE
 70
     1
  9
$FILLMODE
 70
     1
  9
$QTEXTMODE
 70
     0
  9
$MIRRTEXT
 70
     1
  9
$DRAGMODE
 70
     2
  9
$LTSCALE
 40
1.0
  9
$OSMODE
 70
     0
  9
$ATTMODE
 70
     1
  9
$TEXTSIZE
 40
2.5
  9
$TRACEWID
 40
1.0
  9
$TEXTSTYLE
  7
STANDARD
  9
$CLAYER
  8
2
  9
$CELTYPE
  6
BYLAYER
  9
$CECOLOR
 62
   256
  9
$DIMSCALE
 40
1.0
  9
$DIMASZ
 40
2.5
  9
$DIMEXO
 40
0.625
  9
$DIMDLI
 40
3.75
  9
$DIMRND
 40
0.0
  9
$DIMDLE
 40
0.0
  9
$DIMEXE
 40
1.25
  9
$DIMTP
 40
0.0
  9
$DIMTM
 40
0.0
  9
$DIMTXT
 40
2.5
  9
$DIMCEN
 40
2.5
  9
$DIMTSZ
 40
0.0
  9
$DIMTOL
 70
     0
  9
$DIMLIM
 70
     0
  9
$DIMTIH
 70
     0
  9
$DIMTOH
 70
     0
  9
$DIMSE1
 70
     0
  9
$DIMSE2
 70
     0
  9
$DIMTAD
 70
     1
  9
$DIMZIN
 70
     8
  9
$DIMBLK
  1

  9
$DIMASO
 70
     1
  9
$DIMSHO
 70
     1
  9
$DIMPOST
  1

  9
$DIMAPOST
  1

  9
$DIMALT
 70
     0
  9
$DIMALTD
 70
     4
  9
$DIMALTF
 40
0.0394
  9
$DIMLFAC
 40
1.0
  9
$DIMTOFL
 70
     1
  9
$DIMTVP
 40
0.0
  9
$DIMTIX
 70
     0
  9
$DIMSOXD
 70
     0
  9
$DIMSAH
 70
     0
  9
$DIMBLK1
  1

  9
$DIMBLK2
  1

  9
$DIMSTYLE
  2
STANDARD
  9
$DIMCLRD
 70
     0
  9
$DIMCLRE
 70
     0
  9
$DIMCLRT
 70
     0
  9
$DIMTFAC
 40
1.0
  9
$DIMGAP
 40
0.625
  9
$LUNITS
 70
     2
  9
$LUPREC
 70
     4
  9
$SKETCHINC
 40
1.0
  9
$FILLETRAD
 40
10.0
  9
$AUNITS
 70
     0
  9
$AUPREC
 70
     0
  9
$MENU
  1
.
  9
$ELEVATION
 40
0.0
  9
$PELEVATION
 40
0.0
  9
$THICKNESS
 40
0.0
  9
$LIMCHECK
 70
     0
  9
$BLIPMODE
 70
     0
  9
$CHAMFERA
 40
10.0
  9
$CHAMFERB
 40
10.0
  9
$SKPOLY
 70
     0
  9
$TDCREATE
 40
2452361.611515
  9
$TDUPDATE
 40
2452366.409906
  9
$TDINDWG
 40
0.149186
  9
$TDUSRTIMER
 40
0.149186
  9
$USRTIMER
 70
     1
  9
$ANGBASE
 50
0.0
  9
$ANGDIR
 70
     0
  9
$PDMODE
 70
     0
  9
$PDSIZE
 40
0.0
  9
$PLINEWID
 40
0.0
  9
$COORDS
 70
     2
  9
$SPLFRAME
 70
     0
  9
$SPLINETYPE
 70
     6
  9
$SPLINESEGS
 70
     8
  9
$ATTDIA
 70
     0
  9
$ATTREQ
 70
     1
  9
$HANDLING
 70
     1
  9
$HANDSEED
  5
3EF
  9
$SURFTAB1
 70
     6
  9
$SURFTAB2
 70
     6
  9
$SURFTYPE
 70
     6
  9
$SURFU
 70
     6
  9
$SURFV
 70
     6
  9
$UCSNAME
  2

  9
$UCSORG
 10
0.0
 20
0.0
 30
0.0
  9
$UCSXDIR
 10
1.0
 20
0.0
 30
0.0
  9
$UCSYDIR
 10
0.0
 20
1.0
 30
0.0
  9
$PUCSNAME
  2

  9
$PUCSORG
 10
0.0
 20
0.0
 30
0.0
  9
$PUCSXDIR
 10
1.0
 20
0.0
 30
0.0
  9
$PUCSYDIR
 10
0.0
 20
1.0
 30
0.0
  9
$USERI1
 70
     0
  9
$USERI2
 70
     0
  9
$USERI3
 70
     0
  9
$USERI4
 70
     0
  9
$USERI5
 70
     0
  9
$USERR1
 40
0.0
  9
$USERR2
 40
0.0
  9
$USERR3
 40
0.0
  9
$USERR4
 40
0.0
  9
$USERR5
 40
0.0
  9
$WORLDVIEW
 70
     1
  9
$SHADEDGE
 70
     3
  9
$SHADEDIF
 70
    70
  9
$TILEMODE
 70
     1
  9
$MAXACTVP
 70
    48
  9
$PLIMCHECK
 70
     0
  9
$PEXTMIN
 10
1.000000E+020
 20
1.000000E+020
 30
1.000000E+020
  9
$PEXTMAX
 10
-1.000000E+020
 20
-1.000000E+020
 30
-1.000000E+020
  9
$PLIMMIN
 10
0.0
 20
0.0
  9
$PLIMMAX
 10
420.0
 20
297.0
  9
$UNITMODE
 70
     0
  9
$VISRETAIN
 70
     1
  9
$PLINEGEN
 70
     0
  9
$PSLTSCALE
 70
     1
  0
ENDSEC
  0
SECTION
  2
TABLES
  0
TABLE
  2
VPORT
 70
     2
  0
VPORT
  2
*ACTIVE
 70
     0
 10
0.0
 20
0.0
 11
1.0
 21
1.0
 12
305.568001
 22
260.837269
 13
0.0
 23
0.0
 14
0.25
 24
0.25
 15
1.0
 25
1.0
 16
0.0
 26
0.0
 36
1.0
 17
0.0
 27
0.0
 37
0.0
 40
521.684258
 41
1.171492
 42
50.0
 43
0.0
 44
0.0
 50
0.0
 51
0.0
 71
     0
 72
 20000
 73
     1
 74
     1
 75
     0
 76
     0
 77
     0
 78
     0
  0
ENDTAB
  0
TABLE
  2
LTYPE
 70
     7
  0
LTYPE
  2
CONTINUOUS
 70
     0
  3
Solid line
 72
    65
 73
     0
 40
0.0
  0
LTYPE
  2
CENTERX2
 70
     0
  3
Center (2x) ________  __  ________  __  _____
 72
    65
 73
     4
 40
101.6
 49
63.5
 49
-12.7
 49
12.7
 49
-12.7
  0
LTYPE
  2
DASHEDX2
 70
     0
  3
Dashed (2x) ____  ____  ____  ____  ____  ___
 72
    65
 73
     2
 40
38.1
 49
25.4
 49
-12.7
  0
LTYPE
  2
DASHED
 70
     0
  3
Dashed __ __ __ __ __ __ __ __ __ __ __ __ __ _
 72
    65
 73
     2
 40
19.05
 49
12.7
 49
-6.35
  0
LTYPE
  2
CENTER
 70
     0
  3
Center ____ _ ____ _ ____ _ ____ _ ____ _ ____
 72
    65
 73
     4
 40
50.8
 49
31.75
 49
-6.35
 49
6.35
 49
-6.35
  0
LTYPE
  2
CENTER2
 70
     0
  3
Center (.5x) ___ _ ___ _ ___ _ ___ _ ___ _ ___
 72
    65
 73
     4
 40
28.575
 49
19.05
 49
-3.175
 49
3.175
 49
-3.175
  0
LTYPE
  2
DASHED2
 70
     0
  3
Dashed (.5x) _ _ _ _ _ _ _ _ _ _ _ _ _ _ _ _ _
 72
    65
 73
     2
 40
9.525
 49
6.35
 49
-3.175
  0
ENDTAB
  0
TABLE
  2
LAYER
 70
     5
  0
LAYER
  2
0
 70
     0
 62
     7
  6
CONTINUOUS
  0
LAYER
  2
1
 70
     0
 62
     1
  6
CENTER2
  0
LAYER
  2
2
 70
     0
 62
     2
  6
DASHED2
  0
LAYER
  2
3
 70
     0
 62
     4
  6
CONTINUOUS
  0
LAYER
  2
DEFPOINTS
 70
     0
 62
     7
  6
CONTINUOUS
  0
ENDTAB
  0
TABLE
  2
STYLE
 70
     2
  0
STYLE
  2
STANDARD
 70
     0
 40
0.0
 41
1.0
 50
0.0
 71
     0
 42
2.5
  3
txt
  4

  0
STYLE
  2

 70
     1
 40
0.0
 41
1.0
 50
0.0
 71
     0
 42
2.5
  3
ltypeshp.shx
  4

  0
ENDTAB
  0
TABLE
  2
VIEW
 70
     0
  0
ENDTAB
  0
TABLE
  2
UCS
 70
     0
  0
ENDTAB
  0
TABLE
  2
APPID
 70
     1
  0
APPID
  2
ACAD
 70
     0
  0
ENDTAB
  0
TABLE
  2
DIMSTYLE
 70
     1
  0
DIMSTYLE
  2
STANDARD
 70
     0
  3

  4

  5

  6

  7

 40
1.0
 41
0.18
 42
0.0625
 43
0.38
 44
0.18
 45
0.0
 46
0.0
 47
0.0
 48
0.0
140
0.18
141
0.09
142
0.0
143
25.4
144
1.0
145
0.0
146
1.0
147
0.09
 71
     0
 72
     0
 73
     1
 74
     1
 75
     0
 76
     0
 77
     0
 78
     0
170
     0
171
     2
172
     0
173
     0
174
     0
175
     0
176
     0
177
     0
178
     0
  0
ENDTAB
  0
ENDSEC
  0
SECTION
  2
BLOCKS
  0
BLOCK
  8
0
  2
$MODEL_SPACE
 70
     0
 10
0.0
 20
0.0
 30
0.0
  3
$MODEL_SPACE
  1

  0
ENDBLK
  5
1A
  8
0
  0
BLOCK
 67
     1
  8
0
  2
$PAPER_SPACE
 70
     0
 10
0.0
 20
0.0
 30
0.0
  3
$PAPER_SPACE
  1

  0
ENDBLK
  5
17
 67
     1
  8
0
  0
BLOCK
  8
0
  2
A$C78306D7C
 70
     0
 10
0.0
 20
0.0
 30
0.0
  3
A$C78306D7C
  1

  0
LINE
  5
38F
  8
0
 10
18.75
 20
26.0
 30
0.0
 11
18.75
 21
20.0
 31
0.0
  0
LINE
  5
390
  8
0
 10
18.75
 20
26.0
 30
0.0
 11
18.75
 21
0.0
 31
0.0
  0
LINE
  5
391
  8
0
 10
18.75
 20
26.0
 30
0.0
 11
18.75
 21
12.0
 31
0.0
  0
LINE
  5
392
  8
0
 10
7.75
 20
26.0
 30
0.0
 11
7.75
 21
14.0
 31
0.0
  0
LINE
  5
393
  8
0
 10
5.75
 20
0.0
 30
0.0
 11
5.75
 21
26.0
 31
0.0
  0
LINE
  5
394
  8
0
 10
7.75
 20
12.0
 30
0.0
 11
7.75
 21
26.0
 31
0.0
  0
LINE
  5
395
  8
0
 10
15.75
 20
26.0
 30
0.0
 11
15.75
 21
11.3
 31
0.0
  0
LINE
  5
396
  8
0
 10
17.1
 20
11.3
 30
0.0
 11
17.1
 21
26.0
 31
0.0
  0
LINE
  5
397
  8
0
 10
18.75
 20
1.0
 30
0.0
 11
14.35
 21
1.0
 31
0.0
  0
LINE
  5
398
  8
0
 10
14.35
 20
9.0
 30
0.0
 11
18.75
 21
9.0
 31
0.0
  0
LINE
  5
399
  8
1
 10
20.25
 20
5.0
 30
0.0
 11
6.25
 21
5.0
 31
0.0
  0
LINE
  5
39A
  8
0
 10
18.75
 20
0.0
 30
0.0
 11
5.75
 21
0.0
 31
0.0
  0
LINE
  5
39B
  8
0
 10
18.75
 20
12.0
 30
0.0
 11
17.1
 21
12.0
 31
0.0
  0
LINE
  5
39C
  8
0
 10
14.35
 20
1.0
 30
0.0
 11
14.35
 21
9.0
 31
0.0
  0
LINE
  5
39D
  8
0
 10
10.75
 20
7.15
 30
0.0
 11
5.75
 21
7.15
 31
0.0
  0
LINE
  5
39E
  8
0
 10
10.75
 20
2.85
 30
0.0
 11
5.75
 21
2.85
 31
0.0
  0
LINE
  5
39F
  8
0
 10
10.75
 20
2.5
 30
0.0
 11
5.75
 21
2.5
 31
0.0
  0
LINE
  5
3A0
  8
1
 10
6.25
 20
5.0
 30
0.0
 11
3.0
 21
5.0
 31
0.0
  0
LINE
  5
3A1
  8
0
 10
10.75
 20
2.5
 30
0.0
 11
14.35
 21
2.5
 31
0.0
  0
LINE
  5
3A2
  8
0
 10
14.35
 20
2.85
 30
0.0
 11
10.75
 21
2.85
 31
0.0
  0
LINE
  5
3A3
  8
0
 10
14.35
 20
7.15
 30
0.0
 11
10.75
 21
7.15
 31
0.0
  0
LINE
  5
3A4
  8
0
 10
10.75
 20
7.5
 30
0.0
 11
5.75
 21
7.5
 31
0.0
  0
LINE
  5
3A5
  8
0
 10
15.75
 20
12.0
 30
0.0
 11
7.75
 21
12.0
 31
0.0
  0
LINE
  5
3A6
  8
0
 10
15.75
 20
20.0
 30
0.0
 11
7.75
 21
20.0
 31
0.0
  0
LINE
  5
3A7
  8
0
 10
7.75
 20
18.5
 30
0.0
 11
10.604356
 21
18.5
 31
0.0
  0
LINE
  5
3A8
  8
0
 10
7.75
 20
13.5
 30
0.0
 11
10.604356
 21
13.5
 31
0.0
  0
LINE
  5
3A9
  8
0
 10
7.75
 20
14.0
 30
0.0
 11
5.75
 21
14.0
 31
0.0
  0
LINE
  5
3AA
  8
0
 10
15.0
 20
17.75
 30
0.0
 11
15.0
 21
14.25
 31
0.0
  0
LINE
  5
3AB
  8
0
 10
8.5
 20
17.75
 30
0.0
 11
8.5
 21
14.25
 31
0.0
  0
CIRCLE
  5
3AC
  8
0
 10
11.75
 20
16.0
 30
0.0
 40
2.75
  0
LINE
  5
3AD
  8
0
 10
10.75
 20
7.5
 30
0.0
 11
14.35
 21
7.5
 31
0.0
  0
LINE
  5
3AE
  8
0
 10
12.895644
 20
13.5
 30
0.0
 11
15.75
 21
13.5
 31
0.0
  0
LINE
  5
3AF
  8
0
 10
8.5
 20
14.25
 30
0.0
 11
9.25
 21
13.5
 31
0.0
  0
LINE
  5
3B0
  8
0
 10
15.0
 20
14.25
 30
0.0
 11
14.25
 21
13.5
 31
0.0
  0
LINE
  5
3B1
  8
0
 10
15.75
 20
11.3
 30
0.0
 11
17.1
 21
11.3
 31
0.0
  0
LINE
  5
3B2
  8
0
 10
12.895644
 20
18.5
 30
0.0
 11
15.75
 21
18.5
 31
0.0
  0
LINE
  5
3B3
  8
0
 10
9.25
 20
18.5
 30
0.0
 11
8.5
 21
17.75
 31
0.0
  0
LINE
  5
3B4
  8
0
 10
14.25
 20
18.5
 30
0.0
 11
15.0
 21
17.75
 31
0.0
  0
LINE
  5
3B5
  8
0
 10
18.75
 20
40.0
 30
0.0
 11
17.1
 21
40.0
 31
0.0
  0
LINE
  5
3B6
  8
0
 10
18.75
 20
52.0
 30
0.0
 11
5.75
 21
52.0
 31
0.0
  0
LINE
  5
3B7
  8
1
 10
20.25
 20
47.0
 30
0.0
 11
6.25
 21
47.0
 31
0.0
  0
LINE
  5
3B8
  8
1
 10
24.25
 20
26.0
 30
0.0
 11
4.0
 21
26.0
 31
0.0
  0
LINE
  5
3B9
  8
0
 10
14.35
 20
43.0
 30
0.0
 11
18.75
 21
43.0
 31
0.0
  0
LINE
  5
3BA
  8
0
 10
18.75
 20
51.0
 30
0.0
 11
14.35
 21
51.0
 31
0.0
  0
LINE
  5
3BB
  8
0
 10
17.1
 20
40.7
 30
0.0
 11
17.1
 21
26.0
 31
0.0
  0
LINE
  5
3BC
  8
0
 10
15.75
 20
26.0
 30
0.0
 11
15.75
 21
40.7
 31
0.0
  0
CIRCLE
  5
3BD
  8
0
 10
11.75
 20
36.0
 30
0.0
 40
2.75
  0
LINE
  5
3BE
  8
0
 10
7.75
 20
40.0
 30
0.0
 11
7.75
 21
26.0
 31
0.0
  0
LINE
  5
3BF
  8
0
 10
5.75
 20
52.0
 30
0.0
 11
5.75
 21
26.0
 31
0.0
  0
LINE
  5
3C0
  8
0
 10
7.75
 20
33.5
 30
0.0
 11
10.604356
 21
33.5
 31
0.0
  0
LINE
  5
3C1
  8
0
 10
7.75
 20
38.5
 30
0.0
 11
10.604356
 21
38.5
 31
0.0
  0
LINE
  5
3C2
  8
0
 10
15.75
 20
32.0
 30
0.0
 11
7.75
 21
32.0
 31
0.0
  0
LINE
  5
3C3
  8
0
 10
7.75
 20
26.0
 30
0.0
 11
7.75
 21
38.0
 31
0.0
  0
LINE
  5
3C4
  8
1
 10
4.0
 20
26.0
 30
0.0
 11
0.0
 21
26.0
 31
0.0
  0
LINE
  5
3C5
  8
1
 10
4.0
 20
26.0
 30
0.0
 11
0.0
 21
26.0
 31
0.0
  0
LINE
  5
3C6
  8
0
 10
7.75
 20
38.0
 30
0.0
 11
5.75
 21
38.0
 31
0.0
  0
LINE
  5
3C7
  8
0
 10
12.895644
 20
33.5
 30
0.0
 11
15.75
 21
33.5
 31
0.0
  0
LINE
  5
3C8
  8
0
 10
12.895644
 20
38.5
 30
0.0
 11
15.75
 21
38.5
 31
0.0
  0
LINE
  5
3C9
  8
0
 10
8.5
 20
34.25
 30
0.0
 11
8.5
 21
37.75
 31
0.0
  0
LINE
  5
3CA
  8
0
 10
9.25
 20
33.5
 30
0.0
 11
8.5
 21
34.25
 31
0.0
  0
LINE
  5
3CB
  8
0
 10
8.5
 20
37.75
 30
0.0
 11
9.25
 21
38.5
 31
0.0
  0
LINE
  5
3CC
  8
0
 10
15.0
 20
34.25
 30
0.0
 11
15.0
 21
37.75
 31
0.0
  0
LINE
  5
3CD
  8
0
 10
14.25
 20
33.5
 30
0.0
 11
15.0
 21
34.25
 31
0.0
  0
LINE
  5
3CE
  8
0
 10
15.0
 20
37.75
 30
0.0
 11
14.25
 21
38.5
 31
0.0
  0
LINE
  5
3CF
  8
0
 10
15.75
 20
40.0
 30
0.0
 11
7.75
 21
40.0
 31
0.0
  0
LINE
  5
3D0
  8
0
 10
10.75
 20
44.5
 30
0.0
 11
5.75
 21
44.5
 31
0.0
  0
LINE
  5
3D1
  8
0
 10
10.75
 20
44.85
 30
0.0
 11
5.75
 21
44.85
 31
0.0
  0
LINE
  5
3D2
  8
0
 10
10.75
 20
49.15
 30
0.0
 11
5.75
 21
49.15
 31
0.0
  0
LINE
  5
3D3
  8
0
 10
10.75
 20
49.5
 30
0.0
 11
5.75
 21
49.5
 31
0.0
  0
LINE
  5
3D4
  8
1
 10
6.25
 20
47.0
 30
0.0
 11
3.0
 21
47.0
 31
0.0
  0
LINE
  5
3D5
  8
0
 10
14.35
 20
51.0
 30
0.0
 11
14.35
 21
43.0
 31
0.0
  0
LINE
  5
3D6
  8
0
 10
10.75
 20
44.5
 30
0.0
 11
14.35
 21
44.5
 31
0.0
  0
LINE
  5
3D7
  8
0
 10
14.35
 20
44.85
 30
0.0
 11
10.75
 21
44.85
 31
0.0
  0
LINE
  5
3D8
  8
0
 10
15.75
 20
40.7
 30
0.0
 11
17.1
 21
40.7
 31
0.0
  0
LINE
  5
3D9
  8
0
 10
14.35
 20
49.15
 30
0.0
 11
10.75
 21
49.15
 31
0.0
  0
LINE
  5
3DA
  8
0
 10
10.75
 20
49.5
 30
0.0
 11
14.35
 21
49.5
 31
0.0
  0
LINE
  5
3DB
  8
0
 10
18.75
 20
26.0
 30
0.0
 11
18.75
 21
40.0
 31
0.0
  0
LINE
  5
3DC
  8
0
 10
18.75
 20
26.0
 30
0.0
 11
18.75
 21
52.0
 31
0.0
  0
LINE
  5
3DD
  8
0
 10
18.75
 20
26.0
 30
0.0
 11
18.75
 21
32.0
 31
0.0
  0
ENDBLK
  5
3DF
  8
0
  0
ENDSEC
  0
SECTION
  2
ENTITIES
  0
CIRCLE
  5
80
  8
0
 10
172.0
 20
124.0
 30
0.0
 40
4.0
  0
CIRCLE
  5
83
  8
0
 10
172.0
 20
82.0
 30
0.0
 40
4.0
  0
LINE
  5
159
  8
1
 10
193.717308
 20
103.0
 30
0.0
 11
150.303217
 21
103.0
 31
0.0
  0
LINE
  5
15A
  8
1
 10
172.0
 20
132.25
 30
0.0
 11
172.0
 21
74.5
 31
0.0
  0
CIRCLE
  5
1BB
  8
0
 10
172.0
 20
124.0
 30
0.0
 40
2.5
  0
CIRCLE
  5
1BE
  8
0
 10
172.0
 20
82.0
 30
0.0
 40
2.5
  0
CIRCLE
  5
1C5
  8
0
 10
172.0
 20
82.0
 30
0.0
 40
2.15
  0
CIRCLE
  5
1C7
  8
0
 10
172.0
 20
124.0
 30
0.0
 40
2.15
  0
CIRCLE
  5
2F0
  8
0
 10
172.0
 20
103.0
 30
0.0
 40
6.0
  0
ARC
  5
32A
  8
0
 10
172.0
 20
103.0
 30
0.0
 40
26.0
 50
46.186939
 51
133.813061
  0
LINE
  5
37E
  8
0
 10
190.0
 20
84.238337
 30
0.0
 11
190.0
 21
121.761663
 31
0.0
  0
LINE
  5
380
  8
0
 10
154.0
 20
121.761663
 30
0.0
 11
154.0
 21
84.238337
 31
0.0
  0
ARC
  5
381
  8
0
 10
172.0
 20
103.0
 30
0.0
 40
26.0
 50
226.186939
 51
313.813061
  0
LINE
  5
383
  8
1
 10
160.0
 20
82.0
 30
0.0
 11
184.000075
 21
82.0
 31
0.0
  0
LINE
  5
385
  8
1
 10
184.000075
 20
124.0
 30
0.0
 11
160.804098
 21
124.0
 31
0.0
  0
TEXT
  5
38D
  8
0
 10
117.320712
 20
65.221396
 30
0.0
 40
2.5
  1
BER-6001ZZ
  0
INSERT
  5
3E0
  8
0
  2
A$C78306D7C
 10
80.980783
 20
77.0
 30
0.0
  0
CIRCLE
  5
3E6
  8
0
 10
172.0
 20
103.0
 30
0.0
 40
14.023105
  0
CIRCLE
  5
3E7
  8
2
 10
172.0
 20
103.0
 30
0.0
 40
14.675068
  0
CIRCLE
  5
3E8
  8
2
 10
172.0
 20
103.0
 30
0.0
 40
11.904223
  0
ENDSEC
  0
EOF
