  0
SECTION
  2
HEADER
  9
$ACADVER
  1
AC1009
  9
$INSBASE
 10
0.0
 20
0.0
 30
0.0
  9
$EXTMIN
 10
108.5
 20
68.0
 30
0.0
  9
$EXTMAX
 10
187.0
 20
126.25
 30
0.0
  9
$LIMMIN
 10
0.0
 20
0.0
  9
$LIMMAX
 10
265.0
 20
200.0
  9
$ORTHOMODE
 70
     1
  9
$REGENMODE
 70
     1
  9
$FILLMODE
 70
     1
  9
$QTEXTMODE
 70
     0
  9
$MIRRTEXT
 70
     1
  9
$DRAGMODE
 70
     2
  9
$LTSCALE
 40
1.0
  9
$OSMODE
 70
     0
  9
$ATTMODE
 70
     1
  9
$TEXTSIZE
 40
2.5
  9
$TRACEWID
 40
1.0
  9
$TEXTSTYLE
  7
STANDARD
  9
$CLAYER
  8
2
  9
$CELTYPE
  6
BYLAYER
  9
$CECOLOR
 62
   256
  9
$DIMSCALE
 40
1.0
  9
$DIMASZ
 40
2.5
  9
$DIMEXO
 40
0.625
  9
$DIMDLI
 40
3.75
  9
$DIMRND
 40
0.0
  9
$DIMDLE
 40
0.0
  9
$DIMEXE
 40
1.25
  9
$DIMTP
 40
0.0
  9
$DIMTM
 40
0.0
  9
$DIMTXT
 40
2.5
  9
$DIMCEN
 40
2.5
  9
$DIMTSZ
 40
0.0
  9
$DIMTOL
 70
     0
  9
$DIMLIM
 70
     0
  9
$DIMTIH
 70
     0
  9
$DIMTOH
 70
     0
  9
$DIMSE1
 70
     0
  9
$DIMSE2
 70
     0
  9
$DIMTAD
 70
     1
  9
$DIMZIN
 70
     8
  9
$DIMBLK
  1

  9
$DIMASO
 70
     1
  9
$DIMSHO
 70
     1
  9
$DIMPOST
  1

  9
$DIMAPOST
  1

  9
$DIMALT
 70
     0
  9
$DIMALTD
 70
     4
  9
$DIMALTF
 40
0.0394
  9
$DIMLFAC
 40
1.0
  9
$DIMTOFL
 70
     1
  9
$DIMTVP
 40
0.0
  9
$DIMTIX
 70
     0
  9
$DIMSOXD
 70
     0
  9
$DIMSAH
 70
     0
  9
$DIMBLK1
  1

  9
$DIMBLK2
  1

  9
$DIMSTYLE
  2
STANDARD
  9
$DIMCLRD
 70
     0
  9
$DIMCLRE
 70
     0
  9
$DIMCLRT
 70
     0
  9
$DIMTFAC
 40
1.0
  9
$DIMGAP
 40
0.625
  9
$LUNITS
 70
     2
  9
$LUPREC
 70
     4
  9
$SKETCHINC
 40
1.0
  9
$FILLETRAD
 40
10.0
  9
$AUNITS
 70
     0
  9
$AUPREC
 70
     0
  9
$MENU
  1
.
  9
$ELEVATION
 40
0.0
  9
$PELEVATION
 40
0.0
  9
$THICKNESS
 40
0.0
  9
$LIMCHECK
 70
     0
  9
$BLIPMODE
 70
     0
  9
$CHAMFERA
 40
10.0
  9
$CHAMFERB
 40
10.0
  9
$SKPOLY
 70
     0
  9
$TDCREATE
 40
2452361.611515
  9
$TDUPDATE
 40
2452366.414864
  9
$TDINDWG
 40
0.056643
  9
$TDUSRTIMER
 40
0.056643
  9
$USRTIMER
 70
     1
  9
$ANGBASE
 50
0.0
  9
$ANGDIR
 70
     0
  9
$PDMODE
 70
     0
  9
$PDSIZE
 40
0.0
  9
$PLINEWID
 40
0.0
  9
$COORDS
 70
     2
  9
$SPLFRAME
 70
     0
  9
$SPLINETYPE
 70
     6
  9
$SPLINESEGS
 70
     8
  9
$ATTDIA
 70
     0
  9
$ATTREQ
 70
     1
  9
$HANDLING
 70
     1
  9
$HANDSEED
  5
193
  9
$SURFTAB1
 70
     6
  9
$SURFTAB2
 70
     6
  9
$SURFTYPE
 70
     6
  9
$SURFU
 70
     6
  9
$SURFV
 70
     6
  9
$UCSNAME
  2

  9
$UCSORG
 10
0.0
 20
0.0
 30
0.0
  9
$UCSXDIR
 10
1.0
 20
0.0
 30
0.0
  9
$UCSYDIR
 10
0.0
 20
1.0
 30
0.0
  9
$PUCSNAME
  2

  9
$PUCSORG
 10
0.0
 20
0.0
 30
0.0
  9
$PUCSXDIR
 10
1.0
 20
0.0
 30
0.0
  9
$PUCSYDIR
 10
0.0
 20
1.0
 30
0.0
  9
$USERI1
 70
     0
  9
$USERI2
 70
     0
  9
$USERI3
 70
     0
  9
$USERI4
 70
     0
  9
$USERI5
 70
     0
  9
$USERR1
 40
0.0
  9
$USERR2
 40
0.0
  9
$USERR3
 40
0.0
  9
$USERR4
 40
0.0
  9
$USERR5
 40
0.0
  9
$WORLDVIEW
 70
     1
  9
$SHADEDGE
 70
     3
  9
$SHADEDIF
 70
    70
  9
$TILEMODE
 70
     1
  9
$MAXACTVP
 70
    48
  9
$PLIMCHECK
 70
     0
  9
$PEXTMIN
 10
1.000000E+020
 20
1.000000E+020
 30
1.000000E+020
  9
$PEXTMAX
 10
-1.000000E+020
 20
-1.000000E+020
 30
-1.000000E+020
  9
$PLIMMIN
 10
0.0
 20
0.0
  9
$PLIMMAX
 10
420.0
 20
297.0
  9
$UNITMODE
 70
     0
  9
$VISRETAIN
 70
     1
  9
$PLINEGEN
 70
     0
  9
$PSLTSCALE
 70
     1
  0
ENDSEC
  0
SECTION
  2
TABLES
  0
TABLE
  2
VPORT
 70
     2
  0
VPORT
  2
*ACTIVE
 70
     0
 10
0.0
 20
0.0
 11
1.0
 21
1.0
 12
241.125688
 22
141.569924
 13
0.0
 23
0.0
 14
0.25
 24
0.25
 15
1.0
 25
1.0
 16
0.0
 26
0.0
 36
1.0
 17
0.0
 27
0.0
 37
0.0
 40
332.269711
 41
1.171492
 42
50.0
 43
0.0
 44
0.0
 50
0.0
 51
0.0
 71
     0
 72
 20000
 73
     1
 74
     1
 75
     0
 76
     0
 77
     0
 78
     0
  0
ENDTAB
  0
TABLE
  2
LTYPE
 70
     7
  0
LTYPE
  2
CONTINUOUS
 70
     0
  3
Solid line
 72
    65
 73
     0
 40
0.0
  0
LTYPE
  2
CENTERX2
 70
     0
  3
Center (2x) ________  __  ________  __  _____
 72
    65
 73
     4
 40
101.6
 49
63.5
 49
-12.7
 49
12.7
 49
-12.7
  0
LTYPE
  2
DASHEDX2
 70
     0
  3
Dashed (2x) ____  ____  ____  ____  ____  ___
 72
    65
 73
     2
 40
38.1
 49
25.4
 49
-12.7
  0
LTYPE
  2
DASHED
 70
     0
  3
Dashed __ __ __ __ __ __ __ __ __ __ __ __ __ _
 72
    65
 73
     2
 40
19.05
 49
12.7
 49
-6.35
  0
LTYPE
  2
CENTER
 70
     0
  3
Center ____ _ ____ _ ____ _ ____ _ ____ _ ____
 72
    65
 73
     4
 40
50.8
 49
31.75
 49
-6.35
 49
6.35
 49
-6.35
  0
LTYPE
  2
CENTER2
 70
     0
  3
Center (.5x) ___ _ ___ _ ___ _ ___ _ ___ _ ___
 72
    65
 73
     4
 40
28.575
 49
19.05
 49
-3.175
 49
3.175
 49
-3.175
  0
LTYPE
  2
DASHED2
 70
     0
  3
Dashed (.5x) _ _ _ _ _ _ _ _ _ _ _ _ _ _ _ _ _
 72
    65
 73
     2
 40
9.525
 49
6.35
 49
-3.175
  0
ENDTAB
  0
TABLE
  2
LAYER
 70
     4
  0
LAYER
  2
0
 70
     0
 62
     7
  6
CONTINUOUS
  0
LAYER
  2
1
 70
     0
 62
     1
  6
CENTER2
  0
LAYER
  2
2
 70
     0
 62
     2
  6
DASHED2
  0
LAYER
  2
3
 70
     0
 62
     4
  6
CONTINUOUS
  0
ENDTAB
  0
TABLE
  2
STYLE
 70
     2
  0
STYLE
  2
STANDARD
 70
     0
 40
0.0
 41
1.0
 50
0.0
 71
     0
 42
2.5
  3
txt
  4

  0
STYLE
  2

 70
     1
 40
0.0
 41
1.0
 50
0.0
 71
     0
 42
2.5
  3
ltypeshp.shx
  4

  0
ENDTAB
  0
TABLE
  2
VIEW
 70
     0
  0
ENDTAB
  0
TABLE
  2
UCS
 70
     0
  0
ENDTAB
  0
TABLE
  2
APPID
 70
     1
  0
APPID
  2
ACAD
 70
     0
  0
ENDTAB
  0
TABLE
  2
DIMSTYLE
 70
     1
  0
DIMSTYLE
  2
STANDARD
 70
     0
  3

  4

  5

  6

  7

 40
1.0
 41
0.18
 42
0.0625
 43
0.38
 44
0.18
 45
0.0
 46
0.0
 47
0.0
 48
0.0
140
0.18
141
0.09
142
0.0
143
25.4
144
1.0
145
0.0
146
1.0
147
0.09
 71
     0
 72
     0
 73
     1
 74
     1
 75
     0
 76
     0
 77
     0
 78
     0
170
     0
171
     2
172
     0
173
     0
174
     0
175
     0
176
     0
177
     0
178
     0
  0
ENDTAB
  0
ENDSEC
  0
SECTION
  2
BLOCKS
  0
BLOCK
  8
0
  2
$MODEL_SPACE
 70
     0
 10
0.0
 20
0.0
 30
0.0
  3
$MODEL_SPACE
  1

  0
ENDBLK
  5
1A
  8
0
  0
BLOCK
 67
     1
  8
0
  2
$PAPER_SPACE
 70
     0
 10
0.0
 20
0.0
 30
0.0
  3
$PAPER_SPACE
  1

  0
ENDBLK
  5
17
 67
     1
  8
0
  0
BLOCK
  8
0
  2
A$C02282ED2
 70
     0
 10
0.0
 20
0.0
 30
0.0
  3
A$C02282ED2
  1

  0
LINE
  5
13F
  8
0
 10
4.592273
 20
19.0
 30
0.0
 11
4.592273
 21
13.0
 31
0.0
  0
LINE
  5
140
  8
0
 10
4.592273
 20
11.0
 30
0.0
 11
4.592273
 21
19.0
 31
0.0
  0
LINE
  5
141
  8
0
 10
9.592273
 20
19.0
 30
0.0
 11
9.592273
 21
10.6
 31
0.0
  0
LINE
  5
142
  8
0
 10
10.742273
 20
10.6
 30
0.0
 11
10.742273
 21
19.0
 31
0.0
  0
LINE
  5
143
  8
0
 10
10.742273
 20
19.0
 30
0.0
 11
10.742273
 21
11.0
 31
0.0
  0
LINE
  5
144
  8
0
 10
12.592273
 20
0.0
 30
0.0
 11
12.592273
 21
19.0
 31
0.0
  0
LINE
  5
145
  8
0
 10
2.592273
 20
19.0
 30
0.0
 11
2.592273
 21
11.0
 31
0.0
  0
LINE
  5
146
  8
0
 10
2.592273
 20
19.0
 30
0.0
 11
2.592273
 21
0.0
 31
0.0
  0
LINE
  5
147
  8
0
 10
2.592273
 20
0.0
 30
0.0
 11
12.592273
 21
0.0
 31
0.0
  0
LINE
  5
148
  8
0
 10
8.192273
 20
2.5
 30
0.0
 11
2.592273
 21
2.5
 31
0.0
  0
LINE
  5
149
  8
0
 10
8.192273
 20
7.5
 30
0.0
 11
2.592273
 21
7.5
 31
0.0
  0
LINE
  5
14A
  8
0
 10
8.192273
 20
7.15
 30
0.0
 11
2.592273
 21
7.15
 31
0.0
  0
LINE
  5
14B
  8
0
 10
8.192273
 20
2.85
 30
0.0
 11
2.592273
 21
2.85
 31
0.0
  0
LINE
  5
14C
  8
1
 10
13.359903
 20
5.0
 30
0.0
 11
2.109903
 21
5.0
 31
0.0
  0
LINE
  5
14D
  8
0
 10
4.592273
 20
13.0
 30
0.0
 11
2.592273
 21
13.0
 31
0.0
  0
LINE
  5
14E
  8
0
 10
8.192273
 20
1.0
 30
0.0
 11
8.192273
 21
9.0
 31
0.0
  0
LINE
  5
14F
  8
0
 10
12.592273
 20
1.0
 30
0.0
 11
8.192273
 21
1.0
 31
0.0
  0
LINE
  5
150
  8
0
 10
9.592273
 20
11.0
 30
0.0
 11
4.592273
 21
11.0
 31
0.0
  0
CIRCLE
  5
151
  8
0
 10
7.092273
 20
13.75
 30
0.0
 40
1.75
  0
LINE
  5
152
  8
0
 10
4.592273
 20
12.5
 30
0.0
 11
5.867528
 21
12.5
 31
0.0
  0
LINE
  5
153
  8
0
 10
4.592273
 20
15.0
 30
0.0
 11
5.867528
 21
15.0
 31
0.0
  0
LINE
  5
154
  8
0
 10
5.092273
 20
12.75
 30
0.0
 11
5.342273
 21
12.5
 31
0.0
  0
LINE
  5
155
  8
0
 10
5.342273
 20
15.0
 30
0.0
 11
5.092273
 21
14.75
 31
0.0
  0
LINE
  5
156
  8
0
 10
5.092273
 20
14.75
 30
0.0
 11
5.092273
 21
12.75
 31
0.0
  0
LINE
  5
157
  8
0
 10
8.192273
 20
9.0
 30
0.0
 11
12.592273
 21
9.0
 31
0.0
  0
LINE
  5
158
  8
0
 10
9.592273
 20
10.6
 30
0.0
 11
10.742273
 21
10.6
 31
0.0
  0
LINE
  5
159
  8
0
 10
10.742273
 20
11.0
 30
0.0
 11
12.592273
 21
11.0
 31
0.0
  0
LINE
  5
15A
  8
0
 10
9.092273
 20
12.75
 30
0.0
 11
8.842273
 21
12.5
 31
0.0
  0
LINE
  5
15B
  8
0
 10
8.317018
 20
12.5
 30
0.0
 11
9.592273
 21
12.5
 31
0.0
  0
LINE
  5
15C
  8
0
 10
8.842273
 20
15.0
 30
0.0
 11
9.092273
 21
14.75
 31
0.0
  0
LINE
  5
15D
  8
0
 10
8.317018
 20
15.0
 30
0.0
 11
9.592273
 21
15.0
 31
0.0
  0
LINE
  5
15E
  8
0
 10
9.092273
 20
14.75
 30
0.0
 11
9.092273
 21
12.75
 31
0.0
  0
LINE
  5
15F
  8
0
 10
4.592273
 20
25.0
 30
0.0
 11
2.592273
 21
25.0
 31
0.0
  0
LINE
  5
160
  8
0
 10
8.192273
 20
30.5
 30
0.0
 11
2.592273
 21
30.5
 31
0.0
  0
LINE
  5
161
  8
0
 10
8.192273
 20
30.85
 30
0.0
 11
2.592273
 21
30.85
 31
0.0
  0
LINE
  5
162
  8
0
 10
8.192273
 20
35.15
 30
0.0
 11
2.592273
 21
35.15
 31
0.0
  0
LINE
  5
163
  8
0
 10
8.192273
 20
35.5
 30
0.0
 11
2.592273
 21
35.5
 31
0.0
  0
LINE
  5
164
  8
1
 10
13.359903
 20
33.0
 30
0.0
 11
2.109903
 21
33.0
 31
0.0
  0
LINE
  5
165
  8
0
 10
2.592273
 20
38.0
 30
0.0
 11
12.592273
 21
38.0
 31
0.0
  0
LINE
  5
166
  8
1
 10
0.0
 20
19.0
 30
0.0
 11
16.0
 21
19.0
 31
0.0
  0
LINE
  5
167
  8
0
 10
2.592273
 20
19.0
 30
0.0
 11
2.592273
 21
38.0
 31
0.0
  0
LINE
  5
168
  8
0
 10
2.592273
 20
19.0
 30
0.0
 11
2.592273
 21
27.0
 31
0.0
  0
LINE
  5
169
  8
0
 10
8.192273
 20
37.0
 30
0.0
 11
8.192273
 21
29.0
 31
0.0
  0
LINE
  5
16A
  8
0
 10
12.592273
 20
38.0
 30
0.0
 11
12.592273
 21
19.0
 31
0.0
  0
LINE
  5
16B
  8
0
 10
10.742273
 20
19.0
 30
0.0
 11
10.742273
 21
27.0
 31
0.0
  0
LINE
  5
16C
  8
0
 10
10.742273
 20
27.4
 30
0.0
 11
10.742273
 21
19.0
 31
0.0
  0
LINE
  5
16D
  8
0
 10
9.592273
 20
19.0
 30
0.0
 11
9.592273
 21
27.4
 31
0.0
  0
LINE
  5
16E
  8
0
 10
5.092273
 20
23.25
 30
0.0
 11
5.092273
 21
25.25
 31
0.0
  0
LINE
  5
16F
  8
0
 10
9.092273
 20
23.25
 30
0.0
 11
9.092273
 21
25.25
 31
0.0
  0
CIRCLE
  5
170
  8
0
 10
7.092273
 20
24.25
 30
0.0
 40
1.75
  0
LINE
  5
171
  8
0
 10
4.592273
 20
19.0
 30
0.0
 11
4.592273
 21
25.0
 31
0.0
  0
LINE
  5
172
  8
0
 10
4.592273
 20
27.0
 30
0.0
 11
4.592273
 21
19.0
 31
0.0
  0
LINE
  5
173
  8
0
 10
4.592273
 20
16.5
 30
0.0
 11
9.592273
 21
16.5
 31
0.0
  0
LINE
  5
174
  8
0
 10
4.592273
 20
21.5
 30
0.0
 11
9.592273
 21
21.5
 31
0.0
  0
LINE
  5
175
  8
0
 10
4.592273
 20
23.0
 30
0.0
 11
5.867528
 21
23.0
 31
0.0
  0
LINE
  5
176
  8
0
 10
5.342273
 20
23.0
 30
0.0
 11
5.092273
 21
23.25
 31
0.0
  0
LINE
  5
177
  8
0
 10
8.842273
 20
23.0
 30
0.0
 11
9.092273
 21
23.25
 31
0.0
  0
LINE
  5
178
  8
0
 10
8.317018
 20
23.0
 30
0.0
 11
9.592273
 21
23.0
 31
0.0
  0
LINE
  5
179
  8
0
 10
9.592273
 20
27.0
 30
0.0
 11
4.592273
 21
27.0
 31
0.0
  0
LINE
  5
17A
  8
0
 10
4.592273
 20
25.5
 30
0.0
 11
5.867528
 21
25.5
 31
0.0
  0
LINE
  5
17B
  8
0
 10
5.092273
 20
25.25
 30
0.0
 11
5.342273
 21
25.5
 31
0.0
  0
LINE
  5
17C
  8
0
 10
9.592273
 20
27.4
 30
0.0
 11
10.742273
 21
27.4
 31
0.0
  0
LINE
  5
17D
  8
0
 10
9.092273
 20
25.25
 30
0.0
 11
8.842273
 21
25.5
 31
0.0
  0
LINE
  5
17E
  8
0
 10
8.317018
 20
25.5
 30
0.0
 11
9.592273
 21
25.5
 31
0.0
  0
LINE
  5
17F
  8
0
 10
10.742273
 20
27.0
 30
0.0
 11
12.592273
 21
27.0
 31
0.0
  0
LINE
  5
180
  8
0
 10
8.192273
 20
29.0
 30
0.0
 11
12.592273
 21
29.0
 31
0.0
  0
LINE
  5
181
  8
0
 10
12.592273
 20
37.0
 30
0.0
 11
8.192273
 21
37.0
 31
0.0
  0
ENDBLK
  5
183
  8
0
  0
ENDSEC
  0
SECTION
  2
ENTITIES
  0
LINE
  5
2E
  8
1
 10
172.0
 20
126.25
 30
0.0
 11
172.0
 21
80.25
 31
0.0
  0
LINE
  5
79
  8
1
 10
158.0
 20
103.0
 30
0.0
 11
187.0
 21
103.0
 31
0.0
  0
ARC
  5
7E
  8
0
 10
172.0
 20
103.0
 30
0.0
 40
19.0
 50
234.62346
 51
305.37654
  0
CIRCLE
  5
80
  8
0
 10
172.0
 20
117.0
 30
0.0
 40
4.0
  0
CIRCLE
  5
83
  8
0
 10
172.0
 20
89.0
 30
0.0
 40
4.0
  0
CIRCLE
  5
8C
  8
0
 10
172.0
 20
103.0
 30
0.0
 40
2.5
  0
CIRCLE
  5
FA
  8
0
 10
172.0
 20
117.0
 30
0.0
 40
2.5
  0
CIRCLE
  5
FC
  8
0
 10
172.0
 20
89.0
 30
0.0
 40
2.5
  0
CIRCLE
  5
105
  8
0
 10
172.0
 20
89.0
 30
0.0
 40
2.15
  0
CIRCLE
  5
106
  8
0
 10
172.0
 20
117.0
 30
0.0
 40
2.15
  0
LINE
  5
12D
  8
0
 10
183.0
 20
87.508067
 30
0.0
 11
183.0
 21
118.491933
 31
0.0
  0
LINE
  5
12F
  8
0
 10
161.0
 20
118.491933
 30
0.0
 11
161.0
 21
87.508067
 31
0.0
  0
ARC
  5
130
  8
0
 10
172.0
 20
103.0
 30
0.0
 40
19.0
 50
54.62346
 51
125.37654
  0
LINE
  5
132
  8
1
 10
164.0
 20
89.0
 30
0.0
 11
180.0
 21
89.0
 31
0.0
  0
LINE
  5
134
  8
1
 10
180.0
 20
117.0
 30
0.0
 11
164.0
 21
117.0
 31
0.0
  0
TEXT
  5
13C
  8
0
 10
124.75
 20
68.0
 30
0.0
 40
2.5
  1
BER-625ZZ
  0
INSERT
  5
184
  8
0
  2
A$C02282ED2
 10
108.5
 20
84.0
 30
0.0
  0
CIRCLE
  5
18A
  8
0
 10
172.0
 20
103.0
 30
0.0
 40
8.0
  0
CIRCLE
  5
18B
  8
2
 10
172.0
 20
103.0
 30
0.0
 40
8.412844
  0
CIRCLE
  5
18C
  8
2
 10
172.0
 20
103.0
 30
0.0
 40
5.943425
  0
ENDSEC
  0
EOF
