  0
SECTION
  2
HEADER
  9
$ACADVER
  1
AC1014
  9
$ACADMAINTVER
 70
     0
  9
$DWGCODEPAGE
  3
ANSI_932
  9
$INSBASE
 10
0.0
 20
0.0
 30
0.0
  9
$EXTMIN
 10
94.151211
 20
68.317444
 30
0.0
  9
$EXTMAX
 10
209.366492
 20
131.591453
 30
0.0
  9
$LIMMIN
 10
0.0
 20
0.0
  9
$LIMMAX
 10
297.0
 20
210.0
  9
$ORTHOMODE
 70
     0
  9
$REGENMODE
 70
     1
  9
$FILLMODE
 70
     1
  9
$QTEXTMODE
 70
     0
  9
$MIRRTEXT
 70
     1
  9
$DRAGMODE
 70
     2
  9
$LTSCALE
 40
0.25
  9
$OSMODE
 70
    37
  9
$ATTMODE
 70
     1
  9
$TEXTSIZE
 40
4.0
  9
$TRACEWID
 40
1.0
  9
$TEXTSTYLE
  7
STANDARD
  9
$CLAYER
  8
0
  9
$CELTYPE
  6
BYLAYER
  9
$CECOLOR
 62
   256
  9
$CELTSCALE
 40
1.0
  9
$DELOBJ
 70
     1
  9
$DISPSILH
 70
     0
  9
$DIMSCALE
 40
1.0
  9
$DIMASZ
 40
3.0
  9
$DIMEXO
 40
1.0
  9
$DIMDLI
 40
10.0
  9
$DIMRND
 40
0.0
  9
$DIMDLE
 40
0.0
  9
$DIMEXE
 40
1.0
  9
$DIMTP
 40
0.0
  9
$DIMTM
 40
0.0
  9
$DIMTXT
 40
3.2
  9
$DIMCEN
 40
0.0
  9
$DIMTSZ
 40
0.0
  9
$DIMTOL
 70
     0
  9
$DIMLIM
 70
     0
  9
$DIMTIH
 70
     0
  9
$DIMTOH
 70
     0
  9
$DIMSE1
 70
     0
  9
$DIMSE2
 70
     0
  9
$DIMTAD
 70
     1
  9
$DIMZIN
 70
     8
  9
$DIMBLK
  1
ARROW
  9
$DIMASO
 70
     1
  9
$DIMSHO
 70
     1
  9
$DIMPOST
  1

  9
$DIMAPOST
  1

  9
$DIMALT
 70
     0
  9
$DIMALTD
 70
     2
  9
$DIMALTF
 40
0.04
  9
$DIMLFAC
 40
1.0
  9
$DIMTOFL
 70
     1
  9
$DIMTVP
 40
1.0
  9
$DIMTIX
 70
     0
  9
$DIMSOXD
 70
     0
  9
$DIMSAH
 70
     1
  9
$DIMBLK1
  1
OPEN
  9
$DIMBLK2
  1
OPEN
  9
$DIMSTYLE
  2
AA1
  9
$DIMCLRD
 70
     0
  9
$DIMCLRE
 70
     0
  9
$DIMCLRT
 70
     0
  9
$DIMTFAC
 40
0.6
  9
$DIMGAP
 40
1.0
  9
$DIMJUST
 70
     0
  9
$DIMSD1
 70
     0
  9
$DIMSD2
 70
     0
  9
$DIMTOLJ
 70
     1
  9
$DIMTZIN
 70
     0
  9
$DIMALTZ
 70
     0
  9
$DIMALTTZ
 70
     0
  9
$DIMFIT
 70
     3
  9
$DIMUPT
 70
     0
  9
$DIMUNIT
 70
     2
  9
$DIMDEC
 70
     4
  9
$DIMTDEC
 70
     4
  9
$DIMALTU
 70
     2
  9
$DIMALTTD
 70
     2
  9
$DIMTXSTY
  7
STANDARD
  9
$DIMAUNIT
 70
     0
  9
$LUNITS
 70
     2
  9
$LUPREC
 70
     2
  9
$SKETCHINC
 40
1.0
  9
$FILLETRAD
 40
10.0
  9
$AUNITS
 70
     0
  9
$AUPREC
 70
     0
  9
$MENU
  1
acad
  9
$ELEVATION
 40
0.0
  9
$PELEVATION
 40
0.0
  9
$THICKNESS
 40
0.0
  9
$LIMCHECK
 70
     0
  9
$BLIPMODE
 70
     0
  9
$CHAMFERA
 40
0.0
  9
$CHAMFERB
 40
0.0
  9
$CHAMFERC
 40
0.0
  9
$CHAMFERD
 40
0.0
  9
$SKPOLY
 70
     0
  9
$TDCREATE
 40
2451466.523996759
  9
$TDUPDATE
 40
2452821.776112384
  9
$TDINDWG
 40
0.0001996528
  9
$TDUSRTIMER
 40
0.0001996528
  9
$USRTIMER
 70
     1
  9
$ANGBASE
 50
0.0
  9
$ANGDIR
 70
     0
  9
$PDMODE
 70
     1
  9
$PDSIZE
 40
0.0
  9
$PLINEWID
 40
0.0
  9
$COORDS
 70
     1
  9
$SPLFRAME
 70
     0
  9
$SPLINETYPE
 70
     6
  9
$SPLINESEGS
 70
     8
  9
$ATTDIA
 70
     0
  9
$ATTREQ
 70
     1
  9
$HANDLING
 70
     1
  9
$HANDSEED
  5
23A
  9
$SURFTAB1
 70
     6
  9
$SURFTAB2
 70
     6
  9
$SURFTYPE
 70
     6
  9
$SURFU
 70
     6
  9
$SURFV
 70
     6
  9
$UCSNAME
  2

  9
$UCSORG
 10
0.0
 20
0.0
 30
0.0
  9
$UCSXDIR
 10
1.0
 20
0.0
 30
0.0
  9
$UCSYDIR
 10
0.0
 20
1.0
 30
0.0
  9
$PUCSNAME
  2

  9
$PUCSORG
 10
0.0
 20
0.0
 30
0.0
  9
$PUCSXDIR
 10
1.0
 20
0.0
 30
0.0
  9
$PUCSYDIR
 10
0.0
 20
1.0
 30
0.0
  9
$USERI1
 70
     0
  9
$USERI2
 70
     0
  9
$USERI3
 70
     0
  9
$USERI4
 70
     0
  9
$USERI5
 70
     0
  9
$USERR1
 40
0.0
  9
$USERR2
 40
0.0
  9
$USERR3
 40
0.0
  9
$USERR4
 40
0.0
  9
$USERR5
 40
0.0
  9
$WORLDVIEW
 70
     1
  9
$SHADEDGE
 70
     3
  9
$SHADEDIF
 70
    70
  9
$TILEMODE
 70
     1
  9
$MAXACTVP
 70
    16
  9
$PINSBASE
 10
0.0
 20
0.0
 30
0.0
  9
$PLIMCHECK
 70
     0
  9
$PEXTMIN
 10
1.000000E+20
 20
1.000000E+20
 30
1.000000E+20
  9
$PEXTMAX
 10
-1.000000E+20
 20
-1.000000E+20
 30
-1.000000E+20
  9
$PLIMMIN
 10
0.0
 20
0.0
  9
$PLIMMAX
 10
420.0
 20
297.0
  9
$UNITMODE
 70
     0
  9
$VISRETAIN
 70
     0
  9
$PLINEGEN
 70
     0
  9
$PSLTSCALE
 70
     0
  9
$TREEDEPTH
 70
  3020
  9
$PICKSTYLE
 70
     1
  9
$CMLSTYLE
  2
STANDARD
  9
$CMLJUST
 70
     0
  9
$CMLSCALE
 40
1.0
  9
$PROXYGRAPHICS
 70
     1
  9
$MEASUREMENT
 70
     0
  0
ENDSEC
  0
SECTION
  2
CLASSES
  0
CLASS
  1
ACDBDICTIONARYWDFLT
  2
AcDbDictionaryWithDefault
  3
AutoCAD 2000
 90
        0
280
     0
281
     0
  0
CLASS
  1
ACDBPLACEHOLDER
  2
AcDbPlaceHolder
  3
AutoCAD 2000
 90
        0
280
     0
281
     0
  0
CLASS
  1
LAYOUT
  2
AcDbLayout
  3
AutoCAD 2000
 90
        0
280
     0
281
     0
  0
CLASS
  1
DICTIONARYVAR
  2
AcDbDictionaryVar
  3
"AutoCAD"
 90
        0
280
     0
281
     0
  0
CLASS
  1
LONG_TRANSACTION
  2
AcDbLongTransaction
  3
AutoCAD 2000
 90
        0
280
     0
281
     0
  0
CLASS
  1
LWPOLYLINE
  2
AcDbPolyline
  3
"AutoCAD"
 90
        0
280
     0
281
     1
  0
CLASS
  1
HATCH
  2
AcDbHatch
  3
"ACAD_SEDONA"
 90
        0
280
     0
281
     1
  0
CLASS
  1
XRECORD
  2
AcDbXrecord
  3
"<Built In>"
 90
        0
280
     0
281
     0
  0
ENDSEC
  0
SECTION
  2
TABLES
  0
TABLE
  2
VPORT
  5
101
100
AcDbSymbolTable
 70
     1
  0
VPORT
  5
201
102
{ACAD_XDICTIONARY
360
20A
102
}
100
AcDbSymbolTableRecord
100
AcDbViewportTableRecord
  2
*ACTIVE
 70
     0
 10
0.0
 20
0.0
 11
1.0
 21
1.0
 12
148.500001
 22
153.221306
 13
0.0
 23
0.0
 14
10.0
 24
10.0
 15
0.0
 25
0.0
 16
0.0
 26
0.0
 36
1.0
 17
0.0
 27
0.0
 37
0.0
 40
337.317527
 41
1.570997
 42
50.0
 43
0.0
 44
0.0
 50
0.0
 51
0.0
 71
     0
 72
   100
 73
     1
 74
     0
 75
     0
 76
     0
 77
     0
 78
     1
  0
ENDTAB
  0
TABLE
  2
LTYPE
  5
FE
100
AcDbSymbolTable
 70
     2
  0
LTYPE
  5
10C
102
{ACAD_XDICTIONARY
360
206
102
}
100
AcDbSymbolTableRecord
100
AcDbLinetypeTableRecord
  2
BYBLOCK
 70
     0
  3

 72
    65
 73
     0
 40
0.0
  0
LTYPE
  5
10D
102
{ACAD_XDICTIONARY
360
208
102
}
100
AcDbSymbolTableRecord
100
AcDbLinetypeTableRecord
  2
BYLAYER
 70
     0
  3

 72
    65
 73
     0
 40
0.0
  0
LTYPE
  5
10E
100
AcDbSymbolTableRecord
100
AcDbLinetypeTableRecord
  2
CONTINUOUS
 70
     0
  3
Solid line
 72
    65
 73
     0
 40
0.0
  0
LTYPE
  5
11C
100
AcDbSymbolTableRecord
100
AcDbLinetypeTableRecord
  2
CENTER
 70
     0
  3
____ _ ____ _ ____ _ ____ _ ____ _ ____ _ ____ 
 72
    65
 73
     4
 40
50.8
 49
31.75
 74
     0
 49
-6.35
 74
     0
 49
6.35
 74
     0
 49
-6.35
 74
     0
  0
ENDTAB
  0
TABLE
  2
LAYER
  5
FB
100
AcDbSymbolTable
 70
     3
  0
LAYER
  5
109
100
AcDbSymbolTableRecord
100
AcDbLayerTableRecord
  2
0
 70
     0
 62
     7
  6
CONTINUOUS
  0
LAYER
  5
11D
100
AcDbSymbolTableRecord
100
AcDbLayerTableRecord
  2
DIMENSION
 70
     0
 62
    -4
  6
CONTINUOUS
  0
LAYER
  5
11E
100
AcDbSymbolTableRecord
100
AcDbLayerTableRecord
  2
CENTER
 70
     0
 62
     1
  6
CENTER
  0
ENDTAB
  0
TABLE
  2
STYLE
  5
FC
100
AcDbSymbolTable
 70
     1
  0
STYLE
  5
10A
100
AcDbSymbolTableRecord
100
AcDbTextStyleTableRecord
  2
STANDARD
 70
     0
 40
0.0
 41
1.0
 50
0.0
 71
     0
 42
4.0
  3
txt
  4

  0
ENDTAB
  0
TABLE
  2
VIEW
  5
FF
100
AcDbSymbolTable
 70
     0
  0
ENDTAB
  0
TABLE
  2
UCS
  5
100
100
AcDbSymbolTable
 70
     0
  0
ENDTAB
  0
TABLE
  2
APPID
  5
102
100
AcDbSymbolTable
 70
     1
  0
APPID
  5
10B
100
AcDbSymbolTableRecord
100
AcDbRegAppTableRecord
  2
ACAD
 70
     0
  0
ENDTAB
  0
TABLE
  2
DIMSTYLE
  5
103
100
AcDbSymbolTable
 70
     1
  0
DIMSTYLE
105
11F
102
{ACAD_XDICTIONARY
360
233
102
}
100
AcDbSymbolTableRecord
100
AcDbDimStyleTableRecord
  2
AA1
 70
     0
  3

  4

  5

  6

  7

 40
1.0
 41
3.0
 42
1.0
 43
10.0
 44
1.0
 45
0.0
 46
0.0
 47
0.0
 48
0.0
140
3.2
141
0.0
142
0.0
143
0.04
144
1.0
145
1.0
146
0.6
147
0.0
 71
     0
 72
     0
 73
     0
 74
     0
 75
     0
 76
     0
 77
     0
 78
     8
170
     0
171
     2
172
     1
173
     0
174
     0
175
     0
176
     0
177
     0
178
     0
270
     2
271
     2
272
     2
273
     2
274
     2
340
10A
275
     0
280
     0
281
     0
282
     0
283
     1
284
     8
285
     8
286
     8
287
     5
288
     0
  0
ENDTAB
  0
TABLE
  2
BLOCK_RECORD
  5
FA
100
AcDbSymbolTable
 70
     4
  0
BLOCK_RECORD
  5
117
102
{ACAD_XDICTIONARY
360
202
102
}
100
AcDbSymbolTableRecord
100
AcDbBlockTableRecord
  2
*MODEL_SPACE
  0
BLOCK_RECORD
  5
113
102
{ACAD_XDICTIONARY
360
204
102
}
100
AcDbSymbolTableRecord
100
AcDbBlockTableRecord
  2
*PAPER_SPACE
  0
BLOCK_RECORD
  5
121
100
AcDbSymbolTableRecord
100
AcDbBlockTableRecord
  2
$MODEL_SPACE
  0
BLOCK_RECORD
  5
124
100
AcDbSymbolTableRecord
100
AcDbBlockTableRecord
  2
$PAPER_SPACE
  0
BLOCK_RECORD
  5
127
100
AcDbSymbolTableRecord
100
AcDbBlockTableRecord
  2
ARROW
  0
BLOCK_RECORD
  5
12D
100
AcDbSymbolTableRecord
100
AcDbBlockTableRecord
  2
_OPEN
  0
ENDTAB
  0
ENDSEC
  0
SECTION
  2
BLOCKS
  0
BLOCK
  5
118
100
AcDbEntity
  8
0
100
AcDbBlockBegin
  2
*MODEL_SPACE
 70
     0
 10
0.0
 20
0.0
 30
0.0
  3
*MODEL_SPACE
  1

  0
ENDBLK
  5
119
100
AcDbEntity
  8
0
100
AcDbBlockEnd
  0
BLOCK
  5
114
100
AcDbEntity
 67
     1
  8
0
100
AcDbBlockBegin
  2
*PAPER_SPACE
 70
     0
 10
0.0
 20
0.0
 30
0.0
  3
*PAPER_SPACE
  1

  0
ENDBLK
  5
115
100
AcDbEntity
 67
     1
  8
0
100
AcDbBlockEnd
  0
BLOCK
  5
122
100
AcDbEntity
  8
0
100
AcDbBlockBegin
  2
$MODEL_SPACE
 70
     0
 10
0.0
 20
0.0
 30
0.0
  3
$MODEL_SPACE
  1

  0
ENDBLK
  5
123
100
AcDbEntity
  8
0
100
AcDbBlockEnd
  0
BLOCK
  5
125
100
AcDbEntity
  8
0
100
AcDbBlockBegin
  2
$PAPER_SPACE
 70
     0
 10
0.0
 20
0.0
 30
0.0
  3
$PAPER_SPACE
  1

  0
ENDBLK
  5
126
100
AcDbEntity
  8
0
100
AcDbBlockEnd
  0
BLOCK
  5
128
100
AcDbEntity
  8
0
100
AcDbBlockBegin
  2
ARROW
 70
     0
 10
0.0
 20
0.0
 30
0.0
  3
ARROW
  1

  0
LINE
  5
129
100
AcDbEntity
  8
DIMENSION
100
AcDbLine
 10
0.0
 20
0.0
 30
0.0
 11
-1.0
 21
0.176327
 31
0.0
  0
LINE
  5
12A
100
AcDbEntity
  8
DIMENSION
100
AcDbLine
 10
0.0
 20
0.0
 30
0.0
 11
-1.0
 21
-0.176327
 31
0.0
  0
LINE
  5
12B
100
AcDbEntity
  8
DIMENSION
100
AcDbLine
 10
-1.0
 20
0.0
 30
0.0
 11
0.0
 21
0.0
 31
0.0
  0
ENDBLK
  5
12C
100
AcDbEntity
  8
0
100
AcDbBlockEnd
  0
BLOCK
  5
12E
100
AcDbEntity
  8
0
100
AcDbBlockBegin
  2
_OPEN
 70
     0
 10
0.0
 20
0.0
 30
0.0
  3
_OPEN
  1

  0
LINE
  5
12F
100
AcDbEntity
  8
0
  6
BYBLOCK
 62
     0
100
AcDbLine
 10
-1.0
 20
0.166667
 30
0.0
 11
0.0
 21
0.0
 31
0.0
  0
LINE
  5
130
100
AcDbEntity
  8
0
  6
BYBLOCK
 62
     0
100
AcDbLine
 10
0.0
 20
0.0
 30
0.0
 11
-1.0
 21
-0.166667
 31
0.0
  0
LINE
  5
131
100
AcDbEntity
  8
0
  6
BYBLOCK
 62
     0
100
AcDbLine
 10
0.0
 20
0.0
 30
0.0
 11
-1.0
 21
0.0
 31
0.0
  0
ENDBLK
  5
132
100
AcDbEntity
  8
0
100
AcDbBlockEnd
  0
ENDSEC
  0
SECTION
  2
ENTITIES
  0
LINE
  5
133
100
AcDbEntity
  8
CENTER
  6
CENTER
 62
     1
100
AcDbLine
 10
146.092483
 20
99.954449
 30
0.0
 11
209.366492
 21
99.954449
 31
0.0
  0
LINE
  5
134
100
AcDbEntity
  8
0
100
AcDbLine
 10
108.501211
 20
83.104449
 30
0.0
 11
108.501211
 21
116.804449
 31
0.0
  0
LINE
  5
135
100
AcDbEntity
  8
0
100
AcDbLine
 10
107.151211
 20
83.104449
 30
0.0
 11
107.151211
 21
116.804449
 31
0.0
  0
LINE
  5
136
100
AcDbEntity
  8
0
100
AcDbLine
 10
97.151211
 20
84.954449
 30
0.0
 11
97.151211
 21
114.954449
 31
0.0
  0
LINE
  5
137
100
AcDbEntity
  8
0
100
AcDbLine
 10
110.151211
 20
127.954449
 30
0.0
 11
110.151211
 21
71.954449
 31
0.0
  0
LINE
  5
138
100
AcDbEntity
  8
0
100
AcDbLine
 10
95.151211
 20
127.954449
 30
0.0
 11
95.151211
 21
71.954449
 31
0.0
  0
LINE
  5
13B
100
AcDbEntity
  8
CENTER
  6
CENTER
 62
     1
100
AcDbLine
 10
111.151211
 20
99.954449
 30
0.0
 11
94.151211
 21
99.954449
 31
0.0
  0
LINE
  5
13C
100
AcDbEntity
  8
CENTER
  6
CENTER
 62
     1
100
AcDbLine
 10
94.151211
 20
76.954449
 30
0.0
 11
111.151211
 21
76.954449
 31
0.0
  0
LINE
  5
13D
100
AcDbEntity
  8
0
 62
     3
100
AcDbLine
 10
95.151211
 20
79.454449
 30
0.0
 11
105.751211
 21
79.454449
 31
0.0
  0
LINE
  5
13E
100
AcDbEntity
  8
0
100
AcDbLine
 10
95.151211
 20
79.104449
 30
0.0
 11
105.751211
 21
79.104449
 31
0.0
  0
LINE
  5
13F
100
AcDbEntity
  8
0
100
AcDbLine
 10
95.151211
 20
74.804449
 30
0.0
 11
105.751211
 21
74.804449
 31
0.0
  0
LINE
  5
140
100
AcDbEntity
  8
0
 62
     3
100
AcDbLine
 10
95.151211
 20
74.454449
 30
0.0
 11
105.751211
 21
74.454449
 31
0.0
  0
LINE
  5
141
100
AcDbEntity
  8
0
100
AcDbLine
 10
110.151211
 20
71.954449
 30
0.0
 11
95.151211
 21
71.954449
 31
0.0
  0
LINE
  5
142
100
AcDbEntity
  8
0
100
AcDbLine
 10
98.151211
 20
93.954449
 30
0.0
 11
106.151211
 21
93.954449
 31
0.0
  0
CIRCLE
  5
143
100
AcDbEntity
  8
0
100
AcDbCircle
 10
102.151211
 20
88.954449
 30
0.0
 40
2.77815
  0
CIRCLE
  5
144
100
AcDbEntity
  8
0
100
AcDbCircle
 10
102.151211
 20
88.954449
 30
0.0
 40
2.77815
  0
LINE
  5
145
100
AcDbEntity
  8
0
100
AcDbLine
 10
98.151211
 20
83.954449
 30
0.0
 11
107.151211
 21
83.954449
 31
0.0
  0
LINE
  5
146
100
AcDbEntity
  8
0
100
AcDbLine
 10
97.584211
 20
88.071469
 30
0.0
 11
97.584211
 21
90.854469
 31
0.0
  0
LINE
  5
147
100
AcDbEntity
  8
0
100
AcDbLine
 10
97.784211
 20
88.154459
 30
0.0
 11
97.784211
 21
90.854459
 31
0.0
  0
LINE
  5
148
100
AcDbEntity
  8
0
100
AcDbLine
 10
97.151211
 20
86.954449
 30
0.0
 11
95.151211
 21
86.954449
 31
0.0
  0
ARC
  5
149
100
AcDbEntity
  8
0
100
AcDbCircle
 10
98.151211
 20
84.954449
 30
0.0
 40
1.0
100
AcDbArc
 50
180.0
 51
270.0
  0
LINE
  5
14A
100
AcDbEntity
  8
0
100
AcDbLine
 10
98.653812
 20
87.254469
 30
0.0
 11
99.953911
 21
87.254469
 31
0.0
  0
ARC
  5
14B
100
AcDbEntity
  8
0
100
AcDbCircle
 10
98.653812
 20
87.154469
 30
0.0
 40
0.1
100
AcDbArc
 50
90.0
 51
175.003171
  0
LINE
  5
14C
100
AcDbEntity
  8
0
100
AcDbLine
 10
98.489533
 20
86.423654
 30
0.0
 11
98.554192
 21
87.163179
 31
0.0
  0
LINE
  5
14D
100
AcDbEntity
  8
0
100
AcDbLine
 10
98.291024
 20
86.444516
 30
0.0
 11
98.334221
 21
87.321529
 31
0.0
  0
LINE
  5
14E
100
AcDbEntity
  8
0
100
AcDbLine
 10
98.534211
 20
86.934459
 30
0.0
 11
98.534211
 21
87.404459
 31
0.0
  0
ARC
  5
14F
100
AcDbEntity
  8
0
100
AcDbCircle
 10
97.251211
 20
86.454469
 30
0.0
 40
0.1
100
AcDbArc
 50
90.0
 51
180.0
  0
LINE
  5
150
100
AcDbEntity
  8
0
100
AcDbLine
 10
97.251211
 20
86.554469
 30
0.0
 11
97.711221
 21
86.554469
 31
0.0
  0
LINE
  5
151
100
AcDbEntity
  8
0
100
AcDbLine
 10
97.864221
 20
86.683479
 30
0.0
 11
98.114541
 21
86.385157
 31
0.0
  0
LINE
  5
152
100
AcDbEntity
  8
0
100
AcDbLine
 10
97.711227
 20
86.554461
 30
0.0
 11
97.960856
 21
86.256952
 31
0.0
  0
ARC
  5
153
100
AcDbEntity
  8
0
100
AcDbCircle
 10
97.864439
 20
86.683015
 30
0.0
 40
0.2
100
AcDbArc
 50
129.912973
 51
219.998813
  0
LINE
  5
154
100
AcDbEntity
  8
0
100
AcDbLine
 10
97.889201
 20
86.964479
 30
0.0
 11
97.736114
 21
86.836419
 31
0.0
  0
LINE
  5
155
100
AcDbEntity
  8
0
100
AcDbLine
 10
97.889231
 20
86.964509
 30
0.0
 11
98.017221
 21
86.811509
 31
0.0
  0
LINE
  5
156
100
AcDbEntity
  8
0
100
AcDbLine
 10
98.017211
 20
86.811479
 30
0.0
 11
97.864221
 21
86.683479
 31
0.0
  0
ARC
  5
157
100
AcDbEntity
  8
0
100
AcDbCircle
 10
98.191145
 20
86.449435
 30
0.0
 40
0.1
100
AcDbArc
 50
219.999779
 51
357.180215
  0
ARC
  5
158
100
AcDbEntity
  8
0
100
AcDbCircle
 10
98.190674
 20
86.449784
 30
0.0
 40
0.3
100
AcDbArc
 50
219.998813
 51
355.003171
  0
LINE
  5
159
100
AcDbEntity
  8
0
100
AcDbLine
 10
98.534201
 20
87.404479
 30
0.0
 11
97.784191
 21
88.154489
 31
0.0
  0
LINE
  5
15A
100
AcDbEntity
  8
0
100
AcDbLine
 10
98.334201
 20
87.321499
 30
0.0
 11
97.584191
 21
88.071519
 31
0.0
  0
LINE
  5
15B
100
AcDbEntity
  8
0
100
AcDbLine
 10
98.789305
 20
90.654459
 30
0.0
 11
99.953911
 21
90.654459
 31
0.0
  0
ARC
  5
15C
100
AcDbEntity
  8
0
100
AcDbCircle
 10
98.789305
 20
90.854459
 30
0.0
 40
0.2
100
AcDbArc
 50
200.008355
 51
270.0
  0
LINE
  5
15D
100
AcDbEntity
  8
0
100
AcDbLine
 10
98.333059
 20
91.52289
 30
0.0
 11
98.601376
 21
90.786027
 31
0.0
  0
LINE
  5
15E
100
AcDbEntity
  8
0
100
AcDbLine
 10
98.234211
 20
91.054469
 30
0.0
 11
98.234211
 21
90.854459
 31
0.0
  0
ARC
  5
15F
100
AcDbEntity
  8
0
100
AcDbCircle
 10
97.351211
 20
91.454469
 30
0.0
 40
0.2
100
AcDbArc
 50
180.0
 51
270.0
  0
LINE
  5
160
100
AcDbEntity
  8
0
100
AcDbLine
 10
97.651231
 20
91.254499
 30
0.0
 11
97.926832
 21
91.583003
 31
0.0
  0
LINE
  5
161
100
AcDbEntity
  8
0
100
AcDbLine
 10
98.080052
 20
91.654459
 30
0.0
 11
98.14513
 21
91.654459
 31
0.0
  0
ARC
  5
162
100
AcDbEntity
  8
0
100
AcDbCircle
 10
98.080052
 20
91.454459
 30
0.0
 40
0.2
100
AcDbArc
 50
90.0
 51
140.004804
  0
LINE
  5
163
100
AcDbEntity
  8
0
100
AcDbLine
 10
97.351211
 20
91.254469
 30
0.0
 11
97.651211
 21
91.254469
 31
0.0
  0
ARC
  5
164
100
AcDbEntity
  8
0
100
AcDbCircle
 10
97.784211
 20
90.854469
 30
0.0
 40
0.2
100
AcDbArc
 50
90.0
 51
180.0
  0
ARC
  5
165
100
AcDbEntity
  8
0
100
AcDbCircle
 10
98.14513
 20
91.454459
 30
0.0
 40
0.2
100
AcDbArc
 50
20.008355
 51
90.0
  0
LINE
  5
166
100
AcDbEntity
  8
0
100
AcDbLine
 10
97.784211
 20
91.054469
 30
0.0
 11
98.234211
 21
91.054469
 31
0.0
  0
LINE
  5
167
100
AcDbEntity
  8
0
100
AcDbLine
 10
98.234211
 20
90.854459
 30
0.0
 11
97.784211
 21
90.854459
 31
0.0
  0
ARC
  5
168
100
AcDbEntity
  8
0
100
AcDbCircle
 10
98.151211
 20
92.954449
 30
0.0
 40
1.0
100
AcDbArc
 50
90.0
 51
180.0
  0
LINE
  5
169
100
AcDbEntity
  8
0
100
AcDbLine
 10
106.518211
 20
88.154459
 30
0.0
 11
106.518211
 21
90.854459
 31
0.0
  0
LINE
  5
16A
100
AcDbEntity
  8
0
100
AcDbLine
 10
106.718211
 20
88.071469
 30
0.0
 11
106.718211
 21
90.854469
 31
0.0
  0
LINE
  5
16B
100
AcDbEntity
  8
0
100
AcDbLine
 10
105.751211
 20
72.954449
 30
0.0
 11
105.751211
 21
80.954449
 31
0.0
  0
LINE
  5
16C
100
AcDbEntity
  8
0
100
AcDbLine
 10
105.751211
 20
72.954449
 30
0.0
 11
110.151211
 21
72.954449
 31
0.0
  0
LINE
  5
16D
100
AcDbEntity
  8
0
100
AcDbLine
 10
105.751211
 20
80.954449
 30
0.0
 11
110.151211
 21
80.954449
 31
0.0
  0
LINE
  5
16E
100
AcDbEntity
  8
0
100
AcDbLine
 10
108.501211
 20
83.104449
 30
0.0
 11
107.151211
 21
83.104449
 31
0.0
  0
LINE
  5
16F
100
AcDbEntity
  8
0
100
AcDbLine
 10
108.501211
 20
86.604449
 30
0.0
 11
107.151211
 21
86.604449
 31
0.0
  0
ARC
  5
170
100
AcDbEntity
  8
0
100
AcDbCircle
 10
106.151211
 20
84.954449
 30
0.0
 40
1.0
100
AcDbArc
 50
270.0
 51
0.0
  0
LINE
  5
171
100
AcDbEntity
  8
0
100
AcDbLine
 10
105.64861
 20
87.254469
 30
0.0
 11
104.348511
 21
87.254469
 31
0.0
  0
LINE
  5
172
100
AcDbEntity
  8
0
100
AcDbLine
 10
106.285211
 20
86.811479
 30
0.0
 11
106.438201
 21
86.683479
 31
0.0
  0
LINE
  5
173
100
AcDbEntity
  8
0
100
AcDbLine
 10
106.413191
 20
86.964509
 30
0.0
 11
106.285201
 21
86.811509
 31
0.0
  0
LINE
  5
174
100
AcDbEntity
  8
0
100
AcDbLine
 10
106.591195
 20
86.554461
 30
0.0
 11
106.341566
 21
86.256952
 31
0.0
  0
LINE
  5
175
100
AcDbEntity
  8
0
100
AcDbLine
 10
106.438201
 20
86.683479
 30
0.0
 11
106.187881
 21
86.385157
 31
0.0
  0
LINE
  5
176
100
AcDbEntity
  8
0
100
AcDbLine
 10
105.768211
 20
86.934459
 30
0.0
 11
105.768211
 21
87.404459
 31
0.0
  0
ARC
  5
177
100
AcDbEntity
  8
0
100
AcDbCircle
 10
106.111749
 20
86.449784
 30
0.0
 40
0.3
100
AcDbArc
 50
184.996829
 51
320.001187
  0
LINE
  5
178
100
AcDbEntity
  8
0
100
AcDbLine
 10
106.011398
 20
86.444516
 30
0.0
 11
105.968201
 21
87.321529
 31
0.0
  0
ARC
  5
179
100
AcDbEntity
  8
0
100
AcDbCircle
 10
106.111277
 20
86.449435
 30
0.0
 40
0.1
100
AcDbArc
 50
182.819785
 51
320.000221
  0
LINE
  5
17A
100
AcDbEntity
  8
0
100
AcDbLine
 10
105.812889
 20
86.423654
 30
0.0
 11
105.74823
 21
87.163179
 31
0.0
  0
LINE
  5
17B
100
AcDbEntity
  8
0
100
AcDbLine
 10
106.413221
 20
86.964479
 30
0.0
 11
106.566308
 21
86.836419
 31
0.0
  0
ARC
  5
17C
100
AcDbEntity
  8
0
100
AcDbCircle
 10
106.437983
 20
86.683015
 30
0.0
 40
0.2
100
AcDbArc
 50
320.001187
 51
50.087027
  0
LINE
  5
17D
100
AcDbEntity
  8
0
100
AcDbLine
 10
107.051211
 20
86.554469
 30
0.0
 11
106.591201
 21
86.554469
 31
0.0
  0
ARC
  5
17E
100
AcDbEntity
  8
0
100
AcDbCircle
 10
107.051211
 20
86.454469
 30
0.0
 40
0.1
100
AcDbArc
 50
0.0
 51
90.0
  0
ARC
  5
17F
100
AcDbEntity
  8
0
100
AcDbCircle
 10
105.64861
 20
87.154469
 30
0.0
 40
0.1
100
AcDbArc
 50
4.996829
 51
90.0
  0
LINE
  5
180
100
AcDbEntity
  8
0
100
AcDbLine
 10
105.968221
 20
87.321499
 30
0.0
 11
106.718231
 21
88.071519
 31
0.0
  0
LINE
  5
181
100
AcDbEntity
  8
0
100
AcDbLine
 10
105.768221
 20
87.404479
 30
0.0
 11
106.518231
 21
88.154489
 31
0.0
  0
LINE
  5
182
100
AcDbEntity
  8
0
100
AcDbLine
 10
110.151211
 20
83.954449
 30
0.0
 11
108.501211
 21
83.954449
 31
0.0
  0
LINE
  5
183
100
AcDbEntity
  8
0
100
AcDbLine
 10
105.513117
 20
90.654459
 30
0.0
 11
104.348511
 21
90.654459
 31
0.0
  0
LINE
  5
184
100
AcDbEntity
  8
0
100
AcDbLine
 10
106.651191
 20
91.254499
 30
0.0
 11
106.37559
 21
91.583003
 31
0.0
  0
ARC
  5
185
100
AcDbEntity
  8
0
100
AcDbCircle
 10
106.157292
 20
91.454459
 30
0.0
 40
0.2
100
AcDbArc
 50
90.0
 51
159.991645
  0
ARC
  5
186
100
AcDbEntity
  8
0
100
AcDbCircle
 10
106.22237
 20
91.454459
 30
0.0
 40
0.2
100
AcDbArc
 50
39.995196
 51
90.0
  0
LINE
  5
187
100
AcDbEntity
  8
0
100
AcDbLine
 10
106.22237
 20
91.654459
 30
0.0
 11
106.157292
 21
91.654459
 31
0.0
  0
LINE
  5
188
100
AcDbEntity
  8
0
100
AcDbLine
 10
106.518211
 20
91.054469
 30
0.0
 11
106.068211
 21
91.054469
 31
0.0
  0
LINE
  5
189
100
AcDbEntity
  8
0
100
AcDbLine
 10
106.068211
 20
90.854459
 30
0.0
 11
106.518211
 21
90.854459
 31
0.0
  0
LINE
  5
18A
100
AcDbEntity
  8
0
100
AcDbLine
 10
106.068211
 20
91.054469
 30
0.0
 11
106.068211
 21
90.854459
 31
0.0
  0
LINE
  5
18B
100
AcDbEntity
  8
0
100
AcDbLine
 10
105.969364
 20
91.52289
 30
0.0
 11
105.701046
 21
90.786027
 31
0.0
  0
LINE
  5
18C
100
AcDbEntity
  8
0
100
AcDbLine
 10
106.951211
 20
91.254469
 30
0.0
 11
106.651211
 21
91.254469
 31
0.0
  0
ARC
  5
18D
100
AcDbEntity
  8
0
100
AcDbCircle
 10
106.951211
 20
91.454469
 30
0.0
 40
0.2
100
AcDbArc
 50
270.0
 51
0.0
  0
ARC
  5
18E
100
AcDbEntity
  8
0
100
AcDbCircle
 10
106.518211
 20
90.854469
 30
0.0
 40
0.2
100
AcDbArc
 50
0.0
 51
90.0
  0
ARC
  5
18F
100
AcDbEntity
  8
0
100
AcDbCircle
 10
105.513117
 20
90.854459
 30
0.0
 40
0.2
100
AcDbArc
 50
270.0
 51
339.991645
  0
ARC
  5
190
100
AcDbEntity
  8
0
100
AcDbCircle
 10
106.151211
 20
92.954449
 30
0.0
 40
1.0
100
AcDbArc
 50
0.0
 51
90.0
  0
LINE
  5
191
100
AcDbEntity
  8
CENTER
  6
CENTER
 62
     1
100
AcDbLine
 10
94.151211
 20
122.954449
 30
0.0
 11
111.151211
 21
122.954449
 31
0.0
  0
LINE
  5
192
100
AcDbEntity
  8
0
100
AcDbLine
 10
98.151211
 20
115.954449
 30
0.0
 11
107.151211
 21
115.954449
 31
0.0
  0
LINE
  5
193
100
AcDbEntity
  8
0
100
AcDbLine
 10
98.151211
 20
105.954449
 30
0.0
 11
106.151211
 21
105.954449
 31
0.0
  0
CIRCLE
  5
194
100
AcDbEntity
  8
0
100
AcDbCircle
 10
102.151211
 20
110.954449
 30
0.0
 40
2.77815
  0
CIRCLE
  5
195
100
AcDbEntity
  8
0
100
AcDbCircle
 10
102.151211
 20
110.954449
 30
0.0
 40
2.77815
  0
LINE
  5
196
100
AcDbEntity
  8
0
 62
     3
100
AcDbLine
 10
95.151211
 20
120.454449
 30
0.0
 11
105.751211
 21
120.454449
 31
0.0
  0
LINE
  5
197
100
AcDbEntity
  8
0
100
AcDbLine
 10
95.151211
 20
120.804449
 30
0.0
 11
105.751211
 21
120.804449
 31
0.0
  0
LINE
  5
198
100
AcDbEntity
  8
0
100
AcDbLine
 10
95.151211
 20
125.104449
 30
0.0
 11
105.751211
 21
125.104449
 31
0.0
  0
LINE
  5
199
100
AcDbEntity
  8
0
 62
     3
100
AcDbLine
 10
95.151211
 20
125.454449
 30
0.0
 11
105.751211
 21
125.454449
 31
0.0
  0
LINE
  5
19A
100
AcDbEntity
  8
0
100
AcDbLine
 10
110.151211
 20
127.954449
 30
0.0
 11
95.151211
 21
127.954449
 31
0.0
  0
LINE
  5
19B
100
AcDbEntity
  8
0
100
AcDbLine
 10
98.291024
 20
113.464381
 30
0.0
 11
98.334221
 21
112.587369
 31
0.0
  0
LINE
  5
19C
100
AcDbEntity
  8
0
100
AcDbLine
 10
98.489533
 20
113.485243
 30
0.0
 11
98.554192
 21
112.745719
 31
0.0
  0
LINE
  5
19D
100
AcDbEntity
  8
0
100
AcDbLine
 10
98.017211
 20
113.097419
 30
0.0
 11
97.864221
 21
113.225419
 31
0.0
  0
ARC
  5
19E
100
AcDbEntity
  8
0
100
AcDbCircle
 10
97.864439
 20
113.225882
 30
0.0
 40
0.2
100
AcDbArc
 50
140.001187
 51
230.087027
  0
LINE
  5
19F
100
AcDbEntity
  8
0
100
AcDbLine
 10
97.151211
 20
112.954449
 30
0.0
 11
95.151211
 21
112.954449
 31
0.0
  0
LINE
  5
1A0
100
AcDbEntity
  8
0
100
AcDbLine
 10
98.333059
 20
108.386007
 30
0.0
 11
98.601376
 21
109.12287
 31
0.0
  0
LINE
  5
1A1
100
AcDbEntity
  8
0
100
AcDbLine
 10
97.784211
 20
111.754439
 30
0.0
 11
97.784211
 21
109.054439
 31
0.0
  0
LINE
  5
1A2
100
AcDbEntity
  8
0
100
AcDbLine
 10
97.584211
 20
111.837429
 30
0.0
 11
97.584211
 21
109.054429
 31
0.0
  0
LINE
  5
1A3
100
AcDbEntity
  8
0
100
AcDbLine
 10
98.234211
 20
108.854429
 30
0.0
 11
98.234211
 21
109.054439
 31
0.0
  0
ARC
  5
1A4
100
AcDbEntity
  8
0
100
AcDbCircle
 10
97.784211
 20
109.054429
 30
0.0
 40
0.2
100
AcDbArc
 50
180.0
 51
270.0
  0
LINE
  5
1A5
100
AcDbEntity
  8
0
100
AcDbLine
 10
97.351211
 20
108.654429
 30
0.0
 11
97.651211
 21
108.654429
 31
0.0
  0
LINE
  5
1A6
100
AcDbEntity
  8
0
100
AcDbLine
 10
98.234211
 20
109.054439
 30
0.0
 11
97.784211
 21
109.054439
 31
0.0
  0
LINE
  5
1A7
100
AcDbEntity
  8
0
100
AcDbLine
 10
97.784211
 20
108.854429
 30
0.0
 11
98.234211
 21
108.854429
 31
0.0
  0
ARC
  5
1A8
100
AcDbEntity
  8
0
100
AcDbCircle
 10
98.080052
 20
108.454439
 30
0.0
 40
0.2
100
AcDbArc
 50
219.995196
 51
270.0
  0
LINE
  5
1A9
100
AcDbEntity
  8
0
100
AcDbLine
 10
98.080052
 20
108.254439
 30
0.0
 11
98.14513
 21
108.254439
 31
0.0
  0
ARC
  5
1AA
100
AcDbEntity
  8
0
100
AcDbCircle
 10
98.14513
 20
108.454439
 30
0.0
 40
0.2
100
AcDbArc
 50
270.0
 51
339.991645
  0
LINE
  5
1AB
100
AcDbEntity
  8
0
100
AcDbLine
 10
97.651231
 20
108.654399
 30
0.0
 11
97.926832
 21
108.325894
 31
0.0
  0
ARC
  5
1AC
100
AcDbEntity
  8
0
100
AcDbCircle
 10
98.151211
 20
106.954449
 30
0.0
 40
1.0
100
AcDbArc
 50
180.0
 51
270.0
  0
ARC
  5
1AD
100
AcDbEntity
  8
0
100
AcDbCircle
 10
97.351211
 20
108.454429
 30
0.0
 40
0.2
100
AcDbArc
 50
90.0
 51
180.0
  0
LINE
  5
1AE
100
AcDbEntity
  8
0
100
AcDbLine
 10
98.653812
 20
112.654429
 30
0.0
 11
99.953911
 21
112.654429
 31
0.0
  0
LINE
  5
1AF
100
AcDbEntity
  8
0
100
AcDbLine
 10
98.789305
 20
109.254439
 30
0.0
 11
99.953911
 21
109.254439
 31
0.0
  0
LINE
  5
1B0
100
AcDbEntity
  8
0
100
AcDbLine
 10
98.534211
 20
112.974439
 30
0.0
 11
98.534211
 21
112.504439
 31
0.0
  0
ARC
  5
1B1
100
AcDbEntity
  8
0
100
AcDbCircle
 10
98.653812
 20
112.754429
 30
0.0
 40
0.1
100
AcDbArc
 50
184.996829
 51
270.0
  0
LINE
  5
1B2
100
AcDbEntity
  8
0
100
AcDbLine
 10
97.889231
 20
112.944389
 30
0.0
 11
98.017221
 21
113.097389
 31
0.0
  0
LINE
  5
1B3
100
AcDbEntity
  8
0
100
AcDbLine
 10
97.889201
 20
112.944419
 30
0.0
 11
97.736114
 21
113.072478
 31
0.0
  0
LINE
  5
1B4
100
AcDbEntity
  8
0
100
AcDbLine
 10
98.334201
 20
112.587399
 30
0.0
 11
97.584191
 21
111.837379
 31
0.0
  0
LINE
  5
1B5
100
AcDbEntity
  8
0
100
AcDbLine
 10
98.534201
 20
112.504419
 30
0.0
 11
97.784191
 21
111.754409
 31
0.0
  0
ARC
  5
1B6
100
AcDbEntity
  8
0
100
AcDbCircle
 10
98.789305
 20
109.054439
 30
0.0
 40
0.2
100
AcDbArc
 50
90.0
 51
159.991645
  0
LINE
  5
1B7
100
AcDbEntity
  8
0
100
AcDbLine
 10
97.711227
 20
113.354436
 30
0.0
 11
97.960856
 21
113.651945
 31
0.0
  0
LINE
  5
1B8
100
AcDbEntity
  8
0
100
AcDbLine
 10
97.864221
 20
113.225419
 30
0.0
 11
98.114541
 21
113.52374
 31
0.0
  0
LINE
  5
1B9
100
AcDbEntity
  8
0
100
AcDbLine
 10
97.251211
 20
113.354429
 30
0.0
 11
97.711221
 21
113.354429
 31
0.0
  0
ARC
  5
1BA
100
AcDbEntity
  8
0
100
AcDbCircle
 10
98.190674
 20
113.459113
 30
0.0
 40
0.3
100
AcDbArc
 50
4.996829
 51
140.001187
  0
ARC
  5
1BB
100
AcDbEntity
  8
0
100
AcDbCircle
 10
98.191145
 20
113.459462
 30
0.0
 40
0.1
100
AcDbArc
 50
2.819785
 51
140.000221
  0
ARC
  5
1BC
100
AcDbEntity
  8
0
100
AcDbCircle
 10
98.151211
 20
114.954449
 30
0.0
 40
1.0
100
AcDbArc
 50
90.0
 51
180.0
  0
ARC
  5
1BD
100
AcDbEntity
  8
0
100
AcDbCircle
 10
97.251211
 20
113.454429
 30
0.0
 40
0.1
100
AcDbArc
 50
180.0
 51
270.0
  0
LINE
  5
1BE
100
AcDbEntity
  8
0
100
AcDbLine
 10
105.751211
 20
126.954449
 30
0.0
 11
105.751211
 21
118.954449
 31
0.0
  0
ARC
  5
1BF
100
AcDbEntity
  8
0
100
AcDbCircle
 10
106.437983
 20
113.225882
 30
0.0
 40
0.2
100
AcDbArc
 50
309.912973
 51
39.998813
  0
LINE
  5
1C0
100
AcDbEntity
  8
0
100
AcDbLine
 10
105.812889
 20
113.485243
 30
0.0
 11
105.74823
 21
112.745719
 31
0.0
  0
LINE
  5
1C1
100
AcDbEntity
  8
0
100
AcDbLine
 10
106.011398
 20
113.464381
 30
0.0
 11
105.968201
 21
112.587369
 31
0.0
  0
LINE
  5
1C2
100
AcDbEntity
  8
0
100
AcDbLine
 10
106.285211
 20
113.097419
 30
0.0
 11
106.438201
 21
113.225419
 31
0.0
  0
LINE
  5
1C3
100
AcDbEntity
  8
0
100
AcDbLine
 10
105.969364
 20
108.386007
 30
0.0
 11
105.701046
 21
109.12287
 31
0.0
  0
LINE
  5
1C4
100
AcDbEntity
  8
0
100
AcDbLine
 10
106.718211
 20
111.837429
 30
0.0
 11
106.718211
 21
109.054429
 31
0.0
  0
LINE
  5
1C5
100
AcDbEntity
  8
0
100
AcDbLine
 10
106.518211
 20
111.754439
 30
0.0
 11
106.518211
 21
109.054439
 31
0.0
  0
ARC
  5
1C6
100
AcDbEntity
  8
0
100
AcDbCircle
 10
106.518211
 20
109.054429
 30
0.0
 40
0.2
100
AcDbArc
 50
270.0
 51
0.0
  0
ARC
  5
1C7
100
AcDbEntity
  8
0
100
AcDbCircle
 10
106.951211
 20
108.454429
 30
0.0
 40
0.2
100
AcDbArc
 50
0.0
 51
90.0
  0
LINE
  5
1C8
100
AcDbEntity
  8
0
100
AcDbLine
 10
106.951211
 20
108.654429
 30
0.0
 11
106.651211
 21
108.654429
 31
0.0
  0
LINE
  5
1C9
100
AcDbEntity
  8
0
100
AcDbLine
 10
106.068211
 20
108.854429
 30
0.0
 11
106.068211
 21
109.054439
 31
0.0
  0
LINE
  5
1CA
100
AcDbEntity
  8
0
100
AcDbLine
 10
106.068211
 20
109.054439
 30
0.0
 11
106.518211
 21
109.054439
 31
0.0
  0
LINE
  5
1CB
100
AcDbEntity
  8
0
100
AcDbLine
 10
106.518211
 20
108.854429
 30
0.0
 11
106.068211
 21
108.854429
 31
0.0
  0
LINE
  5
1CC
100
AcDbEntity
  8
0
100
AcDbLine
 10
106.22237
 20
108.254439
 30
0.0
 11
106.157292
 21
108.254439
 31
0.0
  0
ARC
  5
1CD
100
AcDbEntity
  8
0
100
AcDbCircle
 10
106.151211
 20
106.954449
 30
0.0
 40
1.0
100
AcDbArc
 50
270.0
 51
0.0
  0
ARC
  5
1CE
100
AcDbEntity
  8
0
100
AcDbCircle
 10
106.22237
 20
108.454439
 30
0.0
 40
0.2
100
AcDbArc
 50
270.0
 51
320.004804
  0
ARC
  5
1CF
100
AcDbEntity
  8
0
100
AcDbCircle
 10
106.157292
 20
108.454439
 30
0.0
 40
0.2
100
AcDbArc
 50
200.008355
 51
270.0
  0
LINE
  5
1D0
100
AcDbEntity
  8
0
100
AcDbLine
 10
106.651191
 20
108.654399
 30
0.0
 11
106.37559
 21
108.325894
 31
0.0
  0
LINE
  5
1D1
100
AcDbEntity
  8
0
100
AcDbLine
 10
105.64861
 20
112.654429
 30
0.0
 11
104.348511
 21
112.654429
 31
0.0
  0
LINE
  5
1D2
100
AcDbEntity
  8
0
100
AcDbLine
 10
105.513117
 20
109.254439
 30
0.0
 11
104.348511
 21
109.254439
 31
0.0
  0
LINE
  5
1D3
100
AcDbEntity
  8
0
100
AcDbLine
 10
106.413221
 20
112.944419
 30
0.0
 11
106.566308
 21
113.072478
 31
0.0
  0
ARC
  5
1D4
100
AcDbEntity
  8
0
100
AcDbCircle
 10
105.64861
 20
112.754429
 30
0.0
 40
0.1
100
AcDbArc
 50
270.0
 51
355.003171
  0
LINE
  5
1D5
100
AcDbEntity
  8
0
100
AcDbLine
 10
105.768211
 20
112.974439
 30
0.0
 11
105.768211
 21
112.504439
 31
0.0
  0
LINE
  5
1D6
100
AcDbEntity
  8
0
100
AcDbLine
 10
105.768221
 20
112.504419
 30
0.0
 11
106.518231
 21
111.754409
 31
0.0
  0
LINE
  5
1D7
100
AcDbEntity
  8
0
100
AcDbLine
 10
105.968221
 20
112.587399
 30
0.0
 11
106.718231
 21
111.837379
 31
0.0
  0
LINE
  5
1D8
100
AcDbEntity
  8
0
100
AcDbLine
 10
106.413191
 20
112.944389
 30
0.0
 11
106.285201
 21
113.097389
 31
0.0
  0
ARC
  5
1D9
100
AcDbEntity
  8
0
100
AcDbCircle
 10
105.513117
 20
109.054439
 30
0.0
 40
0.2
100
AcDbArc
 50
20.008355
 51
90.0
  0
LINE
  5
1DA
100
AcDbEntity
  8
0
100
AcDbLine
 10
108.501211
 20
113.304449
 30
0.0
 11
107.151211
 21
113.304449
 31
0.0
  0
LINE
  5
1DB
100
AcDbEntity
  8
0
100
AcDbLine
 10
108.501211
 20
116.804449
 30
0.0
 11
107.151211
 21
116.804449
 31
0.0
  0
LINE
  5
1DC
100
AcDbEntity
  8
0
100
AcDbLine
 10
105.751211
 20
118.954449
 30
0.0
 11
110.151211
 21
118.954449
 31
0.0
  0
ARC
  5
1DD
100
AcDbEntity
  8
0
100
AcDbCircle
 10
106.151211
 20
114.954449
 30
0.0
 40
1.0
100
AcDbArc
 50
0.0
 51
90.0
  0
ARC
  5
1DE
100
AcDbEntity
  8
0
100
AcDbCircle
 10
107.051211
 20
113.454429
 30
0.0
 40
0.1
100
AcDbArc
 50
270.0
 51
0.0
  0
LINE
  5
1DF
100
AcDbEntity
  8
0
100
AcDbLine
 10
107.051211
 20
113.354429
 30
0.0
 11
106.591201
 21
113.354429
 31
0.0
  0
ARC
  5
1E0
100
AcDbEntity
  8
0
100
AcDbCircle
 10
106.111277
 20
113.459462
 30
0.0
 40
0.1
100
AcDbArc
 50
39.999779
 51
177.180215
  0
ARC
  5
1E1
100
AcDbEntity
  8
0
100
AcDbCircle
 10
106.111749
 20
113.459113
 30
0.0
 40
0.3
100
AcDbArc
 50
39.998813
 51
175.003171
  0
LINE
  5
1E2
100
AcDbEntity
  8
0
100
AcDbLine
 10
106.438201
 20
113.225419
 30
0.0
 11
106.187881
 21
113.52374
 31
0.0
  0
LINE
  5
1E3
100
AcDbEntity
  8
0
100
AcDbLine
 10
106.591195
 20
113.354436
 30
0.0
 11
106.341566
 21
113.651945
 31
0.0
  0
LINE
  5
1E4
100
AcDbEntity
  8
0
100
AcDbLine
 10
110.151211
 20
115.954449
 30
0.0
 11
108.501211
 21
115.954449
 31
0.0
  0
LINE
  5
1E5
100
AcDbEntity
  8
0
100
AcDbLine
 10
105.751211
 20
126.954449
 30
0.0
 11
110.151211
 21
126.954449
 31
0.0
  0
LINE
  5
1E6
100
AcDbEntity
  8
0
100
AcDbLine
 10
102.651211
 20
127.954449
 30
0.0
 11
102.651311
 21
127.954449
 31
0.0
  0
LINE
  5
1E7
100
AcDbEntity
  8
0
100
AcDbLine
 10
106.401211
 20
127.954449
 30
0.0
 11
106.401211
 21
127.954549
 31
0.0
  0
LINE
  5
1E8
100
AcDbEntity
  8
CENTER
  6
CENTER
 62
     1
100
AcDbLine
 10
177.729488
 20
68.317444
 30
0.0
 11
177.729488
 21
131.591453
 31
0.0
  0
CIRCLE
  5
1E9
100
AcDbEntity
  8
CENTER
  6
CENTER
 62
     1
100
AcDbCircle
 10
177.729488
 20
99.954449
 30
0.0
 40
23.0
  0
LINE
  5
1EA
100
AcDbEntity
  8
0
100
AcDbLine
 10
180.248633
 20
127.840895
 30
0.0
 11
205.615934
 21
102.473594
 31
0.0
  0
LINE
  5
1EB
100
AcDbEntity
  8
0
100
AcDbLine
 10
149.843041
 20
102.473594
 30
0.0
 11
175.210343
 21
127.840895
 31
0.0
  0
CIRCLE
  5
1EC
100
AcDbEntity
  8
0
100
AcDbCircle
 10
177.729488
 20
99.954449
 30
0.0
 40
16.0
  0
CIRCLE
  5
1ED
100
AcDbEntity
  8
0
100
AcDbCircle
 10
177.729488
 20
99.954449
 30
0.0
 40
6.0
  0
LINE
  5
1EE
100
AcDbEntity
  8
0
100
AcDbLine
 10
180.248633
 20
72.068002
 30
0.0
 11
205.615934
 21
97.435304
 31
0.0
  0
LINE
  5
1EF
100
AcDbEntity
  8
0
100
AcDbLine
 10
149.843041
 20
97.435304
 30
0.0
 11
175.210343
 21
72.068002
 31
0.0
  0
ARC
  5
1F0
100
AcDbEntity
  8
0
100
AcDbCircle
 10
177.729488
 20
99.954449
 30
0.0
 40
28.0
100
AcDbArc
 50
264.83815
 51
275.16185
  0
CIRCLE
  5
1F1
100
AcDbEntity
  8
0
100
AcDbCircle
 10
154.729488
 20
99.954449
 30
0.0
 40
4.0
  0
CIRCLE
  5
1F2
100
AcDbEntity
  8
0
 62
     3
100
AcDbCircle
 10
154.729488
 20
99.954449
 30
0.0
 40
2.5
  0
CIRCLE
  5
1F3
100
AcDbEntity
  8
0
100
AcDbCircle
 10
154.729488
 20
99.954449
 30
0.0
 40
2.15
  0
ARC
  5
1F4
100
AcDbEntity
  8
0
100
AcDbCircle
 10
177.729488
 20
99.954449
 30
0.0
 40
28.0
100
AcDbArc
 50
174.83815
 51
185.16185
  0
CIRCLE
  5
1F5
100
AcDbEntity
  8
0
100
AcDbCircle
 10
177.729488
 20
76.954449
 30
0.0
 40
4.0
  0
CIRCLE
  5
1F6
100
AcDbEntity
  8
0
 62
     3
100
AcDbCircle
 10
177.729488
 20
76.954449
 30
0.0
 40
2.5
  0
CIRCLE
  5
1F7
100
AcDbEntity
  8
0
100
AcDbCircle
 10
177.729488
 20
76.954449
 30
0.0
 40
2.15
  0
CIRCLE
  5
1F8
100
AcDbEntity
  8
0
100
AcDbCircle
 10
200.729488
 20
99.954449
 30
0.0
 40
4.0
  0
CIRCLE
  5
1F9
100
AcDbEntity
  8
0
 62
     3
100
AcDbCircle
 10
200.729488
 20
99.954449
 30
0.0
 40
2.5
  0
CIRCLE
  5
1FA
100
AcDbEntity
  8
0
100
AcDbCircle
 10
200.729488
 20
99.954449
 30
0.0
 40
2.15
  0
ARC
  5
1FB
100
AcDbEntity
  8
0
100
AcDbCircle
 10
177.729488
 20
99.954449
 30
0.0
 40
28.0
100
AcDbArc
 50
354.83815
 51
5.16185
  0
CIRCLE
  5
1FC
100
AcDbEntity
  8
0
 62
     3
100
AcDbCircle
 10
177.729488
 20
122.954449
 30
0.0
 40
2.5
  0
CIRCLE
  5
1FD
100
AcDbEntity
  8
0
100
AcDbCircle
 10
177.729488
 20
122.954449
 30
0.0
 40
2.15
  0
CIRCLE
  5
1FE
100
AcDbEntity
  8
0
100
AcDbCircle
 10
177.729488
 20
122.954449
 30
0.0
 40
4.0
  0
ARC
  5
1FF
100
AcDbEntity
  8
0
100
AcDbCircle
 10
177.729488
 20
99.954449
 30
0.0
 40
28.0
100
AcDbArc
 50
84.83815
 51
95.16185
  0
ENDSEC
  0
SECTION
  2
OBJECTS
  0
DICTIONARY
  5
105
100
AcDbDictionary
  3
ACAD_GROUP
350
106
  3
ACAD_LAYOUT
350
112
  3
ACAD_MLINESTYLE
350
10F
  3
ACAD_PLOTSETTINGS
350
111
  3
ACAD_PLOTSTYLENAME
350
107
  3
ACDBHEADERROUNDTRIPXREC
350
20C
  3
AcDbVariableDictionary
350
235
  0
DICTIONARY
  5
20A
100
AcDbDictionary
280
     1
  3
ACAD_XREC_ROUNDTRIP
360
20B
  0
DICTIONARY
  5
206
100
AcDbDictionary
280
     1
  3
ACAD_XREC_ROUNDTRIP
360
207
  0
DICTIONARY
  5
208
100
AcDbDictionary
280
     1
  3
ACAD_XREC_ROUNDTRIP
360
209
  0
DICTIONARY
  5
233
100
AcDbDictionary
280
     1
  3
ACAD_XREC_ROUNDTRIP
360
234
  0
DICTIONARY
  5
202
100
AcDbDictionary
280
     1
  3
ACAD_LAYOUTSELFREF
360
232
  3
ACAD_XREC_ROUNDTRIP
360
203
  0
DICTIONARY
  5
204
100
AcDbDictionary
280
     1
  3
ACAD_LAYOUTSELFREF
360
231
  3
ACAD_XREC_ROUNDTRIP
360
205
  0
DICTIONARY
  5
106
102
{ACAD_REACTORS
330
105
102
}
100
AcDbDictionary
  0
DICTIONARY
  5
112
102
{ACAD_XDICTIONARY
360
22F
102
}
102
{ACAD_REACTORS
330
105
102
}
100
AcDbDictionary
  3
MODEL
350
11A
  3
ﾚｲｱｳﾄ1
350
116
  0
DICTIONARY
  5
10F
102
{ACAD_XDICTIONARY
360
22D
102
}
102
{ACAD_REACTORS
330
105
102
}
100
AcDbDictionary
  3
STANDARD
350
110
  0
DICTIONARY
  5
111
102
{ACAD_REACTORS
330
105
102
}
100
AcDbDictionary
  0
ACAD_PROXY_OBJECT
  5
107
102
{ACAD_REACTORS
330
105
102
}
100
AcDbProxyObject
 90
      499
 91
      500
 93
       86
310
405010041939BDC9B585B0
350
108
340
108
 94
        0
  0
DICTIONARY
  5
20C
102
{ACAD_REACTORS
330
105
102
}
100
AcDbDictionary
  3
CEPSNTYPE
350
216
  3
DIMSTYLEDATA
350
21A
  3
FINGERPRINTGUID
350
217
  3
HYPERLINKBASE
350
20F
  3
INSUNITS
350
215
  3
LAYOUTDICT
350
211
  3
LWETCUNION
350
214
  3
PLOTSETDICT
350
212
  3
PLOTSTYLNAMDICT
350
213
  3
PSVPSCALE
350
219
  3
PUCSBASE
350
21D
  3
PUCSORGBACK
350
223
  3
PUCSORGBOTTOM
350
21F
  3
PUCSORGFRONT
350
222
  3
PUCSORGLEFT
350
220
  3
PUCSORGRIGHT
350
221
  3
PUCSORGTOP
350
21E
  3
PUCSORTHOREF
350
21B
  3
PUCSORTHOVIEW
350
21C
  3
STYLESHEET
350
210
  3
TSTACKALIGN
350
20D
  3
TSTACKSIZE
350
20E
  3
UCSBASE
350
226
  3
UCSORGBACK
350
22C
  3
UCSORGBOTTOM
350
228
  3
UCSORGFRONT
350
22B
  3
UCSORGLEFT
350
229
  3
UCSORGRIGHT
350
22A
  3
UCSORGTOP
350
227
  3
UCSORTHOREF
350
224
  3
UCSORTHOVIEW
350
225
  3
VERSIONGUID
350
218
  0
DICTIONARY
  5
235
102
{ACAD_REACTORS
330
105
102
}
100
AcDbDictionary
  3
DIMASSOC
350
236
  0
XRECORD
  5
20B
102
{ACAD_REACTORS
330
20A
102
}
100
AcDbXrecord
102
EXTNAMES
  1
*ACTIVE
  2
*Active
102
UCS
 74
     0
 71
     0
 10
0.0
 20
0.0
 30
0.0
 10
1.0
 20
0.0
 30
0.0
 10
0.0
 20
1.0
 30
0.0
146
0.0
 79
     0
102
VIEW
281
     0
  0
XRECORD
  5
207
102
{ACAD_REACTORS
330
206
102
}
100
AcDbXrecord
102
EXTNAMES
  1
BYBLOCK
  2
ByBlock
  0
XRECORD
  5
209
102
{ACAD_REACTORS
330
208
102
}
100
AcDbXrecord
102
EXTNAMES
  1
BYLAYER
  2
ByLayer
  0
XRECORD
  5
234
102
{ACAD_REACTORS
330
233
102
}
100
AcDbXrecord
102
ACADR14ROUNDTRIP
1000
DSTYLE
1002
{
1070
   279
 70
     2
1002
}
  0
XRECORD
  5
232
102
{ACAD_REACTORS
330
202
102
}
100
AcDbXrecord
340
117
  0
XRECORD
  5
203
102
{ACAD_REACTORS
330
202
102
}
100
AcDbXrecord
102
EXTNAMES
  1
*MODEL_SPACE
  2
*Model_Space
  0
XRECORD
  5
231
102
{ACAD_REACTORS
330
204
102
}
100
AcDbXrecord
340
113
  0
XRECORD
  5
205
102
{ACAD_REACTORS
330
204
102
}
100
AcDbXrecord
102
EXTNAMES
  1
*PAPER_SPACE
  2
*Paper_Space
  0
DICTIONARY
  5
22F
100
AcDbDictionary
280
     1
  3
ACAD_XREC_ROUNDTRIP
360
230
  0
ACAD_PROXY_OBJECT
  5
11A
102
{ACAD_REACTORS
330
112
102
}
100
AcDbProxyObject
 90
      499
 91
      502
 93
      836
310
932433A5C50524F4752414D2046494C45535C4D4454365C706C6F74746572735C526F6C616E64204458592D313235302E7063332C01AAAAAAAAA5A69054D6F64656C901A800000000000000000000000000000000000000000000A1000000000000008902A6A6AAAA0
330
117
330
0
340
0
340
0
 94
        0
  0
ACAD_PROXY_OBJECT
  5
116
102
{ACAD_REACTORS
330
112
102
}
100
AcDbProxyObject
 90
      499
 91
      502
 93
     1244
310
932433A5C50524F4752414D2046494C45535C4D4454365C706C6F74746572735C526F6C616E64204458592D313235302E7063332C00AAAAAA416AA59106906DAB2B1B3C431406A800000000000000000000000000000000000000000101E900000000000241C902A6A6A10232D5E076BC5510408CB5781DAF154410232D5E0
310
76BC5510408CB5781DAF15C410232D5E076BC5710408CB5781DAF15C47
330
113
330
0
340
0
340
0
 94
        0
  0
DICTIONARY
  5
22D
100
AcDbDictionary
280
     1
  3
ACAD_XREC_ROUNDTRIP
360
22E
  0
MLINESTYLE
  5
110
102
{ACAD_REACTORS
330
10F
102
}
100
AcDbMlineStyle
  2
STANDARD
 70
     0
  3

 62
   256
 51
90.0
 52
90.0
 71
     2
 49
0.5
 62
   256
  6
BYLAYER
 49
-0.5
 62
   256
  6
BYLAYER
  0
ACAD_PROXY_OBJECT
  5
108
102
{ACAD_REACTORS
330
107
102
}
100
AcDbProxyObject
 90
      499
 91
      501
 93
        0
 94
        0
  0
XRECORD
  5
216
102
{ACAD_REACTORS
330
20C
102
}
100
AcDbXrecord
 90
        0
  0
XRECORD
  5
21A
102
{ACAD_REACTORS
330
20C
102
}
100
AcDbXrecord
1000
DSTYLE
1002
{
1070
   341
340
12D
1070
   342
340
127
1070
   343
340
12D
1070
   344
340
12D
1002
}
  0
XRECORD
  5
217
102
{ACAD_REACTORS
330
20C
102
}
100
AcDbXrecord
  1
{37FE748E-0424-4223-B5B8-7BABE9F6FFB5}
  0
XRECORD
  5
20F
102
{ACAD_REACTORS
330
20C
102
}
100
AcDbXrecord
  1

  0
XRECORD
  5
215
102
{ACAD_REACTORS
330
20C
102
}
100
AcDbXrecord
 90
        0
  0
XRECORD
  5
211
102
{ACAD_REACTORS
330
20C
102
}
100
AcDbXrecord
340
112
  0
XRECORD
  5
214
102
{ACAD_REACTORS
330
20C
102
}
100
AcDbXrecord
 90
    10781
  0
XRECORD
  5
212
102
{ACAD_REACTORS
330
20C
102
}
100
AcDbXrecord
340
111
  0
XRECORD
  5
213
102
{ACAD_REACTORS
330
20C
102
}
100
AcDbXrecord
340
107
  0
XRECORD
  5
219
102
{ACAD_REACTORS
330
20C
102
}
100
AcDbXrecord
 40
0.0
  0
XRECORD
  5
21D
102
{ACAD_REACTORS
330
20C
102
}
100
AcDbXrecord
340
0
  0
XRECORD
  5
223
102
{ACAD_REACTORS
330
20C
102
}
100
AcDbXrecord
 10
0.0
 20
0.0
 30
0.0
  0
XRECORD
  5
21F
102
{ACAD_REACTORS
330
20C
102
}
100
AcDbXrecord
 10
0.0
 20
0.0
 30
0.0
  0
XRECORD
  5
222
102
{ACAD_REACTORS
330
20C
102
}
100
AcDbXrecord
 10
0.0
 20
0.0
 30
0.0
  0
XRECORD
  5
220
102
{ACAD_REACTORS
330
20C
102
}
100
AcDbXrecord
 10
0.0
 20
0.0
 30
0.0
  0
XRECORD
  5
221
102
{ACAD_REACTORS
330
20C
102
}
100
AcDbXrecord
 10
0.0
 20
0.0
 30
0.0
  0
XRECORD
  5
21E
102
{ACAD_REACTORS
330
20C
102
}
100
AcDbXrecord
 10
0.0
 20
0.0
 30
0.0
  0
XRECORD
  5
21B
102
{ACAD_REACTORS
330
20C
102
}
100
AcDbXrecord
340
0
  0
XRECORD
  5
21C
102
{ACAD_REACTORS
330
20C
102
}
100
AcDbXrecord
 70
     0
  0
XRECORD
  5
210
102
{ACAD_REACTORS
330
20C
102
}
100
AcDbXrecord
  1

  0
XRECORD
  5
20D
102
{ACAD_REACTORS
330
20C
102
}
100
AcDbXrecord
 90
        1
  0
XRECORD
  5
20E
102
{ACAD_REACTORS
330
20C
102
}
100
AcDbXrecord
 90
       70
  0
XRECORD
  5
226
102
{ACAD_REACTORS
330
20C
102
}
100
AcDbXrecord
340
0
  0
XRECORD
  5
22C
102
{ACAD_REACTORS
330
20C
102
}
100
AcDbXrecord
 10
0.0
 20
0.0
 30
0.0
  0
XRECORD
  5
228
102
{ACAD_REACTORS
330
20C
102
}
100
AcDbXrecord
 10
0.0
 20
0.0
 30
0.0
  0
XRECORD
  5
22B
102
{ACAD_REACTORS
330
20C
102
}
100
AcDbXrecord
 10
0.0
 20
0.0
 30
0.0
  0
XRECORD
  5
229
102
{ACAD_REACTORS
330
20C
102
}
100
AcDbXrecord
 10
0.0
 20
0.0
 30
0.0
  0
XRECORD
  5
22A
102
{ACAD_REACTORS
330
20C
102
}
100
AcDbXrecord
 10
0.0
 20
0.0
 30
0.0
  0
XRECORD
  5
227
102
{ACAD_REACTORS
330
20C
102
}
100
AcDbXrecord
 10
0.0
 20
0.0
 30
0.0
  0
XRECORD
  5
224
102
{ACAD_REACTORS
330
20C
102
}
100
AcDbXrecord
340
0
  0
XRECORD
  5
225
102
{ACAD_REACTORS
330
20C
102
}
100
AcDbXrecord
 70
     0
  0
XRECORD
  5
218
102
{ACAD_REACTORS
330
20C
102
}
100
AcDbXrecord
  1
{FB7CF2F2-0185-497A-BBB4-1F7BEB107C2F}
  0
DICTIONARYVAR
  5
236
102
{ACAD_REACTORS
330
235
102
}
100
DictionaryVariables
280
     0
  1
1
  0
XRECORD
  5
230
102
{ACAD_REACTORS
330
22F
102
}
100
AcDbXrecord
102
EXTNAMES
  1
MODEL
  2
Model
  0
XRECORD
  5
22E
102
{ACAD_REACTORS
330
22D
102
}
100
AcDbXrecord
102
EXTNAMES
  1
STANDARD
  2
Standard
  0
ENDSEC
  0
EOF
