  0
SECTION
  2
HEADER
  9
$ACADVER
  1
AC1014
  9
$ACADMAINTVER
 70
     0
  9
$DWGCODEPAGE
  3
ANSI_932
  9
$INSBASE
 10
0.0
 20
0.0
 30
0.0
  9
$EXTMIN
 10
89.818956
 20
58.869387
 30
0.0
  9
$EXTMAX
 10
214.038296
 20
129.415244
 30
0.0
  9
$LIMMIN
 10
0.0
 20
0.0
  9
$LIMMAX
 10
297.0
 20
210.0
  9
$ORTHOMODE
 70
     0
  9
$REGENMODE
 70
     1
  9
$FILLMODE
 70
     1
  9
$QTEXTMODE
 70
     0
  9
$MIRRTEXT
 70
     1
  9
$DRAGMODE
 70
     2
  9
$LTSCALE
 40
0.25
  9
$OSMODE
 70
    37
  9
$ATTMODE
 70
     1
  9
$TEXTSIZE
 40
4.0
  9
$TRACEWID
 40
1.0
  9
$TEXTSTYLE
  7
STANDARD
  9
$CLAYER
  8
0
  9
$CELTYPE
  6
BYLAYER
  9
$CECOLOR
 62
   256
  9
$CELTSCALE
 40
1.0
  9
$DELOBJ
 70
     1
  9
$DISPSILH
 70
     0
  9
$DIMSCALE
 40
1.0
  9
$DIMASZ
 40
3.0
  9
$DIMEXO
 40
1.0
  9
$DIMDLI
 40
10.0
  9
$DIMRND
 40
0.0
  9
$DIMDLE
 40
0.0
  9
$DIMEXE
 40
1.0
  9
$DIMTP
 40
0.0
  9
$DIMTM
 40
0.0
  9
$DIMTXT
 40
3.2
  9
$DIMCEN
 40
0.0
  9
$DIMTSZ
 40
0.0
  9
$DIMTOL
 70
     0
  9
$DIMLIM
 70
     0
  9
$DIMTIH
 70
     0
  9
$DIMTOH
 70
     0
  9
$DIMSE1
 70
     0
  9
$DIMSE2
 70
     0
  9
$DIMTAD
 70
     1
  9
$DIMZIN
 70
     8
  9
$DIMBLK
  1
ARROW
  9
$DIMASO
 70
     1
  9
$DIMSHO
 70
     1
  9
$DIMPOST
  1

  9
$DIMAPOST
  1

  9
$DIMALT
 70
     0
  9
$DIMALTD
 70
     2
  9
$DIMALTF
 40
0.04
  9
$DIMLFAC
 40
1.0
  9
$DIMTOFL
 70
     1
  9
$DIMTVP
 40
1.0
  9
$DIMTIX
 70
     0
  9
$DIMSOXD
 70
     0
  9
$DIMSAH
 70
     0
  9
$DIMBLK1
  1

  9
$DIMBLK2
  1

  9
$DIMSTYLE
  2
AA1
  9
$DIMCLRD
 70
     0
  9
$DIMCLRE
 70
     0
  9
$DIMCLRT
 70
     0
  9
$DIMTFAC
 40
0.6
  9
$DIMGAP
 40
0.0
  9
$DIMJUST
 70
     0
  9
$DIMSD1
 70
     0
  9
$DIMSD2
 70
     0
  9
$DIMTOLJ
 70
     1
  9
$DIMTZIN
 70
     0
  9
$DIMALTZ
 70
     0
  9
$DIMALTTZ
 70
     0
  9
$DIMFIT
 70
     3
  9
$DIMUPT
 70
     0
  9
$DIMUNIT
 70
     2
  9
$DIMDEC
 70
     4
  9
$DIMTDEC
 70
     4
  9
$DIMALTU
 70
     2
  9
$DIMALTTD
 70
     2
  9
$DIMTXSTY
  7
STANDARD
  9
$DIMAUNIT
 70
     0
  9
$LUNITS
 70
     2
  9
$LUPREC
 70
     2
  9
$SKETCHINC
 40
1.0
  9
$FILLETRAD
 40
10.0
  9
$AUNITS
 70
     0
  9
$AUPREC
 70
     0
  9
$MENU
  1
acad
  9
$ELEVATION
 40
0.0
  9
$PELEVATION
 40
0.0
  9
$THICKNESS
 40
0.0
  9
$LIMCHECK
 70
     0
  9
$BLIPMODE
 70
     0
  9
$CHAMFERA
 40
0.0
  9
$CHAMFERB
 40
0.0
  9
$CHAMFERC
 40
0.0
  9
$CHAMFERD
 40
0.0
  9
$SKPOLY
 70
     0
  9
$TDCREATE
 40
2451466.523511111
  9
$TDUPDATE
 40
2452821.773434838
  9
$TDINDWG
 40
0.0001990741
  9
$TDUSRTIMER
 40
0.0001990741
  9
$USRTIMER
 70
     1
  9
$ANGBASE
 50
0.0
  9
$ANGDIR
 70
     0
  9
$PDMODE
 70
     1
  9
$PDSIZE
 40
0.0
  9
$PLINEWID
 40
0.0
  9
$COORDS
 70
     1
  9
$SPLFRAME
 70
     0
  9
$SPLINETYPE
 70
     6
  9
$SPLINESEGS
 70
     8
  9
$ATTDIA
 70
     0
  9
$ATTREQ
 70
     1
  9
$HANDLING
 70
     1
  9
$HANDSEED
  5
22E
  9
$SURFTAB1
 70
     6
  9
$SURFTAB2
 70
     6
  9
$SURFTYPE
 70
     6
  9
$SURFU
 70
     6
  9
$SURFV
 70
     6
  9
$UCSNAME
  2

  9
$UCSORG
 10
0.0
 20
0.0
 30
0.0
  9
$UCSXDIR
 10
1.0
 20
0.0
 30
0.0
  9
$UCSYDIR
 10
0.0
 20
1.0
 30
0.0
  9
$PUCSNAME
  2

  9
$PUCSORG
 10
0.0
 20
0.0
 30
0.0
  9
$PUCSXDIR
 10
1.0
 20
0.0
 30
0.0
  9
$PUCSYDIR
 10
0.0
 20
1.0
 30
0.0
  9
$USERI1
 70
     0
  9
$USERI2
 70
     0
  9
$USERI3
 70
     0
  9
$USERI4
 70
     0
  9
$USERI5
 70
     0
  9
$USERR1
 40
0.0
  9
$USERR2
 40
0.0
  9
$USERR3
 40
0.0
  9
$USERR4
 40
0.0
  9
$USERR5
 40
0.0
  9
$WORLDVIEW
 70
     1
  9
$SHADEDGE
 70
     3
  9
$SHADEDIF
 70
    70
  9
$TILEMODE
 70
     1
  9
$MAXACTVP
 70
    16
  9
$PINSBASE
 10
0.0
 20
0.0
 30
0.0
  9
$PLIMCHECK
 70
     0
  9
$PEXTMIN
 10
1.000000E+20
 20
1.000000E+20
 30
1.000000E+20
  9
$PEXTMAX
 10
-1.000000E+20
 20
-1.000000E+20
 30
-1.000000E+20
  9
$PLIMMIN
 10
0.0
 20
0.0
  9
$PLIMMAX
 10
420.0
 20
297.0
  9
$UNITMODE
 70
     0
  9
$VISRETAIN
 70
     0
  9
$PLINEGEN
 70
     0
  9
$PSLTSCALE
 70
     0
  9
$TREEDEPTH
 70
  3020
  9
$PICKSTYLE
 70
     1
  9
$CMLSTYLE
  2
STANDARD
  9
$CMLJUST
 70
     0
  9
$CMLSCALE
 40
1.0
  9
$PROXYGRAPHICS
 70
     1
  9
$MEASUREMENT
 70
     0
  0
ENDSEC
  0
SECTION
  2
CLASSES
  0
CLASS
  1
ACDBDICTIONARYWDFLT
  2
AcDbDictionaryWithDefault
  3
AutoCAD 2000
 90
        0
280
     0
281
     0
  0
CLASS
  1
ACDBPLACEHOLDER
  2
AcDbPlaceHolder
  3
AutoCAD 2000
 90
        0
280
     0
281
     0
  0
CLASS
  1
LAYOUT
  2
AcDbLayout
  3
AutoCAD 2000
 90
        0
280
     0
281
     0
  0
CLASS
  1
DICTIONARYVAR
  2
AcDbDictionaryVar
  3
"AutoCAD"
 90
        0
280
     0
281
     0
  0
CLASS
  1
LONG_TRANSACTION
  2
AcDbLongTransaction
  3
AutoCAD 2000
 90
        0
280
     0
281
     0
  0
CLASS
  1
LWPOLYLINE
  2
AcDbPolyline
  3
"AutoCAD"
 90
        0
280
     0
281
     1
  0
CLASS
  1
HATCH
  2
AcDbHatch
  3
"ACAD_SEDONA"
 90
        0
280
     0
281
     1
  0
CLASS
  1
XRECORD
  2
AcDbXrecord
  3
"<Built In>"
 90
        0
280
     0
281
     0
  0
ENDSEC
  0
SECTION
  2
TABLES
  0
TABLE
  2
VPORT
  5
FB
100
AcDbSymbolTable
 70
     1
  0
VPORT
  5
1F5
102
{ACAD_XDICTIONARY
360
1FE
102
}
100
AcDbSymbolTableRecord
100
AcDbViewportTableRecord
  2
*ACTIVE
 70
     0
 10
0.0
 20
0.0
 11
1.0
 21
1.0
 12
148.500001
 22
153.221306
 13
0.0
 23
0.0
 14
10.0
 24
10.0
 15
0.0
 25
0.0
 16
0.0
 26
0.0
 36
1.0
 17
0.0
 27
0.0
 37
0.0
 40
337.317527
 41
1.570997
 42
50.0
 43
0.0
 44
0.0
 50
0.0
 51
0.0
 71
     0
 72
   100
 73
     1
 74
     0
 75
     0
 76
     0
 77
     0
 78
     1
  0
ENDTAB
  0
TABLE
  2
LTYPE
  5
F8
100
AcDbSymbolTable
 70
     2
  0
LTYPE
  5
106
102
{ACAD_XDICTIONARY
360
1FA
102
}
100
AcDbSymbolTableRecord
100
AcDbLinetypeTableRecord
  2
BYBLOCK
 70
     0
  3

 72
    65
 73
     0
 40
0.0
  0
LTYPE
  5
107
102
{ACAD_XDICTIONARY
360
1FC
102
}
100
AcDbSymbolTableRecord
100
AcDbLinetypeTableRecord
  2
BYLAYER
 70
     0
  3

 72
    65
 73
     0
 40
0.0
  0
LTYPE
  5
108
100
AcDbSymbolTableRecord
100
AcDbLinetypeTableRecord
  2
CONTINUOUS
 70
     0
  3
Solid line
 72
    65
 73
     0
 40
0.0
  0
LTYPE
  5
116
100
AcDbSymbolTableRecord
100
AcDbLinetypeTableRecord
  2
CENTER
 70
     0
  3
____ _ ____ _ ____ _ ____ _ ____ _ ____ _ ____ 
 72
    65
 73
     4
 40
50.8
 49
31.75
 74
     0
 49
-6.35
 74
     0
 49
6.35
 74
     0
 49
-6.35
 74
     0
  0
ENDTAB
  0
TABLE
  2
LAYER
  5
F5
100
AcDbSymbolTable
 70
     3
  0
LAYER
  5
103
100
AcDbSymbolTableRecord
100
AcDbLayerTableRecord
  2
0
 70
     0
 62
     7
  6
CONTINUOUS
  0
LAYER
  5
117
100
AcDbSymbolTableRecord
100
AcDbLayerTableRecord
  2
DIMENSION
 70
     0
 62
    -4
  6
CONTINUOUS
  0
LAYER
  5
118
100
AcDbSymbolTableRecord
100
AcDbLayerTableRecord
  2
CENTER
 70
     0
 62
     1
  6
CENTER
  0
ENDTAB
  0
TABLE
  2
STYLE
  5
F6
100
AcDbSymbolTable
 70
     1
  0
STYLE
  5
104
100
AcDbSymbolTableRecord
100
AcDbTextStyleTableRecord
  2
STANDARD
 70
     0
 40
0.0
 41
1.0
 50
0.0
 71
     0
 42
4.0
  3
txt
  4

  0
ENDTAB
  0
TABLE
  2
VIEW
  5
F9
100
AcDbSymbolTable
 70
     0
  0
ENDTAB
  0
TABLE
  2
UCS
  5
FA
100
AcDbSymbolTable
 70
     0
  0
ENDTAB
  0
TABLE
  2
APPID
  5
FC
100
AcDbSymbolTable
 70
     1
  0
APPID
  5
105
100
AcDbSymbolTableRecord
100
AcDbRegAppTableRecord
  2
ACAD
 70
     0
  0
ENDTAB
  0
TABLE
  2
DIMSTYLE
  5
FD
100
AcDbSymbolTable
 70
     1
  0
DIMSTYLE
105
119
102
{ACAD_XDICTIONARY
360
227
102
}
100
AcDbSymbolTableRecord
100
AcDbDimStyleTableRecord
  2
AA1
 70
     0
  3

  4

  5

  6

  7

 40
1.0
 41
3.0
 42
1.0
 43
10.0
 44
1.0
 45
0.0
 46
0.0
 47
0.0
 48
0.0
140
3.2
141
0.0
142
0.0
143
0.04
144
1.0
145
1.0
146
0.6
147
0.0
 71
     0
 72
     0
 73
     0
 74
     0
 75
     0
 76
     0
 77
     0
 78
     8
170
     0
171
     2
172
     1
173
     0
174
     0
175
     0
176
     0
177
     0
178
     0
270
     2
271
     2
272
     2
273
     2
274
     2
340
104
275
     0
280
     0
281
     0
282
     0
283
     1
284
     8
285
     8
286
     8
287
     5
288
     0
  0
ENDTAB
  0
TABLE
  2
BLOCK_RECORD
  5
F4
100
AcDbSymbolTable
 70
     3
  0
BLOCK_RECORD
  5
111
102
{ACAD_XDICTIONARY
360
1F6
102
}
100
AcDbSymbolTableRecord
100
AcDbBlockTableRecord
  2
*MODEL_SPACE
  0
BLOCK_RECORD
  5
10D
102
{ACAD_XDICTIONARY
360
1F8
102
}
100
AcDbSymbolTableRecord
100
AcDbBlockTableRecord
  2
*PAPER_SPACE
  0
BLOCK_RECORD
  5
11B
100
AcDbSymbolTableRecord
100
AcDbBlockTableRecord
  2
$MODEL_SPACE
  0
BLOCK_RECORD
  5
11E
100
AcDbSymbolTableRecord
100
AcDbBlockTableRecord
  2
$PAPER_SPACE
  0
BLOCK_RECORD
  5
121
100
AcDbSymbolTableRecord
100
AcDbBlockTableRecord
  2
ARROW
  0
ENDTAB
  0
ENDSEC
  0
SECTION
  2
BLOCKS
  0
BLOCK
  5
112
100
AcDbEntity
  8
0
100
AcDbBlockBegin
  2
*MODEL_SPACE
 70
     0
 10
0.0
 20
0.0
 30
0.0
  3
*MODEL_SPACE
  1

  0
ENDBLK
  5
113
100
AcDbEntity
  8
0
100
AcDbBlockEnd
  0
BLOCK
  5
10E
100
AcDbEntity
 67
     1
  8
0
100
AcDbBlockBegin
  2
*PAPER_SPACE
 70
     0
 10
0.0
 20
0.0
 30
0.0
  3
*PAPER_SPACE
  1

  0
ENDBLK
  5
10F
100
AcDbEntity
 67
     1
  8
0
100
AcDbBlockEnd
  0
BLOCK
  5
11C
100
AcDbEntity
  8
0
100
AcDbBlockBegin
  2
$MODEL_SPACE
 70
     0
 10
0.0
 20
0.0
 30
0.0
  3
$MODEL_SPACE
  1

  0
ENDBLK
  5
11D
100
AcDbEntity
  8
0
100
AcDbBlockEnd
  0
BLOCK
  5
11F
100
AcDbEntity
  8
0
100
AcDbBlockBegin
  2
$PAPER_SPACE
 70
     0
 10
0.0
 20
0.0
 30
0.0
  3
$PAPER_SPACE
  1

  0
ENDBLK
  5
120
100
AcDbEntity
  8
0
100
AcDbBlockEnd
  0
BLOCK
  5
122
100
AcDbEntity
  8
0
100
AcDbBlockBegin
  2
ARROW
 70
     0
 10
0.0
 20
0.0
 30
0.0
  3
ARROW
  1

  0
LINE
  5
123
100
AcDbEntity
  8
DIMENSION
100
AcDbLine
 10
0.0
 20
0.0
 30
0.0
 11
-1.0
 21
0.176327
 31
0.0
  0
LINE
  5
124
100
AcDbEntity
  8
DIMENSION
100
AcDbLine
 10
0.0
 20
0.0
 30
0.0
 11
-1.0
 21
-0.176327
 31
0.0
  0
LINE
  5
125
100
AcDbEntity
  8
DIMENSION
100
AcDbLine
 10
-1.0
 20
0.0
 30
0.0
 11
0.0
 21
0.0
 31
0.0
  0
ENDBLK
  5
126
100
AcDbEntity
  8
0
100
AcDbBlockEnd
  0
ENDSEC
  0
SECTION
  2
ENTITIES
  0
LINE
  5
127
100
AcDbEntity
  8
CENTER
  6
CENTER
 62
     1
100
AcDbLine
 10
143.492439
 20
94.142316
 30
0.0
 11
214.038296
 21
94.142316
 31
0.0
  0
LINE
  5
128
100
AcDbEntity
  8
0
100
AcDbLine
 10
103.168956
 20
77.292316
 30
0.0
 11
103.168956
 21
110.992316
 31
0.0
  0
LINE
  5
129
100
AcDbEntity
  8
0
100
AcDbLine
 10
101.385956
 20
106.575326
 30
0.0
 11
101.385956
 21
104.192306
 31
0.0
  0
LINE
  5
12A
100
AcDbEntity
  8
0
100
AcDbLine
 10
101.185956
 20
106.492346
 30
0.0
 11
101.185956
 21
104.192306
 31
0.0
  0
LINE
  5
12B
100
AcDbEntity
  8
0
100
AcDbLine
 10
93.451956
 20
106.492346
 30
0.0
 11
93.451956
 21
104.192306
 31
0.0
  0
LINE
  5
12C
100
AcDbEntity
  8
0
100
AcDbLine
 10
93.251956
 20
106.575326
 30
0.0
 11
93.251956
 21
104.192306
 31
0.0
  0
CIRCLE
  5
12D
100
AcDbEntity
  8
0
100
AcDbCircle
 10
97.318956
 20
105.892316
 30
0.0
 40
2.38125
  0
LINE
  5
12E
100
AcDbEntity
  8
0
100
AcDbLine
 10
92.818956
 20
78.742316
 30
0.0
 11
92.818956
 21
109.542316
 31
0.0
  0
LINE
  5
12F
100
AcDbEntity
  8
0
100
AcDbLine
 10
101.818956
 20
77.292316
 30
0.0
 11
101.818956
 21
110.992316
 31
0.0
  0
LINE
  5
130
100
AcDbEntity
  8
0
100
AcDbLine
 10
104.818956
 20
124.142316
 30
0.0
 11
104.818956
 21
64.142316
 31
0.0
  0
LINE
  5
131
100
AcDbEntity
  8
0
100
AcDbLine
 10
90.818956
 20
124.142316
 30
0.0
 11
90.818956
 21
64.142316
 31
0.0
  0
LINE
  5
134
100
AcDbEntity
  8
CENTER
  6
CENTER
 62
     1
100
AcDbLine
 10
105.818956
 20
94.142316
 30
0.0
 11
89.818956
 21
94.142316
 31
0.0
  0
LINE
  5
135
100
AcDbEntity
  8
CENTER
  6
CENTER
 62
     1
100
AcDbLine
 10
105.818956
 20
70.142316
 30
0.0
 11
89.818956
 21
70.142316
 31
0.0
  0
LINE
  5
136
100
AcDbEntity
  8
0
100
AcDbLine
 10
104.818956
 20
64.142316
 30
0.0
 11
90.818956
 21
64.142316
 31
0.0
  0
LINE
  5
137
100
AcDbEntity
  8
0
100
AcDbLine
 10
104.818956
 20
65.392316
 30
0.0
 11
99.418956
 21
65.392316
 31
0.0
  0
LINE
  5
138
100
AcDbEntity
  8
0
100
AcDbLine
 10
104.818956
 20
74.892316
 30
0.0
 11
99.418956
 21
74.892316
 31
0.0
  0
LINE
  5
139
100
AcDbEntity
  8
0
100
AcDbLine
 10
103.168956
 20
80.792316
 30
0.0
 11
101.818956
 21
80.792316
 31
0.0
  0
LINE
  5
13A
100
AcDbEntity
  8
0
100
AcDbLine
 10
103.168956
 20
77.292316
 30
0.0
 11
101.818956
 21
77.292316
 31
0.0
  0
LINE
  5
13B
100
AcDbEntity
  8
0
100
AcDbLine
 10
99.418956
 20
65.392316
 30
0.0
 11
99.418956
 21
74.892316
 31
0.0
  0
LINE
  5
13C
100
AcDbEntity
  8
0
 62
     3
100
AcDbLine
 10
99.418956
 20
67.142316
 30
0.0
 11
90.818956
 21
67.142316
 31
0.0
  0
LINE
  5
13D
100
AcDbEntity
  8
0
100
AcDbLine
 10
99.418956
 20
67.542316
 30
0.0
 11
90.818956
 21
67.542316
 31
0.0
  0
LINE
  5
13E
100
AcDbEntity
  8
0
100
AcDbLine
 10
100.952936
 20
80.449356
 30
0.0
 11
101.105946
 21
80.321366
 31
0.0
  0
ARC
  5
13F
100
AcDbEntity
  8
0
100
AcDbCircle
 10
101.105715
 20
80.320877
 30
0.0
 40
0.2
100
AcDbArc
 50
320.000221
 51
50.084823
  0
LINE
  5
140
100
AcDbEntity
  8
0
100
AcDbLine
 10
100.48064
 20
80.061549
 30
0.0
 11
100.415985
 21
80.801046
 31
0.0
  0
LINE
  5
141
100
AcDbEntity
  8
0
100
AcDbLine
 10
94.157272
 20
80.061549
 30
0.0
 11
94.221927
 21
80.801046
 31
0.0
  0
ARC
  5
142
100
AcDbEntity
  8
0
100
AcDbCircle
 10
93.532197
 20
80.320877
 30
0.0
 40
0.2
100
AcDbArc
 50
129.915177
 51
219.999779
  0
LINE
  5
143
100
AcDbEntity
  8
0
100
AcDbLine
 10
93.684976
 20
80.449356
 30
0.0
 11
93.531966
 21
80.321366
 31
0.0
  0
CIRCLE
  5
144
100
AcDbEntity
  8
0
100
AcDbCircle
 10
97.318956
 20
82.392316
 30
0.0
 40
2.38125
  0
LINE
  5
145
100
AcDbEntity
  8
0
100
AcDbLine
 10
93.958768
 20
80.082351
 30
0.0
 11
94.001962
 21
80.959299
 31
0.0
  0
LINE
  5
146
100
AcDbEntity
  8
0
100
AcDbLine
 10
100.679144
 20
80.082351
 30
0.0
 11
100.63595
 21
80.959299
 31
0.0
  0
LINE
  5
147
100
AcDbEntity
  8
0
100
AcDbLine
 10
99.418956
 20
72.742316
 30
0.0
 11
90.818956
 21
72.742316
 31
0.0
  0
LINE
  5
148
100
AcDbEntity
  8
0
 62
     3
100
AcDbLine
 10
99.418956
 20
73.142316
 30
0.0
 11
90.818956
 21
73.142316
 31
0.0
  0
LINE
  5
149
100
AcDbEntity
  8
0
100
AcDbLine
 10
97.318956
 20
78.142316
 30
0.0
 11
93.418956
 21
78.142316
 31
0.0
  0
ARC
  5
14A
100
AcDbEntity
  8
0
100
AcDbCircle
 10
93.418956
 20
78.742316
 30
0.0
 40
0.6
100
AcDbArc
 50
180.0
 51
270.0
  0
LINE
  5
14B
100
AcDbEntity
  8
0
100
AcDbLine
 10
93.378988
 20
80.19232
 30
0.0
 11
93.628598
 21
79.894844
 31
0.0
  0
LINE
  5
14C
100
AcDbEntity
  8
0
100
AcDbLine
 10
92.818956
 20
80.142316
 30
0.0
 11
90.818956
 21
80.142316
 31
0.0
  0
ARC
  5
14D
100
AcDbEntity
  8
0
100
AcDbCircle
 10
92.918956
 20
80.092336
 30
0.0
 40
0.1
100
AcDbArc
 50
90.0
 51
180.0
  0
LINE
  5
14E
100
AcDbEntity
  8
0
100
AcDbLine
 10
92.918956
 20
80.192336
 30
0.0
 11
93.378956
 21
80.192336
 31
0.0
  0
ARC
  5
14F
100
AcDbEntity
  8
0
100
AcDbCircle
 10
93.858889
 20
80.087271
 30
0.0
 40
0.1
100
AcDbArc
 50
219.996695
 51
357.180182
  0
ARC
  5
150
100
AcDbEntity
  8
0
100
AcDbCircle
 10
93.858412
 20
80.087679
 30
0.0
 40
0.3
100
AcDbArc
 50
219.999779
 51
355.003239
  0
LINE
  5
151
100
AcDbEntity
  8
0
100
AcDbLine
 10
93.531966
 20
80.321346
 30
0.0
 11
93.782281
 21
80.022997
 31
0.0
  0
LINE
  5
152
100
AcDbEntity
  8
0
100
AcDbLine
 10
101.818956
 20
78.142316
 30
0.0
 11
97.318956
 21
78.142316
 31
0.0
  0
LINE
  5
153
100
AcDbEntity
  8
0
100
AcDbLine
 10
101.718956
 20
80.192336
 30
0.0
 11
101.258956
 21
80.192336
 31
0.0
  0
LINE
  5
154
100
AcDbEntity
  8
0
100
AcDbLine
 10
101.258924
 20
80.19232
 30
0.0
 11
101.009314
 21
79.894844
 31
0.0
  0
LINE
  5
155
100
AcDbEntity
  8
0
100
AcDbLine
 10
101.105946
 20
80.321346
 30
0.0
 11
100.855631
 21
80.022997
 31
0.0
  0
ARC
  5
156
100
AcDbEntity
  8
0
100
AcDbCircle
 10
101.718956
 20
80.092336
 30
0.0
 40
0.1
100
AcDbArc
 50
0.0
 51
90.0
  0
ARC
  5
157
100
AcDbEntity
  8
0
100
AcDbCircle
 10
101.218956
 20
78.742316
 30
0.0
 40
0.6
100
AcDbArc
 50
270.0
 51
0.0
  0
ARC
  5
158
100
AcDbEntity
  8
0
100
AcDbCircle
 10
100.7795
 20
80.087679
 30
0.0
 40
0.3
100
AcDbArc
 50
184.996761
 51
320.000221
  0
ARC
  5
159
100
AcDbEntity
  8
0
100
AcDbCircle
 10
100.779022
 20
80.087271
 30
0.0
 40
0.1
100
AcDbArc
 50
182.819818
 51
320.003305
  0
LINE
  5
15A
100
AcDbEntity
  8
0
100
AcDbLine
 10
93.418956
 20
86.642316
 30
0.0
 11
101.218956
 21
86.642316
 31
0.0
  0
LINE
  5
15B
100
AcDbEntity
  8
0
100
AcDbLine
 10
94.000811
 20
84.760746
 30
0.0
 11
94.269125
 21
84.023885
 31
0.0
  0
ARC
  5
15C
100
AcDbEntity
  8
0
100
AcDbCircle
 10
93.018956
 20
84.692336
 30
0.0
 40
0.2
100
AcDbArc
 50
180.0
 51
270.0
  0
ARC
  5
15D
100
AcDbEntity
  8
0
100
AcDbCircle
 10
93.451956
 20
84.092326
 30
0.0
 40
0.2
100
AcDbArc
 50
90.0
 51
180.0
  0
LINE
  5
15E
100
AcDbEntity
  8
0
100
AcDbLine
 10
94.001962
 20
80.959299
 30
0.0
 11
93.251956
 21
81.709306
 31
0.0
  0
LINE
  5
15F
100
AcDbEntity
  8
0
100
AcDbLine
 10
93.251956
 20
81.709306
 30
0.0
 11
93.251956
 21
84.092326
 31
0.0
  0
ARC
  5
160
100
AcDbEntity
  8
0
100
AcDbCircle
 10
94.457053
 20
84.092316
 30
0.0
 40
0.2
100
AcDbArc
 50
200.008105
 51
270.0
  0
LINE
  5
161
100
AcDbEntity
  8
0
100
AcDbLine
 10
93.901956
 20
84.292326
 30
0.0
 11
93.901956
 21
84.092326
 31
0.0
  0
LINE
  5
162
100
AcDbEntity
  8
0
100
AcDbLine
 10
93.451956
 20
84.292326
 30
0.0
 11
93.901956
 21
84.292326
 31
0.0
  0
LINE
  5
163
100
AcDbEntity
  8
0
100
AcDbLine
 10
93.901956
 20
84.092326
 30
0.0
 11
93.451956
 21
84.092326
 31
0.0
  0
LINE
  5
164
100
AcDbEntity
  8
0
100
AcDbLine
 10
94.201956
 20
81.042266
 30
0.0
 11
93.451956
 21
81.792286
 31
0.0
  0
LINE
  5
165
100
AcDbEntity
  8
0
100
AcDbLine
 10
93.451956
 20
81.792286
 30
0.0
 11
93.451956
 21
84.092326
 31
0.0
  0
LINE
  5
166
100
AcDbEntity
  8
0
100
AcDbLine
 10
94.457053
 20
83.892316
 30
0.0
 11
95.469536
 21
83.892316
 31
0.0
  0
LINE
  5
167
100
AcDbEntity
  8
0
100
AcDbLine
 10
94.321546
 20
80.892336
 30
0.0
 11
95.469536
 21
80.892346
 31
0.0
  0
LINE
  5
168
100
AcDbEntity
  8
0
100
AcDbLine
 10
93.556966
 20
80.602356
 30
0.0
 11
93.403866
 21
80.474276
 31
0.0
  0
LINE
  5
169
100
AcDbEntity
  8
0
100
AcDbLine
 10
93.556966
 20
80.602366
 30
0.0
 11
93.684976
 21
80.449366
 31
0.0
  0
LINE
  5
16A
100
AcDbEntity
  8
0
100
AcDbLine
 10
94.201956
 20
80.572326
 30
0.0
 11
94.201956
 21
81.042266
 31
0.0
  0
ARC
  5
16B
100
AcDbEntity
  8
0
100
AcDbCircle
 10
94.321547
 20
80.792336
 30
0.0
 40
0.1
100
AcDbArc
 50
90.000499
 51
175.003239
  0
LINE
  5
16C
100
AcDbEntity
  8
0
100
AcDbLine
 10
93.318941
 20
84.492336
 30
0.0
 11
93.594571
 21
84.820863
 31
0.0
  0
ARC
  5
16D
100
AcDbEntity
  8
0
100
AcDbCircle
 10
93.418956
 20
86.042316
 30
0.0
 40
0.6
100
AcDbArc
 50
90.0
 51
180.0
  0
LINE
  5
16E
100
AcDbEntity
  8
0
100
AcDbLine
 10
93.018956
 20
84.492336
 30
0.0
 11
93.318941
 21
84.492336
 31
0.0
  0
ARC
  5
16F
100
AcDbEntity
  8
0
100
AcDbCircle
 10
93.812882
 20
84.692316
 30
0.0
 40
0.2
100
AcDbArc
 50
20.008105
 51
90.0
  0
LINE
  5
170
100
AcDbEntity
  8
0
100
AcDbLine
 10
93.747788
 20
84.892316
 30
0.0
 11
93.812882
 21
84.892316
 31
0.0
  0
ARC
  5
171
100
AcDbEntity
  8
0
100
AcDbCircle
 10
93.747788
 20
84.692316
 30
0.0
 40
0.2
100
AcDbArc
 50
90.0
 51
140.003781
  0
ARC
  5
172
100
AcDbEntity
  8
0
100
AcDbCircle
 10
101.618956
 20
84.692336
 30
0.0
 40
0.2
100
AcDbArc
 50
270.0
 51
0.0
  0
LINE
  5
173
100
AcDbEntity
  8
0
100
AcDbLine
 10
100.637101
 20
84.760746
 30
0.0
 11
100.368787
 21
84.023885
 31
0.0
  0
LINE
  5
174
100
AcDbEntity
  8
0
100
AcDbLine
 10
100.180858
 20
83.892316
 30
0.0
 11
99.168376
 21
83.892316
 31
0.0
  0
LINE
  5
175
100
AcDbEntity
  8
0
100
AcDbLine
 10
100.316366
 20
80.892336
 30
0.0
 11
99.168376
 21
80.892346
 31
0.0
  0
ARC
  5
176
100
AcDbEntity
  8
0
100
AcDbCircle
 10
101.185956
 20
84.092326
 30
0.0
 40
0.2
100
AcDbArc
 50
0.0
 51
90.0
  0
LINE
  5
177
100
AcDbEntity
  8
0
100
AcDbLine
 10
101.185956
 20
81.792286
 30
0.0
 11
101.185956
 21
84.092326
 31
0.0
  0
LINE
  5
178
100
AcDbEntity
  8
0
100
AcDbLine
 10
101.385956
 20
81.709306
 30
0.0
 11
101.385956
 21
84.092326
 31
0.0
  0
LINE
  5
179
100
AcDbEntity
  8
0
100
AcDbLine
 10
100.735956
 20
84.292326
 30
0.0
 11
100.735956
 21
84.092326
 31
0.0
  0
ARC
  5
17A
100
AcDbEntity
  8
0
100
AcDbCircle
 10
100.180858
 20
84.092316
 30
0.0
 40
0.2
100
AcDbArc
 50
270.0
 51
339.991895
  0
LINE
  5
17B
100
AcDbEntity
  8
0
100
AcDbLine
 10
100.63595
 20
80.959299
 30
0.0
 11
101.385956
 21
81.709306
 31
0.0
  0
LINE
  5
17C
100
AcDbEntity
  8
0
100
AcDbLine
 10
100.435956
 20
81.042266
 30
0.0
 11
101.185956
 21
81.792286
 31
0.0
  0
LINE
  5
17D
100
AcDbEntity
  8
0
100
AcDbLine
 10
100.735956
 20
84.092326
 30
0.0
 11
101.185956
 21
84.092326
 31
0.0
  0
LINE
  5
17E
100
AcDbEntity
  8
0
100
AcDbLine
 10
101.185956
 20
84.292326
 30
0.0
 11
100.735956
 21
84.292326
 31
0.0
  0
LINE
  5
17F
100
AcDbEntity
  8
0
100
AcDbLine
 10
101.080946
 20
80.602366
 30
0.0
 11
100.952936
 21
80.449366
 31
0.0
  0
LINE
  5
180
100
AcDbEntity
  8
0
100
AcDbLine
 10
101.080946
 20
80.602356
 30
0.0
 11
101.234045
 21
80.474276
 31
0.0
  0
ARC
  5
181
100
AcDbEntity
  8
0
100
AcDbCircle
 10
100.316365
 20
80.792336
 30
0.0
 40
0.1
100
AcDbArc
 50
4.996761
 51
89.999501
  0
LINE
  5
182
100
AcDbEntity
  8
0
100
AcDbLine
 10
100.435956
 20
80.572326
 30
0.0
 11
100.435956
 21
81.042266
 31
0.0
  0
LINE
  5
183
100
AcDbEntity
  8
0
100
AcDbLine
 10
101.618956
 20
84.492336
 30
0.0
 11
101.318971
 21
84.492336
 31
0.0
  0
LINE
  5
184
100
AcDbEntity
  8
0
100
AcDbLine
 10
101.318971
 20
84.492336
 30
0.0
 11
101.043341
 21
84.820863
 31
0.0
  0
ARC
  5
185
100
AcDbEntity
  8
0
100
AcDbCircle
 10
100.890123
 20
84.692316
 30
0.0
 40
0.2
100
AcDbArc
 50
39.996219
 51
90.0
  0
LINE
  5
186
100
AcDbEntity
  8
0
100
AcDbLine
 10
100.890123
 20
84.892316
 30
0.0
 11
100.82503
 21
84.892316
 31
0.0
  0
ARC
  5
187
100
AcDbEntity
  8
0
100
AcDbCircle
 10
100.82503
 20
84.692316
 30
0.0
 40
0.2
100
AcDbArc
 50
90.0
 51
159.991895
  0
ARC
  5
188
100
AcDbEntity
  8
0
100
AcDbCircle
 10
101.218956
 20
86.042316
 30
0.0
 40
0.6
100
AcDbArc
 50
0.0
 51
90.0
  0
LINE
  5
189
100
AcDbEntity
  8
0
100
AcDbLine
 10
90.818956
 20
94.142316
 30
0.0
 11
90.819056
 21
94.142316
 31
0.0
  0
LINE
  5
18A
100
AcDbEntity
  8
0
100
AcDbLine
 10
93.418956
 20
101.642316
 30
0.0
 11
101.218956
 21
101.642316
 31
0.0
  0
ARC
  5
18B
100
AcDbEntity
  8
0
100
AcDbCircle
 10
93.418956
 20
102.242316
 30
0.0
 40
0.6
100
AcDbArc
 50
180.0
 51
270.0
  0
LINE
  5
18C
100
AcDbEntity
  8
0
100
AcDbLine
 10
93.318941
 20
103.792296
 30
0.0
 11
93.594571
 21
103.463768
 31
0.0
  0
ARC
  5
18D
100
AcDbEntity
  8
0
100
AcDbCircle
 10
93.451956
 20
104.192306
 30
0.0
 40
0.2
100
AcDbArc
 50
180.0
 51
270.0
  0
LINE
  5
18E
100
AcDbEntity
  8
0
100
AcDbLine
 10
93.018956
 20
103.792296
 30
0.0
 11
93.318941
 21
103.792296
 31
0.0
  0
ARC
  5
18F
100
AcDbEntity
  8
0
100
AcDbCircle
 10
93.018956
 20
103.592296
 30
0.0
 40
0.2
100
AcDbArc
 50
90.0
 51
180.0
  0
ARC
  5
190
100
AcDbEntity
  8
0
100
AcDbCircle
 10
94.457053
 20
104.192316
 30
0.0
 40
0.2
100
AcDbArc
 50
90.0
 51
159.991895
  0
LINE
  5
191
100
AcDbEntity
  8
0
100
AcDbLine
 10
93.901956
 20
104.192306
 30
0.0
 11
93.451956
 21
104.192306
 31
0.0
  0
LINE
  5
192
100
AcDbEntity
  8
0
100
AcDbLine
 10
94.457053
 20
104.392316
 30
0.0
 11
95.469536
 21
104.392316
 31
0.0
  0
LINE
  5
193
100
AcDbEntity
  8
0
100
AcDbLine
 10
93.747788
 20
103.392316
 30
0.0
 11
93.812882
 21
103.392316
 31
0.0
  0
ARC
  5
194
100
AcDbEntity
  8
0
100
AcDbCircle
 10
93.812882
 20
103.592316
 30
0.0
 40
0.2
100
AcDbArc
 50
270.0
 51
339.991895
  0
LINE
  5
195
100
AcDbEntity
  8
0
100
AcDbLine
 10
93.451956
 20
103.992306
 30
0.0
 11
93.901956
 21
103.992306
 31
0.0
  0
ARC
  5
196
100
AcDbEntity
  8
0
100
AcDbCircle
 10
93.747788
 20
103.592316
 30
0.0
 40
0.2
100
AcDbArc
 50
219.996219
 51
270.0
  0
LINE
  5
197
100
AcDbEntity
  8
0
100
AcDbLine
 10
93.901956
 20
103.992306
 30
0.0
 11
93.901956
 21
104.192306
 31
0.0
  0
LINE
  5
198
100
AcDbEntity
  8
0
100
AcDbLine
 10
94.000811
 20
103.523885
 30
0.0
 11
94.269125
 21
104.260746
 31
0.0
  0
LINE
  5
199
100
AcDbEntity
  8
0
100
AcDbLine
 10
100.180858
 20
104.392316
 30
0.0
 11
99.168376
 21
104.392316
 31
0.0
  0
ARC
  5
19A
100
AcDbEntity
  8
0
100
AcDbCircle
 10
100.180858
 20
104.192316
 30
0.0
 40
0.2
100
AcDbArc
 50
20.008105
 51
90.0
  0
LINE
  5
19B
100
AcDbEntity
  8
0
100
AcDbLine
 10
100.735956
 20
104.192306
 30
0.0
 11
101.185956
 21
104.192306
 31
0.0
  0
LINE
  5
19C
100
AcDbEntity
  8
0
100
AcDbLine
 10
100.890123
 20
103.392316
 30
0.0
 11
100.82503
 21
103.392316
 31
0.0
  0
ARC
  5
19D
100
AcDbEntity
  8
0
100
AcDbCircle
 10
100.890123
 20
103.592316
 30
0.0
 40
0.2
100
AcDbArc
 50
270.0
 51
320.003781
  0
LINE
  5
19E
100
AcDbEntity
  8
0
100
AcDbLine
 10
101.318971
 20
103.792296
 30
0.0
 11
101.043341
 21
103.463768
 31
0.0
  0
LINE
  5
19F
100
AcDbEntity
  8
0
100
AcDbLine
 10
101.618956
 20
103.792296
 30
0.0
 11
101.318971
 21
103.792296
 31
0.0
  0
ARC
  5
1A0
100
AcDbEntity
  8
0
100
AcDbCircle
 10
101.218956
 20
102.242316
 30
0.0
 40
0.6
100
AcDbArc
 50
270.0
 51
360.0
  0
ARC
  5
1A1
100
AcDbEntity
  8
0
100
AcDbCircle
 10
101.618956
 20
103.592296
 30
0.0
 40
0.2
100
AcDbArc
 50
0.0
 51
90.0
  0
ARC
  5
1A2
100
AcDbEntity
  8
0
100
AcDbCircle
 10
100.82503
 20
103.592316
 30
0.0
 40
0.2
100
AcDbArc
 50
200.008105
 51
270.0
  0
LINE
  5
1A3
100
AcDbEntity
  8
0
100
AcDbLine
 10
101.185956
 20
103.992306
 30
0.0
 11
100.735956
 21
103.992306
 31
0.0
  0
LINE
  5
1A4
100
AcDbEntity
  8
0
100
AcDbLine
 10
100.637101
 20
103.523885
 30
0.0
 11
100.368787
 21
104.260746
 31
0.0
  0
LINE
  5
1A5
100
AcDbEntity
  8
0
100
AcDbLine
 10
100.735956
 20
103.992306
 30
0.0
 11
100.735956
 21
104.192306
 31
0.0
  0
ARC
  5
1A6
100
AcDbEntity
  8
0
100
AcDbCircle
 10
101.185956
 20
104.192306
 30
0.0
 40
0.2
100
AcDbArc
 50
270.0
 51
0.0
  0
LINE
  5
1A7
100
AcDbEntity
  8
0
100
AcDbLine
 10
104.818956
 20
78.142316
 30
0.0
 11
103.168956
 21
78.142316
 31
0.0
  0
LINE
  5
1A8
100
AcDbEntity
  8
CENTER
  6
CENTER
 62
     1
100
AcDbLine
 10
105.818956
 20
118.142316
 30
0.0
 11
89.818956
 21
118.142316
 31
0.0
  0
LINE
  5
1A9
100
AcDbEntity
  8
0
100
AcDbLine
 10
104.818956
 20
113.392316
 30
0.0
 11
99.418956
 21
113.392316
 31
0.0
  0
LINE
  5
1AA
100
AcDbEntity
  8
0
100
AcDbLine
 10
104.818956
 20
122.892316
 30
0.0
 11
99.418956
 21
122.892316
 31
0.0
  0
LINE
  5
1AB
100
AcDbEntity
  8
0
100
AcDbLine
 10
103.168956
 20
107.492316
 30
0.0
 11
101.818956
 21
107.492316
 31
0.0
  0
LINE
  5
1AC
100
AcDbEntity
  8
0
100
AcDbLine
 10
103.168956
 20
110.992316
 30
0.0
 11
101.818956
 21
110.992316
 31
0.0
  0
LINE
  5
1AD
100
AcDbEntity
  8
0
100
AcDbLine
 10
104.818956
 20
124.142316
 30
0.0
 11
90.818956
 21
124.142316
 31
0.0
  0
LINE
  5
1AE
100
AcDbEntity
  8
0
100
AcDbLine
 10
99.418956
 20
122.892316
 30
0.0
 11
99.418956
 21
113.392316
 31
0.0
  0
LINE
  5
1AF
100
AcDbEntity
  8
0
100
AcDbLine
 10
97.318956
 20
110.142316
 30
0.0
 11
93.418956
 21
110.142316
 31
0.0
  0
ARC
  5
1B0
100
AcDbEntity
  8
0
100
AcDbCircle
 10
93.532197
 20
107.963755
 30
0.0
 40
0.2
100
AcDbArc
 50
140.000221
 51
230.084823
  0
LINE
  5
1B1
100
AcDbEntity
  8
0
100
AcDbLine
 10
93.378988
 20
108.092311
 30
0.0
 11
93.628598
 21
108.389787
 31
0.0
  0
LINE
  5
1B2
100
AcDbEntity
  8
0
100
AcDbLine
 10
94.001962
 20
107.325332
 30
0.0
 11
93.251956
 21
106.575326
 31
0.0
  0
LINE
  5
1B3
100
AcDbEntity
  8
0
100
AcDbLine
 10
92.818956
 20
108.142316
 30
0.0
 11
90.818956
 21
108.142316
 31
0.0
  0
LINE
  5
1B4
100
AcDbEntity
  8
0
100
AcDbLine
 10
92.918956
 20
108.092296
 30
0.0
 11
93.378956
 21
108.092296
 31
0.0
  0
ARC
  5
1B5
100
AcDbEntity
  8
0
100
AcDbCircle
 10
92.918956
 20
108.192296
 30
0.0
 40
0.1
100
AcDbArc
 50
180.0
 51
270.0
  0
ARC
  5
1B6
100
AcDbEntity
  8
0
100
AcDbCircle
 10
94.321547
 20
107.492296
 30
0.0
 40
0.1
100
AcDbArc
 50
184.996761
 51
269.999501
  0
LINE
  5
1B7
100
AcDbEntity
  8
0
100
AcDbLine
 10
93.958768
 20
108.20228
 30
0.0
 11
94.001962
 21
107.325332
 31
0.0
  0
LINE
  5
1B8
100
AcDbEntity
  8
0
100
AcDbLine
 10
94.201956
 20
107.712306
 30
0.0
 11
94.201956
 21
107.242366
 31
0.0
  0
ARC
  5
1B9
100
AcDbEntity
  8
0
100
AcDbCircle
 10
93.858412
 20
108.196952
 30
0.0
 40
0.3
100
AcDbArc
 50
4.996761
 51
140.000221
  0
ARC
  5
1BA
100
AcDbEntity
  8
0
100
AcDbCircle
 10
93.858889
 20
108.19736
 30
0.0
 40
0.1
100
AcDbArc
 50
2.819818
 51
140.003305
  0
LINE
  5
1BB
100
AcDbEntity
  8
0
100
AcDbLine
 10
94.157272
 20
108.223082
 30
0.0
 11
94.221927
 21
107.483586
 31
0.0
  0
LINE
  5
1BC
100
AcDbEntity
  8
0
100
AcDbLine
 10
93.556966
 20
107.682276
 30
0.0
 11
93.403866
 21
107.810356
 31
0.0
  0
LINE
  5
1BD
100
AcDbEntity
  8
0
100
AcDbLine
 10
93.684976
 20
107.835276
 30
0.0
 11
93.531966
 21
107.963266
 31
0.0
  0
LINE
  5
1BE
100
AcDbEntity
  8
0
100
AcDbLine
 10
93.556966
 20
107.682266
 30
0.0
 11
93.684976
 21
107.835266
 31
0.0
  0
LINE
  5
1BF
100
AcDbEntity
  8
0
100
AcDbLine
 10
93.531966
 20
107.963286
 30
0.0
 11
93.782281
 21
108.261635
 31
0.0
  0
LINE
  5
1C0
100
AcDbEntity
  8
0
100
AcDbLine
 10
94.201956
 20
107.242366
 30
0.0
 11
93.451956
 21
106.492346
 31
0.0
  0
LINE
  5
1C1
100
AcDbEntity
  8
0
100
AcDbLine
 10
94.321546
 20
107.392296
 30
0.0
 11
95.469536
 21
107.392286
 31
0.0
  0
ARC
  5
1C2
100
AcDbEntity
  8
0
100
AcDbCircle
 10
93.418956
 20
109.542316
 30
0.0
 40
0.6
100
AcDbArc
 50
90.0
 51
180.0
  0
LINE
  5
1C3
100
AcDbEntity
  8
0
100
AcDbLine
 10
90.818956
 20
109.142316
 30
0.0
 11
90.818956
 21
109.142416
 31
0.0
  0
LINE
  5
1C4
100
AcDbEntity
  8
0
100
AcDbLine
 10
100.316366
 20
107.392296
 30
0.0
 11
99.168376
 21
107.392286
 31
0.0
  0
LINE
  5
1C5
100
AcDbEntity
  8
0
100
AcDbLine
 10
101.105946
 20
107.963286
 30
0.0
 11
100.855631
 21
108.261635
 31
0.0
  0
ARC
  5
1C6
100
AcDbEntity
  8
0
100
AcDbCircle
 10
101.105715
 20
107.963755
 30
0.0
 40
0.2
100
AcDbArc
 50
309.915177
 51
39.999779
  0
LINE
  5
1C7
100
AcDbEntity
  8
0
100
AcDbLine
 10
101.080946
 20
107.682276
 30
0.0
 11
101.234045
 21
107.810356
 31
0.0
  0
LINE
  5
1C8
100
AcDbEntity
  8
0
100
AcDbLine
 10
101.258924
 20
108.092311
 30
0.0
 11
101.009314
 21
108.389787
 31
0.0
  0
LINE
  5
1C9
100
AcDbEntity
  8
0
100
AcDbLine
 10
101.080946
 20
107.682266
 30
0.0
 11
100.952936
 21
107.835266
 31
0.0
  0
LINE
  5
1CA
100
AcDbEntity
  8
0
100
AcDbLine
 10
100.952936
 20
107.835276
 30
0.0
 11
101.105946
 21
107.963266
 31
0.0
  0
LINE
  5
1CB
100
AcDbEntity
  8
0
100
AcDbLine
 10
101.718956
 20
108.092296
 30
0.0
 11
101.258956
 21
108.092296
 31
0.0
  0
ARC
  5
1CC
100
AcDbEntity
  8
0
100
AcDbCircle
 10
101.718956
 20
108.192296
 30
0.0
 40
0.1
100
AcDbArc
 50
270.0
 51
0.0
  0
LINE
  5
1CD
100
AcDbEntity
  8
0
100
AcDbLine
 10
100.435956
 20
107.712306
 30
0.0
 11
100.435956
 21
107.242366
 31
0.0
  0
LINE
  5
1CE
100
AcDbEntity
  8
0
100
AcDbLine
 10
100.679144
 20
108.20228
 30
0.0
 11
100.63595
 21
107.325332
 31
0.0
  0
ARC
  5
1CF
100
AcDbEntity
  8
0
100
AcDbCircle
 10
100.316365
 20
107.492296
 30
0.0
 40
0.1
100
AcDbArc
 50
270.000499
 51
355.003239
  0
LINE
  5
1D0
100
AcDbEntity
  8
0
100
AcDbLine
 10
100.48064
 20
108.223082
 30
0.0
 11
100.415985
 21
107.483586
 31
0.0
  0
ARC
  5
1D1
100
AcDbEntity
  8
0
100
AcDbCircle
 10
100.779022
 20
108.19736
 30
0.0
 40
0.1
100
AcDbArc
 50
39.996695
 51
177.180182
  0
ARC
  5
1D2
100
AcDbEntity
  8
0
100
AcDbCircle
 10
100.7795
 20
108.196952
 30
0.0
 40
0.3
100
AcDbArc
 50
39.999779
 51
175.003239
  0
LINE
  5
1D3
100
AcDbEntity
  8
0
100
AcDbLine
 10
100.435956
 20
107.242366
 30
0.0
 11
101.185956
 21
106.492346
 31
0.0
  0
LINE
  5
1D4
100
AcDbEntity
  8
0
100
AcDbLine
 10
100.63595
 20
107.325332
 30
0.0
 11
101.385956
 21
106.575326
 31
0.0
  0
LINE
  5
1D5
100
AcDbEntity
  8
0
100
AcDbLine
 10
101.818956
 20
110.142316
 30
0.0
 11
97.318956
 21
110.142316
 31
0.0
  0
ARC
  5
1D6
100
AcDbEntity
  8
0
100
AcDbCircle
 10
101.218956
 20
109.542316
 30
0.0
 40
0.6
100
AcDbArc
 50
360.0
 51
90.0
  0
LINE
  5
1D7
100
AcDbEntity
  8
0
100
AcDbLine
 10
99.418956
 20
120.742316
 30
0.0
 11
90.818956
 21
120.742316
 31
0.0
  0
LINE
  5
1D8
100
AcDbEntity
  8
0
 62
     3
100
AcDbLine
 10
99.418956
 20
121.142316
 30
0.0
 11
90.818956
 21
121.142316
 31
0.0
  0
LINE
  5
1D9
100
AcDbEntity
  8
0
 62
     3
100
AcDbLine
 10
99.418956
 20
115.142316
 30
0.0
 11
90.818956
 21
115.142316
 31
0.0
  0
LINE
  5
1DA
100
AcDbEntity
  8
0
100
AcDbLine
 10
99.418956
 20
115.542316
 30
0.0
 11
90.818956
 21
115.542316
 31
0.0
  0
LINE
  5
1DB
100
AcDbEntity
  8
0
100
AcDbLine
 10
104.818956
 20
110.142316
 30
0.0
 11
103.168956
 21
110.142316
 31
0.0
  0
LINE
  5
1DC
100
AcDbEntity
  8
CENTER
  6
CENTER
 62
     1
100
AcDbLine
 10
178.765368
 20
58.869387
 30
0.0
 11
178.765368
 21
129.415244
 31
0.0
  0
CIRCLE
  5
1DD
100
AcDbEntity
  8
CENTER
  6
CENTER
 62
     1
100
AcDbCircle
 10
178.765368
 20
94.142316
 30
0.0
 40
24.0
  0
LINE
  5
1DE
100
AcDbEntity
  8
0
100
AcDbLine
 10
181.408985
 20
124.02561
 30
0.0
 11
208.648662
 21
96.785933
 31
0.0
  0
LINE
  5
1DF
100
AcDbEntity
  8
0
100
AcDbLine
 10
148.882073
 20
96.785933
 30
0.0
 11
176.12175
 21
124.02561
 31
0.0
  0
CIRCLE
  5
1E0
100
AcDbEntity
  8
0
100
AcDbCircle
 10
178.765368
 20
94.142316
 30
0.0
 40
16.0
  0
LINE
  5
1E1
100
AcDbEntity
  8
0
100
AcDbLine
 10
181.408985
 20
64.259021
 30
0.0
 11
208.648662
 21
91.498698
 31
0.0
  0
LINE
  5
1E2
100
AcDbEntity
  8
0
100
AcDbLine
 10
148.882073
 20
91.498698
 30
0.0
 11
176.12175
 21
64.259021
 31
0.0
  0
CIRCLE
  5
1E3
100
AcDbEntity
  8
0
100
AcDbCircle
 10
178.765368
 20
70.142316
 30
0.0
 40
2.6
  0
CIRCLE
  5
1E4
100
AcDbEntity
  8
0
 62
     3
100
AcDbCircle
 10
178.765368
 20
70.142316
 30
0.0
 40
3.0
  0
CIRCLE
  5
1E5
100
AcDbEntity
  8
0
100
AcDbCircle
 10
178.765368
 20
70.142316
 30
0.0
 40
4.75
  0
ARC
  5
1E6
100
AcDbEntity
  8
0
100
AcDbCircle
 10
178.765368
 20
94.142316
 30
0.0
 40
30.0
100
AcDbArc
 50
264.944505
 51
275.055495
  0
CIRCLE
  5
1E7
100
AcDbEntity
  8
0
100
AcDbCircle
 10
178.765368
 20
94.142316
 30
0.0
 40
7.5
  0
CIRCLE
  5
1E8
100
AcDbEntity
  8
0
 62
     3
100
AcDbCircle
 10
154.765368
 20
94.142316
 30
0.0
 40
3.0
  0
CIRCLE
  5
1E9
100
AcDbEntity
  8
0
100
AcDbCircle
 10
154.765368
 20
94.142316
 30
0.0
 40
4.75
  0
CIRCLE
  5
1EA
100
AcDbEntity
  8
0
100
AcDbCircle
 10
154.765368
 20
94.142316
 30
0.0
 40
2.6
  0
ARC
  5
1EB
100
AcDbEntity
  8
0
100
AcDbCircle
 10
178.765368
 20
94.142316
 30
0.0
 40
30.0
100
AcDbArc
 50
174.944505
 51
185.055495
  0
CIRCLE
  5
1EC
100
AcDbEntity
  8
0
100
AcDbCircle
 10
202.765368
 20
94.142316
 30
0.0
 40
4.75
  0
CIRCLE
  5
1ED
100
AcDbEntity
  8
0
 62
     3
100
AcDbCircle
 10
202.765368
 20
94.142316
 30
0.0
 40
3.0
  0
CIRCLE
  5
1EE
100
AcDbEntity
  8
0
100
AcDbCircle
 10
202.765368
 20
94.142316
 30
0.0
 40
2.6
  0
ARC
  5
1EF
100
AcDbEntity
  8
0
100
AcDbCircle
 10
178.765368
 20
94.142316
 30
0.0
 40
30.0
100
AcDbArc
 50
354.944505
 51
5.055495
  0
CIRCLE
  5
1F0
100
AcDbEntity
  8
0
100
AcDbCircle
 10
178.765368
 20
118.142316
 30
0.0
 40
4.75
  0
CIRCLE
  5
1F1
100
AcDbEntity
  8
0
100
AcDbCircle
 10
178.765368
 20
118.142316
 30
0.0
 40
2.6
  0
CIRCLE
  5
1F2
100
AcDbEntity
  8
0
 62
     3
100
AcDbCircle
 10
178.765368
 20
118.142316
 30
0.0
 40
3.0
  0
ARC
  5
1F3
100
AcDbEntity
  8
0
100
AcDbCircle
 10
178.765368
 20
94.142316
 30
0.0
 40
30.0
100
AcDbArc
 50
84.944505
 51
95.055495
  0
ENDSEC
  0
SECTION
  2
OBJECTS
  0
DICTIONARY
  5
FF
100
AcDbDictionary
  3
ACAD_GROUP
350
100
  3
ACAD_LAYOUT
350
10C
  3
ACAD_MLINESTYLE
350
109
  3
ACAD_PLOTSETTINGS
350
10B
  3
ACAD_PLOTSTYLENAME
350
101
  3
ACDBHEADERROUNDTRIPXREC
350
200
  3
AcDbVariableDictionary
350
229
  0
DICTIONARY
  5
1FE
100
AcDbDictionary
280
     1
  3
ACAD_XREC_ROUNDTRIP
360
1FF
  0
DICTIONARY
  5
1FA
100
AcDbDictionary
280
     1
  3
ACAD_XREC_ROUNDTRIP
360
1FB
  0
DICTIONARY
  5
1FC
100
AcDbDictionary
280
     1
  3
ACAD_XREC_ROUNDTRIP
360
1FD
  0
DICTIONARY
  5
227
100
AcDbDictionary
280
     1
  3
ACAD_XREC_ROUNDTRIP
360
228
  0
DICTIONARY
  5
1F6
100
AcDbDictionary
280
     1
  3
ACAD_LAYOUTSELFREF
360
226
  3
ACAD_XREC_ROUNDTRIP
360
1F7
  0
DICTIONARY
  5
1F8
100
AcDbDictionary
280
     1
  3
ACAD_LAYOUTSELFREF
360
225
  3
ACAD_XREC_ROUNDTRIP
360
1F9
  0
DICTIONARY
  5
100
102
{ACAD_REACTORS
330
FF
102
}
100
AcDbDictionary
  0
DICTIONARY
  5
10C
102
{ACAD_XDICTIONARY
360
223
102
}
102
{ACAD_REACTORS
330
FF
102
}
100
AcDbDictionary
  3
MODEL
350
114
  3
ﾚｲｱｳﾄ1
350
110
  0
DICTIONARY
  5
109
102
{ACAD_XDICTIONARY
360
221
102
}
102
{ACAD_REACTORS
330
FF
102
}
100
AcDbDictionary
  3
STANDARD
350
10A
  0
DICTIONARY
  5
10B
102
{ACAD_REACTORS
330
FF
102
}
100
AcDbDictionary
  0
ACAD_PROXY_OBJECT
  5
101
102
{ACAD_REACTORS
330
FF
102
}
100
AcDbProxyObject
 90
      499
 91
      500
 93
       86
310
405010041939BDC9B585B0
350
102
340
102
 94
        0
  0
DICTIONARY
  5
200
102
{ACAD_REACTORS
330
FF
102
}
100
AcDbDictionary
  3
CEPSNTYPE
350
20A
  3
DIMSTYLEDATA
350
20E
  3
FINGERPRINTGUID
350
20B
  3
HYPERLINKBASE
350
203
  3
INSUNITS
350
209
  3
LAYOUTDICT
350
205
  3
LWETCUNION
350
208
  3
PLOTSETDICT
350
206
  3
PLOTSTYLNAMDICT
350
207
  3
PSVPSCALE
350
20D
  3
PUCSBASE
350
211
  3
PUCSORGBACK
350
217
  3
PUCSORGBOTTOM
350
213
  3
PUCSORGFRONT
350
216
  3
PUCSORGLEFT
350
214
  3
PUCSORGRIGHT
350
215
  3
PUCSORGTOP
350
212
  3
PUCSORTHOREF
350
20F
  3
PUCSORTHOVIEW
350
210
  3
STYLESHEET
350
204
  3
TSTACKALIGN
350
201
  3
TSTACKSIZE
350
202
  3
UCSBASE
350
21A
  3
UCSORGBACK
350
220
  3
UCSORGBOTTOM
350
21C
  3
UCSORGFRONT
350
21F
  3
UCSORGLEFT
350
21D
  3
UCSORGRIGHT
350
21E
  3
UCSORGTOP
350
21B
  3
UCSORTHOREF
350
218
  3
UCSORTHOVIEW
350
219
  3
VERSIONGUID
350
20C
  0
DICTIONARY
  5
229
102
{ACAD_REACTORS
330
FF
102
}
100
AcDbDictionary
  3
DIMASSOC
350
22A
  0
XRECORD
  5
1FF
102
{ACAD_REACTORS
330
1FE
102
}
100
AcDbXrecord
102
EXTNAMES
  1
*ACTIVE
  2
*Active
102
UCS
 74
     0
 71
     0
 10
0.0
 20
0.0
 30
0.0
 10
1.0
 20
0.0
 30
0.0
 10
0.0
 20
1.0
 30
0.0
146
0.0
 79
     0
102
VIEW
281
     0
  0
XRECORD
  5
1FB
102
{ACAD_REACTORS
330
1FA
102
}
100
AcDbXrecord
102
EXTNAMES
  1
BYBLOCK
  2
ByBlock
  0
XRECORD
  5
1FD
102
{ACAD_REACTORS
330
1FC
102
}
100
AcDbXrecord
102
EXTNAMES
  1
BYLAYER
  2
ByLayer
  0
XRECORD
  5
228
102
{ACAD_REACTORS
330
227
102
}
100
AcDbXrecord
102
ACADR14ROUNDTRIP
1000
DSTYLE
1002
{
1070
   279
 70
     2
1002
}
  0
XRECORD
  5
226
102
{ACAD_REACTORS
330
1F6
102
}
100
AcDbXrecord
340
111
  0
XRECORD
  5
1F7
102
{ACAD_REACTORS
330
1F6
102
}
100
AcDbXrecord
102
EXTNAMES
  1
*MODEL_SPACE
  2
*Model_Space
  0
XRECORD
  5
225
102
{ACAD_REACTORS
330
1F8
102
}
100
AcDbXrecord
340
10D
  0
XRECORD
  5
1F9
102
{ACAD_REACTORS
330
1F8
102
}
100
AcDbXrecord
102
EXTNAMES
  1
*PAPER_SPACE
  2
*Paper_Space
  0
DICTIONARY
  5
223
100
AcDbDictionary
280
     1
  3
ACAD_XREC_ROUNDTRIP
360
224
  0
ACAD_PROXY_OBJECT
  5
114
102
{ACAD_REACTORS
330
10C
102
}
100
AcDbProxyObject
 90
      499
 91
      502
 93
      836
310
932433A5C50524F4752414D2046494C45535C4D4454365C706C6F74746572735C526F6C616E64204458592D313235302E7063332C01AAAAAAAAA5A69054D6F64656C901A800000000000000000000000000000000000000000000A1000000000000008902A6A6AAAA9
330
111
330
0
340
0
340
0
 94
        0
  0
ACAD_PROXY_OBJECT
  5
110
102
{ACAD_REACTORS
330
10C
102
}
100
AcDbProxyObject
 90
      499
 91
      502
 93
     1244
310
932433A5C50524F4752414D2046494C45535C4D4454365C706C6F74746572735C526F6C616E64204458592D313235302E7063332C00AAAAAA416AA59106906DAB2B1B3C431406A800000000000000000000000000000000000000000101E900000000000241C902A6A6A10232D5E076BC5510408CB5781DAF154410232D5E0
310
76BC5510408CB5781DAF15C410232D5E076BC5710408CB5781DAF15C42
330
10D
330
0
340
0
340
0
 94
        0
  0
DICTIONARY
  5
221
100
AcDbDictionary
280
     1
  3
ACAD_XREC_ROUNDTRIP
360
222
  0
MLINESTYLE
  5
10A
102
{ACAD_REACTORS
330
109
102
}
100
AcDbMlineStyle
  2
STANDARD
 70
     0
  3

 62
   256
 51
90.0
 52
90.0
 71
     2
 49
0.5
 62
   256
  6
BYLAYER
 49
-0.5
 62
   256
  6
BYLAYER
  0
ACAD_PROXY_OBJECT
  5
102
102
{ACAD_REACTORS
330
101
102
}
100
AcDbProxyObject
 90
      499
 91
      501
 93
        0
 94
        0
  0
XRECORD
  5
20A
102
{ACAD_REACTORS
330
200
102
}
100
AcDbXrecord
 90
        0
  0
XRECORD
  5
20E
102
{ACAD_REACTORS
330
200
102
}
100
AcDbXrecord
1000
DSTYLE
1002
{
1070
   341
340
121
1070
   342
340
121
1002
}
  0
XRECORD
  5
20B
102
{ACAD_REACTORS
330
200
102
}
100
AcDbXrecord
  1
{60D1E67A-7312-4C91-A5AB-DEBC846ED9A3}
  0
XRECORD
  5
203
102
{ACAD_REACTORS
330
200
102
}
100
AcDbXrecord
  1

  0
XRECORD
  5
209
102
{ACAD_REACTORS
330
200
102
}
100
AcDbXrecord
 90
        0
  0
XRECORD
  5
205
102
{ACAD_REACTORS
330
200
102
}
100
AcDbXrecord
340
10C
  0
XRECORD
  5
208
102
{ACAD_REACTORS
330
200
102
}
100
AcDbXrecord
 90
    10781
  0
XRECORD
  5
206
102
{ACAD_REACTORS
330
200
102
}
100
AcDbXrecord
340
10B
  0
XRECORD
  5
207
102
{ACAD_REACTORS
330
200
102
}
100
AcDbXrecord
340
101
  0
XRECORD
  5
20D
102
{ACAD_REACTORS
330
200
102
}
100
AcDbXrecord
 40
0.0
  0
XRECORD
  5
211
102
{ACAD_REACTORS
330
200
102
}
100
AcDbXrecord
340
0
  0
XRECORD
  5
217
102
{ACAD_REACTORS
330
200
102
}
100
AcDbXrecord
 10
0.0
 20
0.0
 30
0.0
  0
XRECORD
  5
213
102
{ACAD_REACTORS
330
200
102
}
100
AcDbXrecord
 10
0.0
 20
0.0
 30
0.0
  0
XRECORD
  5
216
102
{ACAD_REACTORS
330
200
102
}
100
AcDbXrecord
 10
0.0
 20
0.0
 30
0.0
  0
XRECORD
  5
214
102
{ACAD_REACTORS
330
200
102
}
100
AcDbXrecord
 10
0.0
 20
0.0
 30
0.0
  0
XRECORD
  5
215
102
{ACAD_REACTORS
330
200
102
}
100
AcDbXrecord
 10
0.0
 20
0.0
 30
0.0
  0
XRECORD
  5
212
102
{ACAD_REACTORS
330
200
102
}
100
AcDbXrecord
 10
0.0
 20
0.0
 30
0.0
  0
XRECORD
  5
20F
102
{ACAD_REACTORS
330
200
102
}
100
AcDbXrecord
340
0
  0
XRECORD
  5
210
102
{ACAD_REACTORS
330
200
102
}
100
AcDbXrecord
 70
     0
  0
XRECORD
  5
204
102
{ACAD_REACTORS
330
200
102
}
100
AcDbXrecord
  1

  0
XRECORD
  5
201
102
{ACAD_REACTORS
330
200
102
}
100
AcDbXrecord
 90
        1
  0
XRECORD
  5
202
102
{ACAD_REACTORS
330
200
102
}
100
AcDbXrecord
 90
       70
  0
XRECORD
  5
21A
102
{ACAD_REACTORS
330
200
102
}
100
AcDbXrecord
340
0
  0
XRECORD
  5
220
102
{ACAD_REACTORS
330
200
102
}
100
AcDbXrecord
 10
0.0
 20
0.0
 30
0.0
  0
XRECORD
  5
21C
102
{ACAD_REACTORS
330
200
102
}
100
AcDbXrecord
 10
0.0
 20
0.0
 30
0.0
  0
XRECORD
  5
21F
102
{ACAD_REACTORS
330
200
102
}
100
AcDbXrecord
 10
0.0
 20
0.0
 30
0.0
  0
XRECORD
  5
21D
102
{ACAD_REACTORS
330
200
102
}
100
AcDbXrecord
 10
0.0
 20
0.0
 30
0.0
  0
XRECORD
  5
21E
102
{ACAD_REACTORS
330
200
102
}
100
AcDbXrecord
 10
0.0
 20
0.0
 30
0.0
  0
XRECORD
  5
21B
102
{ACAD_REACTORS
330
200
102
}
100
AcDbXrecord
 10
0.0
 20
0.0
 30
0.0
  0
XRECORD
  5
218
102
{ACAD_REACTORS
330
200
102
}
100
AcDbXrecord
340
0
  0
XRECORD
  5
219
102
{ACAD_REACTORS
330
200
102
}
100
AcDbXrecord
 70
     0
  0
XRECORD
  5
20C
102
{ACAD_REACTORS
330
200
102
}
100
AcDbXrecord
  1
{52F46046-2B03-4F7D-A2B1-D7D8481804E7}
  0
DICTIONARYVAR
  5
22A
102
{ACAD_REACTORS
330
229
102
}
100
DictionaryVariables
280
     0
  1
1
  0
XRECORD
  5
224
102
{ACAD_REACTORS
330
223
102
}
100
AcDbXrecord
102
EXTNAMES
  1
MODEL
  2
Model
  0
XRECORD
  5
222
102
{ACAD_REACTORS
330
221
102
}
100
AcDbXrecord
102
EXTNAMES
  1
STANDARD
  2
Standard
  0
ENDSEC
  0
EOF
