  0
SECTION
  2
HEADER
  9
$ACADVER
  1
AC1014
  9
$ACADMAINTVER
 70
     0
  9
$DWGCODEPAGE
  3
ANSI_932
  9
$INSBASE
 10
0.0
 20
0.0
 30
0.0
  9
$EXTMIN
 10
43.329161
 20
28.047945
 30
0.0
  9
$EXTMAX
 10
121.649306
 20
72.636986
 30
0.0
  9
$LIMMIN
 10
0.0
 20
0.0
  9
$LIMMAX
 10
148.5
 20
105.0
  9
$ORTHOMODE
 70
     0
  9
$REGENMODE
 70
     1
  9
$FILLMODE
 70
     1
  9
$QTEXTMODE
 70
     0
  9
$MIRRTEXT
 70
     1
  9
$DRAGMODE
 70
     2
  9
$LTSCALE
 40
0.25
  9
$OSMODE
 70
    37
  9
$ATTMODE
 70
     1
  9
$TEXTSIZE
 40
3.2
  9
$TRACEWID
 40
0.05
  9
$TEXTSTYLE
  7
STANDARD
  9
$CLAYER
  8
0
  9
$CELTYPE
  6
BYLAYER
  9
$CECOLOR
 62
   256
  9
$CELTSCALE
 40
1.0
  9
$DELOBJ
 70
     1
  9
$DISPSILH
 70
     0
  9
$DIMSCALE
 40
0.5
  9
$DIMASZ
 40
3.0
  9
$DIMEXO
 40
1.0
  9
$DIMDLI
 40
0.0
  9
$DIMRND
 40
0.0
  9
$DIMDLE
 40
0.0
  9
$DIMEXE
 40
1.0
  9
$DIMTP
 40
0.0
  9
$DIMTM
 40
0.0
  9
$DIMTXT
 40
3.2
  9
$DIMCEN
 40
0.0
  9
$DIMTSZ
 40
0.0
  9
$DIMTOL
 70
     0
  9
$DIMLIM
 70
     0
  9
$DIMTIH
 70
     0
  9
$DIMTOH
 70
     0
  9
$DIMSE1
 70
     0
  9
$DIMSE2
 70
     0
  9
$DIMTAD
 70
     1
  9
$DIMZIN
 70
     8
  9
$DIMBLK
  1

  9
$DIMASO
 70
     1
  9
$DIMSHO
 70
     1
  9
$DIMPOST
  1

  9
$DIMAPOST
  1

  9
$DIMALT
 70
     0
  9
$DIMALTD
 70
     2
  9
$DIMALTF
 40
0.04
  9
$DIMLFAC
 40
1.0
  9
$DIMTOFL
 70
     1
  9
$DIMTVP
 40
1.0
  9
$DIMTIX
 70
     1
  9
$DIMSOXD
 70
     0
  9
$DIMSAH
 70
     1
  9
$DIMBLK1
  1
ARROW
  9
$DIMBLK2
  1
ARROW
  9
$DIMSTYLE
  2
AA1
  9
$DIMCLRD
 70
     0
  9
$DIMCLRE
 70
     0
  9
$DIMCLRT
 70
     0
  9
$DIMTFAC
 40
0.6
  9
$DIMGAP
 40
1.0
  9
$DIMJUST
 70
     0
  9
$DIMSD1
 70
     0
  9
$DIMSD2
 70
     0
  9
$DIMTOLJ
 70
     1
  9
$DIMTZIN
 70
     0
  9
$DIMALTZ
 70
     0
  9
$DIMALTTZ
 70
     0
  9
$DIMFIT
 70
     3
  9
$DIMUPT
 70
     0
  9
$DIMUNIT
 70
     2
  9
$DIMDEC
 70
     4
  9
$DIMTDEC
 70
     4
  9
$DIMALTU
 70
     2
  9
$DIMALTTD
 70
     2
  9
$DIMTXSTY
  7
STANDARD
  9
$DIMAUNIT
 70
     0
  9
$LUNITS
 70
     2
  9
$LUPREC
 70
     4
  9
$SKETCHINC
 40
0.1
  9
$FILLETRAD
 40
10.0
  9
$AUNITS
 70
     0
  9
$AUPREC
 70
     0
  9
$MENU
  1
acad
  9
$ELEVATION
 40
0.0
  9
$PELEVATION
 40
0.0
  9
$THICKNESS
 40
0.0
  9
$LIMCHECK
 70
     0
  9
$BLIPMODE
 70
     0
  9
$CHAMFERA
 40
0.0
  9
$CHAMFERB
 40
0.0
  9
$CHAMFERC
 40
0.0
  9
$CHAMFERD
 40
0.0
  9
$SKPOLY
 70
     0
  9
$TDCREATE
 40
2451466.517098032
  9
$TDUPDATE
 40
2452821.771829629
  9
$TDINDWG
 40
0.0002122685
  9
$TDUSRTIMER
 40
0.0002122685
  9
$USRTIMER
 70
     1
  9
$ANGBASE
 50
0.0
  9
$ANGDIR
 70
     0
  9
$PDMODE
 70
     0
  9
$PDSIZE
 40
0.0
  9
$PLINEWID
 40
0.0
  9
$COORDS
 70
     1
  9
$SPLFRAME
 70
     0
  9
$SPLINETYPE
 70
     6
  9
$SPLINESEGS
 70
     8
  9
$ATTDIA
 70
     0
  9
$ATTREQ
 70
     1
  9
$HANDLING
 70
     1
  9
$HANDSEED
  5
234
  9
$SURFTAB1
 70
     6
  9
$SURFTAB2
 70
     6
  9
$SURFTYPE
 70
     6
  9
$SURFU
 70
     6
  9
$SURFV
 70
     6
  9
$UCSNAME
  2

  9
$UCSORG
 10
0.0
 20
0.0
 30
0.0
  9
$UCSXDIR
 10
1.0
 20
0.0
 30
0.0
  9
$UCSYDIR
 10
0.0
 20
1.0
 30
0.0
  9
$PUCSNAME
  2

  9
$PUCSORG
 10
0.0
 20
0.0
 30
0.0
  9
$PUCSXDIR
 10
1.0
 20
0.0
 30
0.0
  9
$PUCSYDIR
 10
0.0
 20
1.0
 30
0.0
  9
$USERI1
 70
     0
  9
$USERI2
 70
     0
  9
$USERI3
 70
     0
  9
$USERI4
 70
     0
  9
$USERI5
 70
     0
  9
$USERR1
 40
0.0
  9
$USERR2
 40
0.0
  9
$USERR3
 40
0.0
  9
$USERR4
 40
0.0
  9
$USERR5
 40
0.0
  9
$WORLDVIEW
 70
     1
  9
$SHADEDGE
 70
     3
  9
$SHADEDIF
 70
    70
  9
$TILEMODE
 70
     1
  9
$MAXACTVP
 70
    16
  9
$PINSBASE
 10
0.0
 20
0.0
 30
0.0
  9
$PLIMCHECK
 70
     0
  9
$PEXTMIN
 10
1.000000E+20
 20
1.000000E+20
 30
1.000000E+20
  9
$PEXTMAX
 10
-1.000000E+20
 20
-1.000000E+20
 30
-1.000000E+20
  9
$PLIMMIN
 10
0.0
 20
0.0
  9
$PLIMMAX
 10
12.0
 20
9.0
  9
$UNITMODE
 70
     0
  9
$VISRETAIN
 70
     0
  9
$PLINEGEN
 70
     0
  9
$PSLTSCALE
 70
     1
  9
$TREEDEPTH
 70
  3020
  9
$PICKSTYLE
 70
     1
  9
$CMLSTYLE
  2
STANDARD
  9
$CMLJUST
 70
     0
  9
$CMLSCALE
 40
1.0
  9
$PROXYGRAPHICS
 70
     1
  9
$MEASUREMENT
 70
     0
  0
ENDSEC
  0
SECTION
  2
CLASSES
  0
CLASS
  1
ACDBDICTIONARYWDFLT
  2
AcDbDictionaryWithDefault
  3
AutoCAD 2000
 90
        0
280
     0
281
     0
  0
CLASS
  1
ACDBPLACEHOLDER
  2
AcDbPlaceHolder
  3
AutoCAD 2000
 90
        0
280
     0
281
     0
  0
CLASS
  1
LAYOUT
  2
AcDbLayout
  3
AutoCAD 2000
 90
        0
280
     0
281
     0
  0
CLASS
  1
DICTIONARYVAR
  2
AcDbDictionaryVar
  3
"AutoCAD"
 90
        0
280
     0
281
     0
  0
CLASS
  1
LONG_TRANSACTION
  2
AcDbLongTransaction
  3
AutoCAD 2000
 90
        0
280
     0
281
     0
  0
CLASS
  1
LWPOLYLINE
  2
AcDbPolyline
  3
"AutoCAD"
 90
        0
280
     0
281
     1
  0
CLASS
  1
HATCH
  2
AcDbHatch
  3
"ACAD_SEDONA"
 90
        0
280
     0
281
     1
  0
CLASS
  1
XRECORD
  2
AcDbXrecord
  3
"<Built In>"
 90
        0
280
     0
281
     0
  0
ENDSEC
  0
SECTION
  2
TABLES
  0
TABLE
  2
VPORT
  5
FE
100
AcDbSymbolTable
 70
     1
  0
VPORT
  5
1FB
102
{ACAD_XDICTIONARY
360
204
102
}
100
AcDbSymbolTableRecord
100
AcDbViewportTableRecord
  2
*ACTIVE
 70
     0
 10
0.0
 20
0.0
 11
1.0
 21
1.0
 12
74.25
 22
78.858326
 13
0.0
 23
0.0
 14
10.0
 24
10.0
 15
10.0
 25
10.0
 16
0.0
 26
0.0
 36
1.0
 17
0.0
 27
0.0
 37
0.0
 40
173.15411
 41
1.530211
 42
50.0
 43
0.0
 44
0.0
 50
0.0
 51
0.0
 71
     0
 72
   100
 73
     1
 74
     0
 75
     0
 76
     0
 77
     0
 78
     0
  0
ENDTAB
  0
TABLE
  2
LTYPE
  5
FB
100
AcDbSymbolTable
 70
     2
  0
LTYPE
  5
109
102
{ACAD_XDICTIONARY
360
200
102
}
100
AcDbSymbolTableRecord
100
AcDbLinetypeTableRecord
  2
BYBLOCK
 70
     0
  3

 72
    65
 73
     0
 40
0.0
  0
LTYPE
  5
10A
102
{ACAD_XDICTIONARY
360
202
102
}
100
AcDbSymbolTableRecord
100
AcDbLinetypeTableRecord
  2
BYLAYER
 70
     0
  3

 72
    65
 73
     0
 40
0.0
  0
LTYPE
  5
10B
100
AcDbSymbolTableRecord
100
AcDbLinetypeTableRecord
  2
CONTINUOUS
 70
     0
  3
Solid line
 72
    65
 73
     0
 40
0.0
  0
LTYPE
  5
119
100
AcDbSymbolTableRecord
100
AcDbLinetypeTableRecord
  2
CENTER
 70
     0
  3
____ _ ____ _ ____ _ ____ _ ____ _ ____ _ ____
 72
    65
 73
     4
 40
17.5
 49
13.0
 74
     0
 49
-1.5
 74
     0
 49
1.5
 74
     0
 49
-1.5
 74
     0
  0
ENDTAB
  0
TABLE
  2
LAYER
  5
F8
100
AcDbSymbolTable
 70
     3
  0
LAYER
  5
106
100
AcDbSymbolTableRecord
100
AcDbLayerTableRecord
  2
0
 70
     0
 62
     7
  6
CONTINUOUS
  0
LAYER
  5
11A
100
AcDbSymbolTableRecord
100
AcDbLayerTableRecord
  2
DIMENSION
 70
     0
 62
    -4
  6
CONTINUOUS
  0
LAYER
  5
11B
100
AcDbSymbolTableRecord
100
AcDbLayerTableRecord
  2
CENTER
 70
     0
 62
     1
  6
CENTER
  0
ENDTAB
  0
TABLE
  2
STYLE
  5
F9
100
AcDbSymbolTable
 70
     1
  0
STYLE
  5
107
100
AcDbSymbolTableRecord
100
AcDbTextStyleTableRecord
  2
STANDARD
 70
     0
 40
0.0
 41
1.0
 50
0.0
 71
     0
 42
3.2
  3
txt
  4

  0
ENDTAB
  0
TABLE
  2
VIEW
  5
FC
100
AcDbSymbolTable
 70
     0
  0
ENDTAB
  0
TABLE
  2
UCS
  5
FD
100
AcDbSymbolTable
 70
     0
  0
ENDTAB
  0
TABLE
  2
APPID
  5
FF
100
AcDbSymbolTable
 70
     1
  0
APPID
  5
108
100
AcDbSymbolTableRecord
100
AcDbRegAppTableRecord
  2
ACAD
 70
     0
  0
ENDTAB
  0
TABLE
  2
DIMSTYLE
  5
100
100
AcDbSymbolTable
 70
     1
  0
DIMSTYLE
105
11C
102
{ACAD_XDICTIONARY
360
22D
102
}
100
AcDbSymbolTableRecord
100
AcDbDimStyleTableRecord
  2
AA1
 70
     0
  3

  4

  5

  6

  7

 40
0.5
 41
3.0
 42
1.0
 43
0.0
 44
1.0
 45
0.0
 46
0.0
 47
0.0
 48
0.0
140
3.2
141
0.0
142
0.0
143
0.04
144
1.0
145
1.0
146
0.6
147
1.0
 71
     0
 72
     0
 73
     0
 74
     0
 75
     0
 76
     0
 77
     3
 78
     8
170
     0
171
     2
172
     1
173
     1
174
     1
175
     0
176
     0
177
     0
178
     0
270
     2
271
     4
272
     4
273
     2
274
     2
340
107
275
     0
280
     0
281
     0
282
     0
283
     1
284
     8
285
     8
286
     8
287
     5
288
     0
  0
ENDTAB
  0
TABLE
  2
BLOCK_RECORD
  5
F7
100
AcDbSymbolTable
 70
     3
  0
BLOCK_RECORD
  5
114
102
{ACAD_XDICTIONARY
360
1FC
102
}
100
AcDbSymbolTableRecord
100
AcDbBlockTableRecord
  2
*MODEL_SPACE
  0
BLOCK_RECORD
  5
110
102
{ACAD_XDICTIONARY
360
1FE
102
}
100
AcDbSymbolTableRecord
100
AcDbBlockTableRecord
  2
*PAPER_SPACE
  0
BLOCK_RECORD
  5
11E
100
AcDbSymbolTableRecord
100
AcDbBlockTableRecord
  2
$MODEL_SPACE
  0
BLOCK_RECORD
  5
121
100
AcDbSymbolTableRecord
100
AcDbBlockTableRecord
  2
$PAPER_SPACE
  0
BLOCK_RECORD
  5
124
100
AcDbSymbolTableRecord
100
AcDbBlockTableRecord
  2
ARROW
  0
ENDTAB
  0
ENDSEC
  0
SECTION
  2
BLOCKS
  0
BLOCK
  5
115
100
AcDbEntity
  8
0
100
AcDbBlockBegin
  2
*MODEL_SPACE
 70
     0
 10
0.0
 20
0.0
 30
0.0
  3
*MODEL_SPACE
  1

  0
ENDBLK
  5
116
100
AcDbEntity
  8
0
100
AcDbBlockEnd
  0
BLOCK
  5
111
100
AcDbEntity
 67
     1
  8
0
100
AcDbBlockBegin
  2
*PAPER_SPACE
 70
     0
 10
0.0
 20
0.0
 30
0.0
  3
*PAPER_SPACE
  1

  0
ENDBLK
  5
112
100
AcDbEntity
 67
     1
  8
0
100
AcDbBlockEnd
  0
BLOCK
  5
11F
100
AcDbEntity
  8
0
100
AcDbBlockBegin
  2
$MODEL_SPACE
 70
     0
 10
0.0
 20
0.0
 30
0.0
  3
$MODEL_SPACE
  1

  0
ENDBLK
  5
120
100
AcDbEntity
  8
0
100
AcDbBlockEnd
  0
BLOCK
  5
122
100
AcDbEntity
  8
0
100
AcDbBlockBegin
  2
$PAPER_SPACE
 70
     0
 10
0.0
 20
0.0
 30
0.0
  3
$PAPER_SPACE
  1

  0
ENDBLK
  5
123
100
AcDbEntity
  8
0
100
AcDbBlockEnd
  0
BLOCK
  5
125
100
AcDbEntity
  8
0
100
AcDbBlockBegin
  2
ARROW
 70
     0
 10
0.0
 20
0.0
 30
0.0
  3
ARROW
  1
ARROW3
  0
LINE
  5
126
100
AcDbEntity
  8
DIMENSION
100
AcDbLine
 10
-0.999981
 20
0.000009
 30
0.0
 11
0.000019
 21
0.000009
 31
0.0
  0
LINE
  5
127
100
AcDbEntity
  8
DIMENSION
100
AcDbLine
 10
0.000019
 20
0.000009
 30
0.0
 11
-0.999981
 21
-0.176318
 31
0.0
  0
LINE
  5
128
100
AcDbEntity
  8
DIMENSION
100
AcDbLine
 10
0.000019
 20
0.000009
 30
0.0
 11
-0.999981
 21
0.176336
 31
0.0
  0
ENDBLK
  5
129
100
AcDbEntity
  8
0
100
AcDbBlockEnd
  0
ENDSEC
  0
SECTION
  2
ENTITIES
  0
ARC
  5
12A
100
AcDbEntity
  8
0
100
AcDbCircle
 10
52.476975
 20
52.677651
 30
0.0
 40
0.3
100
AcDbArc
 50
270.0
 51
0.0
  0
ARC
  5
12B
100
AcDbEntity
  8
0
100
AcDbCircle
 10
48.076975
 20
52.677651
 30
0.0
 40
0.3
100
AcDbArc
 50
180.0
 51
270.0
  0
LINE
  5
12C
100
AcDbEntity
  8
0
100
AcDbLine
 10
52.776975
 20
58.277651
 30
0.0
 11
52.776975
 21
49.877651
 31
0.0
  0
LINE
  5
12D
100
AcDbEntity
  8
0
100
AcDbLine
 10
47.776975
 20
57.577651
 30
0.0
 11
47.776975
 21
49.877651
 31
0.0
  0
LINE
  5
12E
100
AcDbEntity
  8
0
100
AcDbLine
 10
52.776975
 20
57.177651
 30
0.0
 11
52.776975
 21
41.477651
 31
0.0
  0
LINE
  5
12F
100
AcDbEntity
  8
0
100
AcDbLine
 10
53.936975
 20
41.477651
 30
0.0
 11
53.936975
 21
58.277651
 31
0.0
  0
LINE
  5
130
100
AcDbEntity
  8
0
100
AcDbLine
 10
55.776975
 20
68.877651
 30
0.0
 11
55.776975
 21
30.877651
 31
0.0
  0
LINE
  5
131
100
AcDbEntity
  8
0
100
AcDbLine
 10
45.776975
 20
30.877651
 30
0.0
 11
45.776975
 21
68.877651
 31
0.0
  0
LINE
  5
134
100
AcDbEntity
  8
CENTER
  6
CENTER
 62
     1
100
AcDbLine
 10
43.329161
 20
49.877651
 30
0.0
 11
58.107875
 21
49.877651
 31
0.0
  0
LINE
  5
135
100
AcDbEntity
  8
CENTER
  6
CENTER
 62
     1
100
AcDbLine
 10
43.329161
 20
35.877651
 30
0.0
 11
58.107875
 21
35.877651
 31
0.0
  0
LINE
  5
136
100
AcDbEntity
  8
0
100
AcDbLine
 10
45.776975
 20
38.027651
 30
0.0
 11
51.376975
 21
38.027651
 31
0.0
  0
LINE
  5
137
100
AcDbEntity
  8
0
100
AcDbLine
 10
45.776975
 20
33.727651
 30
0.0
 11
51.376975
 21
33.727651
 31
0.0
  0
LINE
  5
138
100
AcDbEntity
  8
0
100
AcDbLine
 10
52.476975
 20
52.377651
 30
0.0
 11
48.076975
 21
52.377651
 31
0.0
  0
CIRCLE
  5
139
100
AcDbEntity
  8
0
100
AcDbCircle
 10
50.276975
 20
44.627651
 30
0.0
 40
1.4
  0
LINE
  5
13A
100
AcDbEntity
  8
0
100
AcDbLine
 10
48.076975
 20
41.877651
 30
0.0
 11
52.476975
 21
41.877651
 31
0.0
  0
LINE
  5
13B
100
AcDbEntity
  8
0
100
AcDbLine
 10
52.476975
 20
47.377651
 30
0.0
 11
48.076975
 21
47.377651
 31
0.0
  0
LINE
  5
13C
100
AcDbEntity
  8
0
 62
     3
100
AcDbLine
 10
45.776975
 20
33.377651
 30
0.0
 11
51.376975
 21
33.377651
 31
0.0
  0
LINE
  5
13D
100
AcDbEntity
  8
0
 62
     3
100
AcDbLine
 10
45.776975
 20
38.377651
 30
0.0
 11
51.376975
 21
38.377651
 31
0.0
  0
LINE
  5
13E
100
AcDbEntity
  8
0
100
AcDbLine
 10
55.776975
 20
30.877651
 30
0.0
 11
45.776975
 21
30.877651
 31
0.0
  0
LINE
  5
13F
100
AcDbEntity
  8
0
100
AcDbLine
 10
48.216975
 20
43.823191
 30
0.0
 11
48.216975
 21
45.779871
 31
0.0
  0
LINE
  5
140
100
AcDbEntity
  8
0
100
AcDbLine
 10
48.314765
 20
45.779871
 30
0.0
 11
48.314765
 21
43.863691
 31
0.0
  0
LINE
  5
141
100
AcDbEntity
  8
0
100
AcDbLine
 10
47.776975
 20
42.177651
 30
0.0
 11
47.776975
 21
49.877651
 31
0.0
  0
ARC
  5
142
100
AcDbEntity
  8
0
100
AcDbCircle
 10
48.291075
 20
43.052441
 30
0.0
 40
0.21923
100
AcDbArc
 50
209.99973
 51
0.0
  0
LINE
  5
143
100
AcDbEntity
  8
0
100
AcDbLine
 10
48.141885
 20
43.260071
 30
0.0
 11
48.190765
 21
43.175391
 31
0.0
  0
LINE
  5
144
100
AcDbEntity
  8
0
100
AcDbLine
 10
48.190765
 20
43.175391
 30
0.0
 11
48.106099
 21
43.126503
 31
0.0
  0
LINE
  5
145
100
AcDbEntity
  8
0
100
AcDbLine
 10
48.106099
 20
43.126503
 30
0.0
 11
48.185895
 21
42.991691
 31
0.0
  0
LINE
  5
146
100
AcDbEntity
  8
0
100
AcDbLine
 10
45.776975
 20
40.377651
 30
0.0
 11
45.776975
 21
40.377751
 31
0.0
  0
ARC
  5
147
100
AcDbEntity
  8
0
100
AcDbCircle
 10
48.076975
 20
42.177651
 30
0.0
 40
0.3
100
AcDbArc
 50
180.0
 51
270.0
  0
LINE
  5
148
100
AcDbEntity
  8
0
100
AcDbLine
 10
45.776975
 20
43.877651
 30
0.0
 11
47.776975
 21
43.877651
 31
0.0
  0
LINE
  5
149
100
AcDbEntity
  8
0
100
AcDbLine
 10
48.057205
 20
43.211181
 30
0.0
 11
48.141885
 21
43.260071
 31
0.0
  0
LINE
  5
14A
100
AcDbEntity
  8
0
100
AcDbLine
 10
48.021403
 20
43.077651
 30
0.0
 11
48.101215
 21
42.942801
 31
0.0
  0
ARC
  5
14B
100
AcDbEntity
  8
0
100
AcDbCircle
 10
48.10611
 20
43.126529
 30
0.0
 40
0.097798
100
AcDbArc
 50
120.003741
 51
209.986236
  0
LINE
  5
14C
100
AcDbEntity
  8
0
100
AcDbLine
 10
47.776975
 20
42.977641
 30
0.0
 11
47.876985
 21
43.077651
 31
0.0
  0
LINE
  5
14D
100
AcDbEntity
  8
0
100
AcDbLine
 10
47.876985
 20
43.077651
 30
0.0
 11
48.021403
 21
43.077651
 31
0.0
  0
LINE
  5
14E
100
AcDbEntity
  8
0
100
AcDbLine
 10
48.510305
 20
43.668151
 30
0.0
 11
48.314765
 21
43.863691
 31
0.0
  0
ARC
  5
14F
100
AcDbEntity
  8
0
100
AcDbCircle
 10
48.291075
 20
43.052441
 30
0.0
 40
0.12145
100
AcDbArc
 50
209.99995
 51
0.0
  0
LINE
  5
150
100
AcDbEntity
  8
0
100
AcDbLine
 10
48.510305
 20
43.052441
 30
0.0
 11
48.510305
 21
43.668151
 31
0.0
  0
LINE
  5
151
100
AcDbEntity
  8
0
100
AcDbLine
 10
48.412535
 20
43.627621
 30
0.0
 11
48.216975
 21
43.823191
 31
0.0
  0
LINE
  5
152
100
AcDbEntity
  8
0
100
AcDbLine
 10
48.412535
 20
43.052441
 30
0.0
 11
48.412535
 21
43.627621
 31
0.0
  0
LINE
  5
153
100
AcDbEntity
  8
0
100
AcDbLine
 10
48.510315
 20
43.527651
 30
0.0
 11
48.610315
 21
43.627651
 31
0.0
  0
LINE
  5
154
100
AcDbEntity
  8
0
100
AcDbLine
 10
48.610315
 20
43.627651
 30
0.0
 11
49.297175
 21
43.627651
 31
0.0
  0
LINE
  5
155
100
AcDbEntity
  8
0
100
AcDbLine
 10
48.021425
 20
46.077651
 30
0.0
 11
48.178804
 21
46.270092
 31
0.0
  0
LINE
  5
156
100
AcDbEntity
  8
0
100
AcDbLine
 10
47.776975
 20
46.177651
 30
0.0
 11
47.876975
 21
46.077651
 31
0.0
  0
LINE
  5
157
100
AcDbEntity
  8
0
100
AcDbLine
 10
47.876975
 20
46.077651
 30
0.0
 11
48.021425
 21
46.077651
 31
0.0
  0
ARC
  5
158
100
AcDbEntity
  8
0
100
AcDbCircle
 10
48.076975
 20
47.077651
 30
0.0
 40
0.3
100
AcDbArc
 50
90.0
 51
180.0
  0
ARC
  5
159
100
AcDbEntity
  8
0
100
AcDbCircle
 10
48.304405
 20
46.164701
 30
0.0
 40
0.16396
100
AcDbArc
 50
16.84712
 51
139.99991
  0
ARC
  5
15A
100
AcDbEntity
  8
0
100
AcDbCircle
 10
48.314755
 20
45.779871
 30
0.0
 40
0.09778
100
AcDbArc
 50
89.99997
 51
179.99995
  0
LINE
  5
15B
100
AcDbEntity
  8
0
100
AcDbLine
 10
48.739895
 20
45.627651
 30
0.0
 11
49.297175
 21
45.627651
 31
0.0
  0
LINE
  5
15C
100
AcDbEntity
  8
0
100
AcDbLine
 10
48.639895
 20
45.721621
 30
0.0
 11
48.739895
 21
45.627651
 31
0.0
  0
LINE
  5
15D
100
AcDbEntity
  8
0
100
AcDbLine
 10
48.461335
 20
46.212211
 30
0.0
 11
48.639895
 21
45.721621
 31
0.0
  0
LINE
  5
15E
100
AcDbEntity
  8
0
100
AcDbLine
 10
48.461425
 20
45.779871
 30
0.0
 11
48.314755
 21
45.779871
 31
0.0
  0
LINE
  5
15F
100
AcDbEntity
  8
0
100
AcDbLine
 10
48.461425
 20
45.877651
 30
0.0
 11
48.461425
 21
45.779871
 31
0.0
  0
LINE
  5
160
100
AcDbEntity
  8
0
100
AcDbLine
 10
48.314755
 20
45.877651
 30
0.0
 11
48.461425
 21
45.877651
 31
0.0
  0
LINE
  5
161
100
AcDbEntity
  8
0
100
AcDbLine
 10
45.776975
 20
49.877651
 30
0.0
 11
45.777075
 21
49.877651
 31
0.0
  0
LINE
  5
162
100
AcDbEntity
  8
0
100
AcDbLine
 10
51.376975
 20
32.627651
 30
0.0
 11
51.376975
 21
39.127651
 31
0.0
  0
LINE
  5
163
100
AcDbEntity
  8
0
100
AcDbLine
 10
51.376975
 20
31.877651
 30
0.0
 11
51.376975
 21
39.877651
 31
0.0
  0
LINE
  5
164
100
AcDbEntity
  8
0
100
AcDbLine
 10
51.376975
 20
31.877651
 30
0.0
 11
55.776975
 21
31.877651
 31
0.0
  0
LINE
  5
165
100
AcDbEntity
  8
0
100
AcDbLine
 10
52.239185
 20
45.779871
 30
0.0
 11
52.239185
 21
43.863691
 31
0.0
  0
LINE
  5
166
100
AcDbEntity
  8
0
100
AcDbLine
 10
52.336975
 20
43.823191
 30
0.0
 11
52.336975
 21
45.779871
 31
0.0
  0
LINE
  5
167
100
AcDbEntity
  8
0
100
AcDbLine
 10
52.776975
 20
42.177651
 30
0.0
 11
52.776975
 21
49.877651
 31
0.0
  0
LINE
  5
168
100
AcDbEntity
  8
0
100
AcDbLine
 10
51.376975
 20
39.877651
 30
0.0
 11
55.776975
 21
39.877651
 31
0.0
  0
LINE
  5
169
100
AcDbEntity
  8
0
100
AcDbLine
 10
55.776975
 20
41.877651
 30
0.0
 11
53.936975
 21
41.877651
 31
0.0
  0
ARC
  5
16A
100
AcDbEntity
  8
0
100
AcDbCircle
 10
52.476975
 20
42.177651
 30
0.0
 40
0.3
100
AcDbArc
 50
270.0
 51
0.0
  0
LINE
  5
16B
100
AcDbEntity
  8
0
100
AcDbLine
 10
52.776975
 20
41.477651
 30
0.0
 11
53.936975
 21
41.477651
 31
0.0
  0
ARC
  5
16C
100
AcDbEntity
  8
0
100
AcDbCircle
 10
52.44784
 20
43.126529
 30
0.0
 40
0.097798
100
AcDbArc
 50
330.013764
 51
59.996259
  0
LINE
  5
16D
100
AcDbEntity
  8
0
100
AcDbLine
 10
52.532546
 20
43.077651
 30
0.0
 11
52.452735
 21
42.942801
 31
0.0
  0
LINE
  5
16E
100
AcDbEntity
  8
0
100
AcDbLine
 10
52.44785
 20
43.126503
 30
0.0
 11
52.368055
 21
42.991691
 31
0.0
  0
LINE
  5
16F
100
AcDbEntity
  8
0
100
AcDbLine
 10
52.363185
 20
43.175391
 30
0.0
 11
52.44785
 21
43.126503
 31
0.0
  0
LINE
  5
170
100
AcDbEntity
  8
0
100
AcDbLine
 10
52.043635
 20
43.527651
 30
0.0
 11
51.943635
 21
43.627651
 31
0.0
  0
LINE
  5
171
100
AcDbEntity
  8
0
100
AcDbLine
 10
52.141415
 20
43.052441
 30
0.0
 11
52.141415
 21
43.627621
 31
0.0
  0
LINE
  5
172
100
AcDbEntity
  8
0
100
AcDbLine
 10
52.141415
 20
43.627621
 30
0.0
 11
52.336975
 21
43.823191
 31
0.0
  0
LINE
  5
173
100
AcDbEntity
  8
0
100
AcDbLine
 10
52.043645
 20
43.052441
 30
0.0
 11
52.043645
 21
43.668151
 31
0.0
  0
LINE
  5
174
100
AcDbEntity
  8
0
100
AcDbLine
 10
52.412065
 20
43.260071
 30
0.0
 11
52.363185
 21
43.175391
 31
0.0
  0
LINE
  5
175
100
AcDbEntity
  8
0
100
AcDbLine
 10
52.496745
 20
43.211181
 30
0.0
 11
52.412065
 21
43.260071
 31
0.0
  0
ARC
  5
176
100
AcDbEntity
  8
0
100
AcDbCircle
 10
52.262875
 20
43.052441
 30
0.0
 40
0.12145
100
AcDbArc
 50
180.0
 51
330.00005
  0
ARC
  5
177
100
AcDbEntity
  8
0
100
AcDbCircle
 10
52.262875
 20
43.052441
 30
0.0
 40
0.21923
100
AcDbArc
 50
180.0
 51
330.00027
  0
LINE
  5
178
100
AcDbEntity
  8
0
100
AcDbLine
 10
52.043645
 20
43.668151
 30
0.0
 11
52.239185
 21
43.863691
 31
0.0
  0
LINE
  5
179
100
AcDbEntity
  8
0
100
AcDbLine
 10
51.943635
 20
43.627651
 30
0.0
 11
51.256775
 21
43.627651
 31
0.0
  0
LINE
  5
17A
100
AcDbEntity
  8
0
100
AcDbLine
 10
52.776975
 20
43.277651
 30
0.0
 11
53.936975
 21
43.277651
 31
0.0
  0
LINE
  5
17B
100
AcDbEntity
  8
0
100
AcDbLine
 10
52.676965
 20
43.077651
 30
0.0
 11
52.532546
 21
43.077651
 31
0.0
  0
LINE
  5
17C
100
AcDbEntity
  8
0
100
AcDbLine
 10
52.776975
 20
42.977641
 30
0.0
 11
52.676965
 21
43.077651
 31
0.0
  0
ARC
  5
17D
100
AcDbEntity
  8
0
100
AcDbCircle
 10
52.249545
 20
46.164701
 30
0.0
 40
0.16396
100
AcDbArc
 50
40.00009
 51
163.15288
  0
LINE
  5
17E
100
AcDbEntity
  8
0
100
AcDbLine
 10
52.532525
 20
46.077651
 30
0.0
 11
52.375145
 21
46.270092
 31
0.0
  0
LINE
  5
17F
100
AcDbEntity
  8
0
100
AcDbLine
 10
52.239195
 20
45.877651
 30
0.0
 11
52.092525
 21
45.877651
 31
0.0
  0
LINE
  5
180
100
AcDbEntity
  8
0
100
AcDbLine
 10
52.092525
 20
45.877651
 30
0.0
 11
52.092525
 21
45.779871
 31
0.0
  0
LINE
  5
181
100
AcDbEntity
  8
0
100
AcDbLine
 10
52.092525
 20
45.779871
 30
0.0
 11
52.239195
 21
45.779871
 31
0.0
  0
LINE
  5
182
100
AcDbEntity
  8
0
100
AcDbLine
 10
52.092615
 20
46.212211
 30
0.0
 11
51.914055
 21
45.721621
 31
0.0
  0
ARC
  5
183
100
AcDbEntity
  8
0
100
AcDbCircle
 10
52.239195
 20
45.779871
 30
0.0
 40
0.09778
100
AcDbArc
 50
0.00005
 51
90.00003
  0
LINE
  5
184
100
AcDbEntity
  8
0
100
AcDbLine
 10
51.814055
 20
45.627651
 30
0.0
 11
51.256775
 21
45.627651
 31
0.0
  0
LINE
  5
185
100
AcDbEntity
  8
0
100
AcDbLine
 10
51.914055
 20
45.721621
 30
0.0
 11
51.814055
 21
45.627651
 31
0.0
  0
LINE
  5
186
100
AcDbEntity
  8
0
100
AcDbLine
 10
52.676975
 20
46.077651
 30
0.0
 11
52.532525
 21
46.077651
 31
0.0
  0
LINE
  5
187
100
AcDbEntity
  8
0
100
AcDbLine
 10
52.776975
 20
46.177651
 30
0.0
 11
52.676975
 21
46.077651
 31
0.0
  0
ARC
  5
188
100
AcDbEntity
  8
0
100
AcDbCircle
 10
52.476975
 20
47.077651
 30
0.0
 40
0.3
100
AcDbArc
 50
0.0
 51
90.0
  0
LINE
  5
189
100
AcDbEntity
  8
CENTER
  6
CENTER
 62
     1
100
AcDbLine
 10
43.329161
 20
63.877651
 30
0.0
 11
58.107875
 21
63.877651
 31
0.0
  0
LINE
  5
18A
100
AcDbEntity
  8
0
100
AcDbLine
 10
45.776975
 20
66.027651
 30
0.0
 11
51.376975
 21
66.027651
 31
0.0
  0
LINE
  5
18B
100
AcDbEntity
  8
0
100
AcDbLine
 10
45.776975
 20
61.727651
 30
0.0
 11
51.376975
 21
61.727651
 31
0.0
  0
CIRCLE
  5
18C
100
AcDbEntity
  8
0
100
AcDbCircle
 10
50.276975
 20
55.127651
 30
0.0
 40
1.4
  0
LINE
  5
18D
100
AcDbEntity
  8
0
100
AcDbLine
 10
48.076975
 20
57.877651
 30
0.0
 11
52.776975
 21
57.877651
 31
0.0
  0
LINE
  5
18E
100
AcDbEntity
  8
0
 62
     3
100
AcDbLine
 10
45.776975
 20
61.377651
 30
0.0
 11
51.376975
 21
61.377651
 31
0.0
  0
LINE
  5
18F
100
AcDbEntity
  8
0
 62
     3
100
AcDbLine
 10
45.776975
 20
66.377651
 30
0.0
 11
51.376975
 21
66.377651
 31
0.0
  0
LINE
  5
190
100
AcDbEntity
  8
0
100
AcDbLine
 10
45.776975
 20
68.877651
 30
0.0
 11
55.776975
 21
68.877651
 31
0.0
  0
ARC
  5
191
100
AcDbEntity
  8
0
100
AcDbCircle
 10
48.10611
 20
56.628772
 30
0.0
 40
0.097798
100
AcDbArc
 50
150.013764
 51
239.996259
  0
LINE
  5
192
100
AcDbEntity
  8
0
100
AcDbLine
 10
48.190765
 20
56.579911
 30
0.0
 11
48.106099
 21
56.628798
 31
0.0
  0
LINE
  5
193
100
AcDbEntity
  8
0
100
AcDbLine
 10
48.412535
 20
56.702861
 30
0.0
 11
48.412535
 21
56.127681
 31
0.0
  0
LINE
  5
194
100
AcDbEntity
  8
0
100
AcDbLine
 10
48.510305
 20
56.702861
 30
0.0
 11
48.510305
 21
56.087151
 31
0.0
  0
LINE
  5
195
100
AcDbEntity
  8
0
100
AcDbLine
 10
48.141885
 20
56.495231
 30
0.0
 11
48.190765
 21
56.579911
 31
0.0
  0
LINE
  5
196
100
AcDbEntity
  8
0
100
AcDbLine
 10
48.021425
 20
53.677651
 30
0.0
 11
48.178804
 21
53.485209
 31
0.0
  0
LINE
  5
197
100
AcDbEntity
  8
0
100
AcDbLine
 10
47.876975
 20
53.677651
 30
0.0
 11
48.021425
 21
53.677651
 31
0.0
  0
LINE
  5
198
100
AcDbEntity
  8
0
100
AcDbLine
 10
47.776975
 20
53.577651
 30
0.0
 11
47.876975
 21
53.677651
 31
0.0
  0
LINE
  5
199
100
AcDbEntity
  8
0
100
AcDbLine
 10
45.776975
 20
55.877651
 30
0.0
 11
47.776975
 21
55.877651
 31
0.0
  0
LINE
  5
19A
100
AcDbEntity
  8
0
100
AcDbLine
 10
48.057205
 20
56.544121
 30
0.0
 11
48.141885
 21
56.495231
 31
0.0
  0
LINE
  5
19B
100
AcDbEntity
  8
0
100
AcDbLine
 10
48.314765
 20
53.975431
 30
0.0
 11
48.314765
 21
55.891611
 31
0.0
  0
LINE
  5
19C
100
AcDbEntity
  8
0
100
AcDbLine
 10
48.216975
 20
55.932111
 30
0.0
 11
48.216975
 21
53.975431
 31
0.0
  0
LINE
  5
19D
100
AcDbEntity
  8
0
100
AcDbLine
 10
48.314755
 20
53.877651
 30
0.0
 11
48.461425
 21
53.877651
 31
0.0
  0
LINE
  5
19E
100
AcDbEntity
  8
0
100
AcDbLine
 10
48.461425
 20
53.877651
 30
0.0
 11
48.461425
 21
53.975431
 31
0.0
  0
LINE
  5
19F
100
AcDbEntity
  8
0
100
AcDbLine
 10
48.461425
 20
53.975431
 30
0.0
 11
48.314755
 21
53.975431
 31
0.0
  0
LINE
  5
1A0
100
AcDbEntity
  8
0
100
AcDbLine
 10
48.461335
 20
53.543091
 30
0.0
 11
48.639895
 21
54.033681
 31
0.0
  0
LINE
  5
1A1
100
AcDbEntity
  8
0
100
AcDbLine
 10
48.639895
 20
54.033681
 30
0.0
 11
48.739895
 21
54.127651
 31
0.0
  0
LINE
  5
1A2
100
AcDbEntity
  8
0
100
AcDbLine
 10
48.739895
 20
54.127651
 30
0.0
 11
49.297175
 21
54.127651
 31
0.0
  0
ARC
  5
1A3
100
AcDbEntity
  8
0
100
AcDbCircle
 10
48.314755
 20
53.975431
 30
0.0
 40
0.09778
100
AcDbArc
 50
180.00005
 51
270.00003
  0
ARC
  5
1A4
100
AcDbEntity
  8
0
100
AcDbCircle
 10
48.304405
 20
53.590601
 30
0.0
 40
0.16396
100
AcDbArc
 50
220.00009
 51
343.15288
  0
LINE
  5
1A5
100
AcDbEntity
  8
0
100
AcDbLine
 10
48.610315
 20
56.127651
 30
0.0
 11
49.297175
 21
56.127651
 31
0.0
  0
LINE
  5
1A6
100
AcDbEntity
  8
0
100
AcDbLine
 10
48.510315
 20
56.227651
 30
0.0
 11
48.610315
 21
56.127651
 31
0.0
  0
LINE
  5
1A7
100
AcDbEntity
  8
0
100
AcDbLine
 10
48.412535
 20
56.127681
 30
0.0
 11
48.216975
 21
55.932111
 31
0.0
  0
LINE
  5
1A8
100
AcDbEntity
  8
0
100
AcDbLine
 10
48.510305
 20
56.087151
 30
0.0
 11
48.314765
 21
55.891611
 31
0.0
  0
LINE
  5
1A9
100
AcDbEntity
  8
0
100
AcDbLine
 10
48.106099
 20
56.628798
 30
0.0
 11
48.185895
 21
56.763611
 31
0.0
  0
ARC
  5
1AA
100
AcDbEntity
  8
0
100
AcDbCircle
 10
48.291075
 20
56.702861
 30
0.0
 40
0.21923
100
AcDbArc
 50
0.0
 51
150.00027
  0
LINE
  5
1AB
100
AcDbEntity
  8
0
100
AcDbLine
 10
47.876985
 20
56.677651
 30
0.0
 11
48.021403
 21
56.677651
 31
0.0
  0
LINE
  5
1AC
100
AcDbEntity
  8
0
100
AcDbLine
 10
47.776975
 20
56.777661
 30
0.0
 11
47.876985
 21
56.677651
 31
0.0
  0
LINE
  5
1AD
100
AcDbEntity
  8
0
100
AcDbLine
 10
48.021403
 20
56.677651
 30
0.0
 11
48.101215
 21
56.812501
 31
0.0
  0
ARC
  5
1AE
100
AcDbEntity
  8
0
100
AcDbCircle
 10
48.076975
 20
57.577651
 30
0.0
 40
0.3
100
AcDbArc
 50
90.0
 51
180.0
  0
ARC
  5
1AF
100
AcDbEntity
  8
0
100
AcDbCircle
 10
48.291075
 20
56.702861
 30
0.0
 40
0.12145
100
AcDbArc
 50
0.0
 51
150.00005
  0
LINE
  5
1B0
100
AcDbEntity
  8
0
100
AcDbLine
 10
51.376975
 20
67.877651
 30
0.0
 11
51.376975
 21
59.877651
 31
0.0
  0
LINE
  5
1B1
100
AcDbEntity
  8
0
100
AcDbLine
 10
51.376975
 20
67.127651
 30
0.0
 11
51.376975
 21
60.627651
 31
0.0
  0
LINE
  5
1B2
100
AcDbEntity
  8
0
100
AcDbLine
 10
52.043645
 20
56.702861
 30
0.0
 11
52.043645
 21
56.087151
 31
0.0
  0
LINE
  5
1B3
100
AcDbEntity
  8
0
100
AcDbLine
 10
52.141415
 20
56.702861
 30
0.0
 11
52.141415
 21
56.127681
 31
0.0
  0
LINE
  5
1B4
100
AcDbEntity
  8
0
100
AcDbLine
 10
52.363185
 20
56.579911
 30
0.0
 11
52.44785
 21
56.628798
 31
0.0
  0
ARC
  5
1B5
100
AcDbEntity
  8
0
100
AcDbCircle
 10
52.44784
 20
56.628772
 30
0.0
 40
0.097798
100
AcDbArc
 50
300.003741
 51
29.986236
  0
LINE
  5
1B6
100
AcDbEntity
  8
0
100
AcDbLine
 10
52.336975
 20
55.932111
 30
0.0
 11
52.336975
 21
53.975431
 31
0.0
  0
LINE
  5
1B7
100
AcDbEntity
  8
0
100
AcDbLine
 10
52.239185
 20
53.975431
 30
0.0
 11
52.239185
 21
55.891611
 31
0.0
  0
LINE
  5
1B8
100
AcDbEntity
  8
0
100
AcDbLine
 10
52.532525
 20
53.677651
 30
0.0
 11
52.375145
 21
53.485209
 31
0.0
  0
ARC
  5
1B9
100
AcDbEntity
  8
0
100
AcDbCircle
 10
52.249545
 20
53.590601
 30
0.0
 40
0.16396
100
AcDbArc
 50
196.84712
 51
319.99991
  0
ARC
  5
1BA
100
AcDbEntity
  8
0
100
AcDbCircle
 10
52.239195
 20
53.975431
 30
0.0
 40
0.09778
100
AcDbArc
 50
269.99997
 51
359.99995
  0
LINE
  5
1BB
100
AcDbEntity
  8
0
100
AcDbLine
 10
52.092615
 20
53.543091
 30
0.0
 11
51.914055
 21
54.033681
 31
0.0
  0
LINE
  5
1BC
100
AcDbEntity
  8
0
100
AcDbLine
 10
52.092525
 20
53.975431
 30
0.0
 11
52.239195
 21
53.975431
 31
0.0
  0
LINE
  5
1BD
100
AcDbEntity
  8
0
100
AcDbLine
 10
52.092525
 20
53.877651
 30
0.0
 11
52.092525
 21
53.975431
 31
0.0
  0
LINE
  5
1BE
100
AcDbEntity
  8
0
100
AcDbLine
 10
52.239195
 20
53.877651
 30
0.0
 11
52.092525
 21
53.877651
 31
0.0
  0
LINE
  5
1BF
100
AcDbEntity
  8
0
100
AcDbLine
 10
51.814055
 20
54.127651
 30
0.0
 11
51.256775
 21
54.127651
 31
0.0
  0
LINE
  5
1C0
100
AcDbEntity
  8
0
100
AcDbLine
 10
51.914055
 20
54.033681
 30
0.0
 11
51.814055
 21
54.127651
 31
0.0
  0
LINE
  5
1C1
100
AcDbEntity
  8
0
100
AcDbLine
 10
52.776975
 20
53.577651
 30
0.0
 11
52.676975
 21
53.677651
 31
0.0
  0
LINE
  5
1C2
100
AcDbEntity
  8
0
100
AcDbLine
 10
52.676975
 20
53.677651
 30
0.0
 11
52.532525
 21
53.677651
 31
0.0
  0
LINE
  5
1C3
100
AcDbEntity
  8
0
100
AcDbLine
 10
52.043645
 20
56.087151
 30
0.0
 11
52.239185
 21
55.891611
 31
0.0
  0
LINE
  5
1C4
100
AcDbEntity
  8
0
100
AcDbLine
 10
52.496745
 20
56.544121
 30
0.0
 11
52.412065
 21
56.495231
 31
0.0
  0
LINE
  5
1C5
100
AcDbEntity
  8
0
100
AcDbLine
 10
52.412065
 20
56.495231
 30
0.0
 11
52.363185
 21
56.579911
 31
0.0
  0
LINE
  5
1C6
100
AcDbEntity
  8
0
100
AcDbLine
 10
52.141415
 20
56.127681
 30
0.0
 11
52.336975
 21
55.932111
 31
0.0
  0
LINE
  5
1C7
100
AcDbEntity
  8
0
100
AcDbLine
 10
52.043635
 20
56.227651
 30
0.0
 11
51.943635
 21
56.127651
 31
0.0
  0
LINE
  5
1C8
100
AcDbEntity
  8
0
100
AcDbLine
 10
51.943635
 20
56.127651
 30
0.0
 11
51.256775
 21
56.127651
 31
0.0
  0
LINE
  5
1C9
100
AcDbEntity
  8
0
100
AcDbLine
 10
52.776975
 20
56.477651
 30
0.0
 11
53.936975
 21
56.477651
 31
0.0
  0
LINE
  5
1CA
100
AcDbEntity
  8
0
100
AcDbLine
 10
51.376975
 20
59.877651
 30
0.0
 11
55.776975
 21
59.877651
 31
0.0
  0
LINE
  5
1CB
100
AcDbEntity
  8
0
100
AcDbLine
 10
55.776975
 20
57.877651
 30
0.0
 11
53.936975
 21
57.877651
 31
0.0
  0
LINE
  5
1CC
100
AcDbEntity
  8
0
100
AcDbLine
 10
52.532546
 20
56.677651
 30
0.0
 11
52.452735
 21
56.812501
 31
0.0
  0
ARC
  5
1CD
100
AcDbEntity
  8
0
100
AcDbCircle
 10
52.476975
 20
57.577651
 30
0.0
 40
0.3
100
AcDbArc
 50
0.0
 51
90.0
  0
ARC
  5
1CE
100
AcDbEntity
  8
0
100
AcDbCircle
 10
52.262875
 20
56.702861
 30
0.0
 40
0.21923
100
AcDbArc
 50
29.99973
 51
180.0
  0
ARC
  5
1CF
100
AcDbEntity
  8
0
100
AcDbCircle
 10
52.262875
 20
56.702861
 30
0.0
 40
0.12145
100
AcDbArc
 50
29.99995
 51
180.0
  0
LINE
  5
1D0
100
AcDbEntity
  8
0
100
AcDbLine
 10
52.44785
 20
56.628798
 30
0.0
 11
52.368055
 21
56.763611
 31
0.0
  0
LINE
  5
1D1
100
AcDbEntity
  8
0
100
AcDbLine
 10
52.776975
 20
56.777661
 30
0.0
 11
52.676965
 21
56.677651
 31
0.0
  0
LINE
  5
1D2
100
AcDbEntity
  8
0
100
AcDbLine
 10
52.676965
 20
56.677651
 30
0.0
 11
52.532546
 21
56.677651
 31
0.0
  0
LINE
  5
1D3
100
AcDbEntity
  8
0
100
AcDbLine
 10
52.776975
 20
58.277651
 30
0.0
 11
53.936975
 21
58.277651
 31
0.0
  0
LINE
  5
1D4
100
AcDbEntity
  8
0
100
AcDbLine
 10
51.376975
 20
67.877651
 30
0.0
 11
55.776975
 21
67.877651
 31
0.0
  0
LINE
  5
1D5
100
AcDbEntity
  8
CENTER
  6
CENTER
 62
     1
100
AcDbLine
 10
100.054754
 20
72.636986
 30
0.0
 11
100.054754
 21
28.047945
 31
0.0
  0
CIRCLE
  5
1D6
100
AcDbEntity
  8
CENTER
  6
CENTER
 62
     1
100
AcDbCircle
 10
100.054754
 20
49.877651
 30
0.0
 40
14.0
  0
ARC
  5
1D7
100
AcDbEntity
  8
0
100
AcDbCircle
 10
100.054754
 20
49.877651
 30
0.0
 40
19.0
100
AcDbArc
 50
350.334502
 51
9.665498
  0
ARC
  5
1D8
100
AcDbEntity
  8
0
100
AcDbCircle
 10
100.054754
 20
49.877651
 30
0.0
 40
19.0
100
AcDbArc
 50
170.334502
 51
189.665498
  0
CIRCLE
  5
1D9
100
AcDbEntity
  8
0
100
AcDbCircle
 10
114.054754
 20
49.877651
 30
0.0
 40
4.0
  0
CIRCLE
  5
1DA
100
AcDbEntity
  8
0
100
AcDbCircle
 10
86.054754
 20
49.877651
 30
0.0
 40
4.0
  0
CIRCLE
  5
1DB
100
AcDbEntity
  8
0
100
AcDbCircle
 10
100.054754
 20
49.877651
 30
0.0
 40
8.0
  0
LINE
  5
1DC
100
AcDbEntity
  8
CENTER
  6
CENTER
 62
     1
100
AcDbLine
 10
77.880443
 20
49.877651
 30
0.0
 11
121.649306
 21
49.877651
 31
0.0
  0
ARC
  5
1DD
100
AcDbEntity
  8
0
100
AcDbCircle
 10
100.054754
 20
49.877651
 30
0.0
 40
19.0
100
AcDbArc
 50
260.334502
 51
279.665498
  0
CIRCLE
  5
1DE
100
AcDbEntity
  8
0
100
AcDbCircle
 10
100.054754
 20
35.877651
 30
0.0
 40
4.0
  0
LWPOLYLINE
  5
1DF
100
AcDbEntity
  8
0
100
AcDbPolyline
 90
        2
 70
     0
 43
0.0
 10
81.324464
 20
46.687631
 10
96.864734
 20
31.147361
  0
CIRCLE
  5
1E3
100
AcDbEntity
  8
0
100
AcDbCircle
 10
86.054754
 20
49.877651
 30
0.0
 40
2.0
  0
CIRCLE
  5
1E4
100
AcDbEntity
  8
0
 62
     3
100
AcDbCircle
 10
86.054754
 20
49.877651
 30
0.0
 40
2.5
  0
LWPOLYLINE
  5
1E5
100
AcDbEntity
  8
0
100
AcDbPolyline
 90
        2
 70
     0
 43
0.0
 10
103.244774
 20
31.147361
 10
118.785045
 20
46.687631
  0
CIRCLE
  5
1E9
100
AcDbEntity
  8
0
100
AcDbCircle
 10
100.054754
 20
35.877651
 30
0.0
 40
2.0
  0
CIRCLE
  5
1EA
100
AcDbEntity
  8
0
 62
     3
100
AcDbCircle
 10
100.054754
 20
35.877651
 30
0.0
 40
2.5
  0
CIRCLE
  5
1EB
100
AcDbEntity
  8
0
100
AcDbCircle
 10
100.054754
 20
49.877651
 30
0.0
 40
2.5
  0
CIRCLE
  5
1EC
100
AcDbEntity
  8
0
100
AcDbCircle
 10
114.054754
 20
49.877651
 30
0.0
 40
2.0
  0
CIRCLE
  5
1ED
100
AcDbEntity
  8
0
 62
     3
100
AcDbCircle
 10
114.054754
 20
49.877651
 30
0.0
 40
2.5
  0
CIRCLE
  5
1EE
100
AcDbEntity
  8
0
100
AcDbCircle
 10
100.054754
 20
63.877651
 30
0.0
 40
4.0
  0
ARC
  5
1EF
100
AcDbEntity
  8
0
100
AcDbCircle
 10
100.054754
 20
49.877651
 30
0.0
 40
19.0
100
AcDbArc
 50
80.334502
 51
99.665498
  0
LWPOLYLINE
  5
1F0
100
AcDbEntity
  8
0
100
AcDbPolyline
 90
        2
 70
     0
 43
0.0
 10
96.864734
 20
68.607941
 10
81.324464
 20
53.067671
  0
LWPOLYLINE
  5
1F4
100
AcDbEntity
  8
0
100
AcDbPolyline
 90
        2
 70
     0
 43
0.0
 10
118.785045
 20
53.067671
 10
103.244774
 20
68.607941
  0
CIRCLE
  5
1F8
100
AcDbEntity
  8
0
 62
     3
100
AcDbCircle
 10
100.054754
 20
63.877651
 30
0.0
 40
2.5
  0
CIRCLE
  5
1F9
100
AcDbEntity
  8
0
100
AcDbCircle
 10
100.054754
 20
63.877651
 30
0.0
 40
2.0
  0
ENDSEC
  0
SECTION
  2
OBJECTS
  0
DICTIONARY
  5
102
100
AcDbDictionary
  3
ACAD_GROUP
350
103
  3
ACAD_LAYOUT
350
10F
  3
ACAD_MLINESTYLE
350
10C
  3
ACAD_PLOTSETTINGS
350
10E
  3
ACAD_PLOTSTYLENAME
350
104
  3
ACDBHEADERROUNDTRIPXREC
350
206
  3
AcDbVariableDictionary
350
22F
  0
DICTIONARY
  5
204
100
AcDbDictionary
280
     1
  3
ACAD_XREC_ROUNDTRIP
360
205
  0
DICTIONARY
  5
200
100
AcDbDictionary
280
     1
  3
ACAD_XREC_ROUNDTRIP
360
201
  0
DICTIONARY
  5
202
100
AcDbDictionary
280
     1
  3
ACAD_XREC_ROUNDTRIP
360
203
  0
DICTIONARY
  5
22D
100
AcDbDictionary
280
     1
  3
ACAD_XREC_ROUNDTRIP
360
22E
  0
DICTIONARY
  5
1FC
100
AcDbDictionary
280
     1
  3
ACAD_LAYOUTSELFREF
360
22C
  3
ACAD_XREC_ROUNDTRIP
360
1FD
  0
DICTIONARY
  5
1FE
100
AcDbDictionary
280
     1
  3
ACAD_LAYOUTSELFREF
360
22B
  3
ACAD_XREC_ROUNDTRIP
360
1FF
  0
DICTIONARY
  5
103
102
{ACAD_REACTORS
330
102
102
}
100
AcDbDictionary
  0
DICTIONARY
  5
10F
102
{ACAD_XDICTIONARY
360
229
102
}
102
{ACAD_REACTORS
330
102
102
}
100
AcDbDictionary
  3
MODEL
350
117
  3
ﾚｲｱｳﾄ1
350
113
  0
DICTIONARY
  5
10C
102
{ACAD_XDICTIONARY
360
227
102
}
102
{ACAD_REACTORS
330
102
102
}
100
AcDbDictionary
  3
STANDARD
350
10D
  0
DICTIONARY
  5
10E
102
{ACAD_REACTORS
330
102
102
}
100
AcDbDictionary
  0
ACAD_PROXY_OBJECT
  5
104
102
{ACAD_REACTORS
330
102
102
}
100
AcDbProxyObject
 90
      499
 91
      500
 93
       86
310
405010041939BDC9B585B0
350
105
340
105
 94
        0
  0
DICTIONARY
  5
206
102
{ACAD_REACTORS
330
102
102
}
100
AcDbDictionary
  3
CEPSNTYPE
350
210
  3
DIMSTYLEDATA
350
214
  3
FINGERPRINTGUID
350
211
  3
HYPERLINKBASE
350
209
  3
INSUNITS
350
20F
  3
LAYOUTDICT
350
20B
  3
LWETCUNION
350
20E
  3
PLOTSETDICT
350
20C
  3
PLOTSTYLNAMDICT
350
20D
  3
PSVPSCALE
350
213
  3
PUCSBASE
350
217
  3
PUCSORGBACK
350
21D
  3
PUCSORGBOTTOM
350
219
  3
PUCSORGFRONT
350
21C
  3
PUCSORGLEFT
350
21A
  3
PUCSORGRIGHT
350
21B
  3
PUCSORGTOP
350
218
  3
PUCSORTHOREF
350
215
  3
PUCSORTHOVIEW
350
216
  3
STYLESHEET
350
20A
  3
TSTACKALIGN
350
207
  3
TSTACKSIZE
350
208
  3
UCSBASE
350
220
  3
UCSORGBACK
350
226
  3
UCSORGBOTTOM
350
222
  3
UCSORGFRONT
350
225
  3
UCSORGLEFT
350
223
  3
UCSORGRIGHT
350
224
  3
UCSORGTOP
350
221
  3
UCSORTHOREF
350
21E
  3
UCSORTHOVIEW
350
21F
  3
VERSIONGUID
350
212
  0
DICTIONARY
  5
22F
102
{ACAD_REACTORS
330
102
102
}
100
AcDbDictionary
  3
DIMASSOC
350
230
  0
XRECORD
  5
205
102
{ACAD_REACTORS
330
204
102
}
100
AcDbXrecord
102
EXTNAMES
  1
*ACTIVE
  2
*Active
102
UCS
 74
     0
 71
     0
 10
0.0
 20
0.0
 30
0.0
 10
1.0
 20
0.0
 30
0.0
 10
0.0
 20
1.0
 30
0.0
146
0.0
 79
     0
102
VIEW
281
     0
  0
XRECORD
  5
201
102
{ACAD_REACTORS
330
200
102
}
100
AcDbXrecord
102
EXTNAMES
  1
BYBLOCK
  2
ByBlock
  0
XRECORD
  5
203
102
{ACAD_REACTORS
330
202
102
}
100
AcDbXrecord
102
EXTNAMES
  1
BYLAYER
  2
ByLayer
  0
XRECORD
  5
22E
102
{ACAD_REACTORS
330
22D
102
}
100
AcDbXrecord
102
ACADR14ROUNDTRIP
1000
DSTYLE
1002
{
1070
   279
 70
     2
1002
}
  0
XRECORD
  5
22C
102
{ACAD_REACTORS
330
1FC
102
}
100
AcDbXrecord
340
114
  0
XRECORD
  5
1FD
102
{ACAD_REACTORS
330
1FC
102
}
100
AcDbXrecord
102
EXTNAMES
  1
*MODEL_SPACE
  2
*Model_Space
  0
XRECORD
  5
22B
102
{ACAD_REACTORS
330
1FE
102
}
100
AcDbXrecord
340
110
  0
XRECORD
  5
1FF
102
{ACAD_REACTORS
330
1FE
102
}
100
AcDbXrecord
102
EXTNAMES
  1
*PAPER_SPACE
  2
*Paper_Space
  0
DICTIONARY
  5
229
100
AcDbDictionary
280
     1
  3
ACAD_XREC_ROUNDTRIP
360
22A
  0
ACAD_PROXY_OBJECT
  5
117
102
{ACAD_REACTORS
330
10F
102
}
100
AcDbProxyObject
 90
      499
 91
      502
 93
      836
310
932433A5C50524F4752414D2046494C45535C4D4454365C706C6F74746572735C526F6C616E64204458592D313235302E7063332C01AAAAAAAAA5A69054D6F64656C901A800000000000000000000000000000000000000000000A1000000000000008902A6A6AAAA4
330
114
330
0
340
0
340
0
 94
        0
  0
ACAD_PROXY_OBJECT
  5
113
102
{ACAD_REACTORS
330
10F
102
}
100
AcDbProxyObject
 90
      499
 91
      502
 93
     1252
310
932433A5C50524F4752414D2046494C45535C4D4454365C706C6F74746572735C526F6C616E64204458592D313235302E7063332C00AAAAAA416AA59106906DAB2B1B3C43140501A800000000000000000000000000000000000000000000A1000000000000008902A6A6A10232D5E076BC5510408CB5781DAF154410232D5
310
E076BC5510408CB5781DAF15C410232D5E076BC5710408CB5781DAF15C40
330
110
330
0
340
0
340
0
 94
        0
  0
DICTIONARY
  5
227
100
AcDbDictionary
280
     1
  3
ACAD_XREC_ROUNDTRIP
360
228
  0
MLINESTYLE
  5
10D
102
{ACAD_REACTORS
330
10C
102
}
100
AcDbMlineStyle
  2
STANDARD
 70
     0
  3

 62
   256
 51
90.0
 52
90.0
 71
     2
 49
0.5
 62
   256
  6
BYLAYER
 49
-0.5
 62
   256
  6
BYLAYER
  0
ACAD_PROXY_OBJECT
  5
105
102
{ACAD_REACTORS
330
104
102
}
100
AcDbProxyObject
 90
      499
 91
      501
 93
        0
 94
        0
  0
XRECORD
  5
210
102
{ACAD_REACTORS
330
206
102
}
100
AcDbXrecord
 90
        0
  0
XRECORD
  5
214
102
{ACAD_REACTORS
330
206
102
}
100
AcDbXrecord
1000
DSTYLE
1002
{
1070
   341
340
124
1070
   343
340
124
1070
   344
340
124
1002
}
  0
XRECORD
  5
211
102
{ACAD_REACTORS
330
206
102
}
100
AcDbXrecord
  1
{EFF01735-254F-4DBF-AA37-6A82721E803E}
  0
XRECORD
  5
209
102
{ACAD_REACTORS
330
206
102
}
100
AcDbXrecord
  1

  0
XRECORD
  5
20F
102
{ACAD_REACTORS
330
206
102
}
100
AcDbXrecord
 90
        0
  0
XRECORD
  5
20B
102
{ACAD_REACTORS
330
206
102
}
100
AcDbXrecord
340
10F
  0
XRECORD
  5
20E
102
{ACAD_REACTORS
330
206
102
}
100
AcDbXrecord
 90
    10781
  0
XRECORD
  5
20C
102
{ACAD_REACTORS
330
206
102
}
100
AcDbXrecord
340
10E
  0
XRECORD
  5
20D
102
{ACAD_REACTORS
330
206
102
}
100
AcDbXrecord
340
104
  0
XRECORD
  5
213
102
{ACAD_REACTORS
330
206
102
}
100
AcDbXrecord
 40
0.0
  0
XRECORD
  5
217
102
{ACAD_REACTORS
330
206
102
}
100
AcDbXrecord
340
0
  0
XRECORD
  5
21D
102
{ACAD_REACTORS
330
206
102
}
100
AcDbXrecord
 10
0.0
 20
0.0
 30
0.0
  0
XRECORD
  5
219
102
{ACAD_REACTORS
330
206
102
}
100
AcDbXrecord
 10
0.0
 20
0.0
 30
0.0
  0
XRECORD
  5
21C
102
{ACAD_REACTORS
330
206
102
}
100
AcDbXrecord
 10
0.0
 20
0.0
 30
0.0
  0
XRECORD
  5
21A
102
{ACAD_REACTORS
330
206
102
}
100
AcDbXrecord
 10
0.0
 20
0.0
 30
0.0
  0
XRECORD
  5
21B
102
{ACAD_REACTORS
330
206
102
}
100
AcDbXrecord
 10
0.0
 20
0.0
 30
0.0
  0
XRECORD
  5
218
102
{ACAD_REACTORS
330
206
102
}
100
AcDbXrecord
 10
0.0
 20
0.0
 30
0.0
  0
XRECORD
  5
215
102
{ACAD_REACTORS
330
206
102
}
100
AcDbXrecord
340
0
  0
XRECORD
  5
216
102
{ACAD_REACTORS
330
206
102
}
100
AcDbXrecord
 70
     0
  0
XRECORD
  5
20A
102
{ACAD_REACTORS
330
206
102
}
100
AcDbXrecord
  1

  0
XRECORD
  5
207
102
{ACAD_REACTORS
330
206
102
}
100
AcDbXrecord
 90
        1
  0
XRECORD
  5
208
102
{ACAD_REACTORS
330
206
102
}
100
AcDbXrecord
 90
       70
  0
XRECORD
  5
220
102
{ACAD_REACTORS
330
206
102
}
100
AcDbXrecord
340
0
  0
XRECORD
  5
226
102
{ACAD_REACTORS
330
206
102
}
100
AcDbXrecord
 10
0.0
 20
0.0
 30
0.0
  0
XRECORD
  5
222
102
{ACAD_REACTORS
330
206
102
}
100
AcDbXrecord
 10
0.0
 20
0.0
 30
0.0
  0
XRECORD
  5
225
102
{ACAD_REACTORS
330
206
102
}
100
AcDbXrecord
 10
0.0
 20
0.0
 30
0.0
  0
XRECORD
  5
223
102
{ACAD_REACTORS
330
206
102
}
100
AcDbXrecord
 10
0.0
 20
0.0
 30
0.0
  0
XRECORD
  5
224
102
{ACAD_REACTORS
330
206
102
}
100
AcDbXrecord
 10
0.0
 20
0.0
 30
0.0
  0
XRECORD
  5
221
102
{ACAD_REACTORS
330
206
102
}
100
AcDbXrecord
 10
0.0
 20
0.0
 30
0.0
  0
XRECORD
  5
21E
102
{ACAD_REACTORS
330
206
102
}
100
AcDbXrecord
340
0
  0
XRECORD
  5
21F
102
{ACAD_REACTORS
330
206
102
}
100
AcDbXrecord
 70
     0
  0
XRECORD
  5
212
102
{ACAD_REACTORS
330
206
102
}
100
AcDbXrecord
  1
{8BDC708D-3255-4913-9B2C-7788AF085687}
  0
DICTIONARYVAR
  5
230
102
{ACAD_REACTORS
330
22F
102
}
100
DictionaryVariables
280
     0
  1
1
  0
XRECORD
  5
22A
102
{ACAD_REACTORS
330
229
102
}
100
AcDbXrecord
102
EXTNAMES
  1
MODEL
  2
Model
  0
XRECORD
  5
228
102
{ACAD_REACTORS
330
227
102
}
100
AcDbXrecord
102
EXTNAMES
  1
STANDARD
  2
Standard
  0
ENDSEC
  0
EOF
