  0
SECTION
  2
HEADER
  9
$ACADVER
  1
AC1014
  9
$ACADMAINTVER
 70
     0
  9
$DWGCODEPAGE
  3
ANSI_932
  9
$INSBASE
 10
0.0
 20
0.0
 30
0.0
  9
$EXTMIN
 10
108.729802
 20
74.463853
 30
0.0
  9
$EXTMAX
 10
211.160727
 20
126.387338
 30
0.0
  9
$LIMMIN
 10
0.0
 20
0.0
  9
$LIMMAX
 10
148.5
 20
105.0
  9
$ORTHOMODE
 70
     0
  9
$REGENMODE
 70
     1
  9
$FILLMODE
 70
     1
  9
$QTEXTMODE
 70
     0
  9
$MIRRTEXT
 70
     1
  9
$DRAGMODE
 70
     2
  9
$LTSCALE
 40
0.25
  9
$OSMODE
 70
    37
  9
$ATTMODE
 70
     1
  9
$TEXTSIZE
 40
3.2
  9
$TRACEWID
 40
0.05
  9
$TEXTSTYLE
  7
STANDARD
  9
$CLAYER
  8
0
  9
$CELTYPE
  6
BYLAYER
  9
$CECOLOR
 62
   256
  9
$CELTSCALE
 40
1.0
  9
$DELOBJ
 70
     1
  9
$DISPSILH
 70
     0
  9
$DIMSCALE
 40
1.0
  9
$DIMASZ
 40
3.0
  9
$DIMEXO
 40
1.0
  9
$DIMDLI
 40
0.0
  9
$DIMRND
 40
0.0
  9
$DIMDLE
 40
0.0
  9
$DIMEXE
 40
1.0
  9
$DIMTP
 40
0.0
  9
$DIMTM
 40
0.0
  9
$DIMTXT
 40
3.2
  9
$DIMCEN
 40
0.0
  9
$DIMTSZ
 40
0.0
  9
$DIMTOL
 70
     0
  9
$DIMLIM
 70
     0
  9
$DIMTIH
 70
     0
  9
$DIMTOH
 70
     0
  9
$DIMSE1
 70
     0
  9
$DIMSE2
 70
     0
  9
$DIMTAD
 70
     1
  9
$DIMZIN
 70
     8
  9
$DIMBLK
  1

  9
$DIMASO
 70
     1
  9
$DIMSHO
 70
     1
  9
$DIMPOST
  1

  9
$DIMAPOST
  1

  9
$DIMALT
 70
     0
  9
$DIMALTD
 70
     2
  9
$DIMALTF
 40
0.04
  9
$DIMLFAC
 40
1.0
  9
$DIMTOFL
 70
     1
  9
$DIMTVP
 40
1.0
  9
$DIMTIX
 70
     1
  9
$DIMSOXD
 70
     0
  9
$DIMSAH
 70
     1
  9
$DIMBLK1
  1
OPEN
  9
$DIMBLK2
  1
OPEN
  9
$DIMSTYLE
  2
AA1
  9
$DIMCLRD
 70
     0
  9
$DIMCLRE
 70
     0
  9
$DIMCLRT
 70
     0
  9
$DIMTFAC
 40
0.6
  9
$DIMGAP
 40
1.0
  9
$DIMJUST
 70
     0
  9
$DIMSD1
 70
     0
  9
$DIMSD2
 70
     0
  9
$DIMTOLJ
 70
     1
  9
$DIMTZIN
 70
     0
  9
$DIMALTZ
 70
     0
  9
$DIMALTTZ
 70
     0
  9
$DIMFIT
 70
     3
  9
$DIMUPT
 70
     0
  9
$DIMUNIT
 70
     2
  9
$DIMDEC
 70
     4
  9
$DIMTDEC
 70
     4
  9
$DIMALTU
 70
     2
  9
$DIMALTTD
 70
     2
  9
$DIMTXSTY
  7
STANDARD
  9
$DIMAUNIT
 70
     0
  9
$LUNITS
 70
     2
  9
$LUPREC
 70
     4
  9
$SKETCHINC
 40
0.1
  9
$FILLETRAD
 40
10.0
  9
$AUNITS
 70
     0
  9
$AUPREC
 70
     0
  9
$MENU
  1
acad
  9
$ELEVATION
 40
0.0
  9
$PELEVATION
 40
0.0
  9
$THICKNESS
 40
0.0
  9
$LIMCHECK
 70
     0
  9
$BLIPMODE
 70
     0
  9
$CHAMFERA
 40
0.0
  9
$CHAMFERB
 40
0.0
  9
$CHAMFERC
 40
0.0
  9
$CHAMFERD
 40
0.0
  9
$SKPOLY
 70
     0
  9
$TDCREATE
 40
2451466.516493518
  9
$TDUPDATE
 40
2452821.771511805
  9
$TDINDWG
 40
0.0002162037
  9
$TDUSRTIMER
 40
0.0002162037
  9
$USRTIMER
 70
     1
  9
$ANGBASE
 50
0.0
  9
$ANGDIR
 70
     0
  9
$PDMODE
 70
     0
  9
$PDSIZE
 40
0.0
  9
$PLINEWID
 40
0.0
  9
$COORDS
 70
     1
  9
$SPLFRAME
 70
     0
  9
$SPLINETYPE
 70
     6
  9
$SPLINESEGS
 70
     8
  9
$ATTDIA
 70
     0
  9
$ATTREQ
 70
     1
  9
$HANDLING
 70
     1
  9
$HANDSEED
  5
216
  9
$SURFTAB1
 70
     6
  9
$SURFTAB2
 70
     6
  9
$SURFTYPE
 70
     6
  9
$SURFU
 70
     6
  9
$SURFV
 70
     6
  9
$UCSNAME
  2

  9
$UCSORG
 10
0.0
 20
0.0
 30
0.0
  9
$UCSXDIR
 10
1.0
 20
0.0
 30
0.0
  9
$UCSYDIR
 10
0.0
 20
1.0
 30
0.0
  9
$PUCSNAME
  2

  9
$PUCSORG
 10
0.0
 20
0.0
 30
0.0
  9
$PUCSXDIR
 10
1.0
 20
0.0
 30
0.0
  9
$PUCSYDIR
 10
0.0
 20
1.0
 30
0.0
  9
$USERI1
 70
     0
  9
$USERI2
 70
     0
  9
$USERI3
 70
     0
  9
$USERI4
 70
     0
  9
$USERI5
 70
     0
  9
$USERR1
 40
0.0
  9
$USERR2
 40
0.0
  9
$USERR3
 40
0.0
  9
$USERR4
 40
0.0
  9
$USERR5
 40
0.0
  9
$WORLDVIEW
 70
     1
  9
$SHADEDGE
 70
     3
  9
$SHADEDIF
 70
    70
  9
$TILEMODE
 70
     1
  9
$MAXACTVP
 70
    16
  9
$PINSBASE
 10
0.0
 20
0.0
 30
0.0
  9
$PLIMCHECK
 70
     0
  9
$PEXTMIN
 10
1.000000E+20
 20
1.000000E+20
 30
1.000000E+20
  9
$PEXTMAX
 10
-1.000000E+20
 20
-1.000000E+20
 30
-1.000000E+20
  9
$PLIMMIN
 10
0.0
 20
0.0
  9
$PLIMMAX
 10
12.0
 20
9.0
  9
$UNITMODE
 70
     0
  9
$VISRETAIN
 70
     0
  9
$PLINEGEN
 70
     0
  9
$PSLTSCALE
 70
     1
  9
$TREEDEPTH
 70
  3020
  9
$PICKSTYLE
 70
     1
  9
$CMLSTYLE
  2
STANDARD
  9
$CMLJUST
 70
     0
  9
$CMLSCALE
 40
1.0
  9
$PROXYGRAPHICS
 70
     1
  9
$MEASUREMENT
 70
     0
  0
ENDSEC
  0
SECTION
  2
CLASSES
  0
CLASS
  1
ACDBDICTIONARYWDFLT
  2
AcDbDictionaryWithDefault
  3
AutoCAD 2000
 90
        0
280
     0
281
     0
  0
CLASS
  1
ACDBPLACEHOLDER
  2
AcDbPlaceHolder
  3
AutoCAD 2000
 90
        0
280
     0
281
     0
  0
CLASS
  1
LAYOUT
  2
AcDbLayout
  3
AutoCAD 2000
 90
        0
280
     0
281
     0
  0
CLASS
  1
DICTIONARYVAR
  2
AcDbDictionaryVar
  3
"AutoCAD"
 90
        0
280
     0
281
     0
  0
CLASS
  1
LONG_TRANSACTION
  2
AcDbLongTransaction
  3
AutoCAD 2000
 90
        0
280
     0
281
     0
  0
CLASS
  1
LWPOLYLINE
  2
AcDbPolyline
  3
"AutoCAD"
 90
        0
280
     0
281
     1
  0
CLASS
  1
HATCH
  2
AcDbHatch
  3
"ACAD_SEDONA"
 90
        0
280
     0
281
     1
  0
CLASS
  1
XRECORD
  2
AcDbXrecord
  3
"<Built In>"
 90
        0
280
     0
281
     0
  0
ENDSEC
  0
SECTION
  2
TABLES
  0
TABLE
  2
VPORT
  5
EF
100
AcDbSymbolTable
 70
     1
  0
VPORT
  5
1DD
102
{ACAD_XDICTIONARY
360
1E6
102
}
100
AcDbSymbolTableRecord
100
AcDbViewportTableRecord
  2
*ACTIVE
 70
     0
 10
0.0
 20
0.0
 11
1.0
 21
1.0
 12
148.500001
 22
157.716653
 13
0.0
 23
0.0
 14
10.0
 24
10.0
 15
10.0
 25
10.0
 16
0.0
 26
0.0
 36
1.0
 17
0.0
 27
0.0
 37
0.0
 40
346.308221
 41
1.530211
 42
50.0
 43
0.0
 44
0.0
 50
0.0
 51
0.0
 71
     0
 72
   100
 73
     1
 74
     0
 75
     0
 76
     0
 77
     0
 78
     0
  0
ENDTAB
  0
TABLE
  2
LTYPE
  5
EC
100
AcDbSymbolTable
 70
     2
  0
LTYPE
  5
FA
102
{ACAD_XDICTIONARY
360
1E2
102
}
100
AcDbSymbolTableRecord
100
AcDbLinetypeTableRecord
  2
BYBLOCK
 70
     0
  3

 72
    65
 73
     0
 40
0.0
  0
LTYPE
  5
FB
102
{ACAD_XDICTIONARY
360
1E4
102
}
100
AcDbSymbolTableRecord
100
AcDbLinetypeTableRecord
  2
BYLAYER
 70
     0
  3

 72
    65
 73
     0
 40
0.0
  0
LTYPE
  5
FC
100
AcDbSymbolTableRecord
100
AcDbLinetypeTableRecord
  2
CONTINUOUS
 70
     0
  3
Solid line
 72
    65
 73
     0
 40
0.0
  0
LTYPE
  5
10A
100
AcDbSymbolTableRecord
100
AcDbLinetypeTableRecord
  2
CENTER
 70
     0
  3
____ _ ____ _ ____ _ ____ _ ____ _ ____ _ ____
 72
    65
 73
     4
 40
17.5
 49
13.0
 74
     0
 49
-1.5
 74
     0
 49
1.5
 74
     0
 49
-1.5
 74
     0
  0
ENDTAB
  0
TABLE
  2
LAYER
  5
E9
100
AcDbSymbolTable
 70
     2
  0
LAYER
  5
F7
100
AcDbSymbolTableRecord
100
AcDbLayerTableRecord
  2
0
 70
     0
 62
     7
  6
CONTINUOUS
  0
LAYER
  5
10B
100
AcDbSymbolTableRecord
100
AcDbLayerTableRecord
  2
CENTER
 70
     0
 62
     1
  6
CENTER
  0
ENDTAB
  0
TABLE
  2
STYLE
  5
EA
100
AcDbSymbolTable
 70
     1
  0
STYLE
  5
F8
100
AcDbSymbolTableRecord
100
AcDbTextStyleTableRecord
  2
STANDARD
 70
     0
 40
0.0
 41
1.0
 50
0.0
 71
     0
 42
3.2
  3
txt
  4

  0
ENDTAB
  0
TABLE
  2
VIEW
  5
ED
100
AcDbSymbolTable
 70
     0
  0
ENDTAB
  0
TABLE
  2
UCS
  5
EE
100
AcDbSymbolTable
 70
     0
  0
ENDTAB
  0
TABLE
  2
APPID
  5
F0
100
AcDbSymbolTable
 70
     1
  0
APPID
  5
F9
100
AcDbSymbolTableRecord
100
AcDbRegAppTableRecord
  2
ACAD
 70
     0
  0
ENDTAB
  0
TABLE
  2
DIMSTYLE
  5
F1
100
AcDbSymbolTable
 70
     1
  0
DIMSTYLE
105
10C
102
{ACAD_XDICTIONARY
360
20F
102
}
100
AcDbSymbolTableRecord
100
AcDbDimStyleTableRecord
  2
AA1
 70
     0
  3

  4

  5

  6

  7

 40
1.0
 41
3.0
 42
1.0
 43
0.0
 44
1.0
 45
0.0
 46
0.0
 47
0.0
 48
0.0
140
3.2
141
0.0
142
0.0
143
0.04
144
1.0
145
1.0
146
0.6
147
1.0
 71
     0
 72
     0
 73
     0
 74
     0
 75
     0
 76
     0
 77
     3
 78
     8
170
     0
171
     2
172
     1
173
     1
174
     1
175
     0
176
     0
177
     0
178
     0
270
     2
271
     4
272
     4
273
     2
274
     2
340
F8
275
     0
280
     0
281
     0
282
     0
283
     1
284
     8
285
     8
286
     8
287
     5
288
     0
  0
ENDTAB
  0
TABLE
  2
BLOCK_RECORD
  5
E8
100
AcDbSymbolTable
 70
     3
  0
BLOCK_RECORD
  5
105
102
{ACAD_XDICTIONARY
360
1DE
102
}
100
AcDbSymbolTableRecord
100
AcDbBlockTableRecord
  2
*MODEL_SPACE
  0
BLOCK_RECORD
  5
101
102
{ACAD_XDICTIONARY
360
1E0
102
}
100
AcDbSymbolTableRecord
100
AcDbBlockTableRecord
  2
*PAPER_SPACE
  0
BLOCK_RECORD
  5
10E
100
AcDbSymbolTableRecord
100
AcDbBlockTableRecord
  2
$MODEL_SPACE
  0
BLOCK_RECORD
  5
111
100
AcDbSymbolTableRecord
100
AcDbBlockTableRecord
  2
$PAPER_SPACE
  0
BLOCK_RECORD
  5
114
100
AcDbSymbolTableRecord
100
AcDbBlockTableRecord
  2
_OPEN
  0
ENDTAB
  0
ENDSEC
  0
SECTION
  2
BLOCKS
  0
BLOCK
  5
106
100
AcDbEntity
  8
0
100
AcDbBlockBegin
  2
*MODEL_SPACE
 70
     0
 10
0.0
 20
0.0
 30
0.0
  3
*MODEL_SPACE
  1

  0
ENDBLK
  5
107
100
AcDbEntity
  8
0
100
AcDbBlockEnd
  0
BLOCK
  5
102
100
AcDbEntity
 67
     1
  8
0
100
AcDbBlockBegin
  2
*PAPER_SPACE
 70
     0
 10
0.0
 20
0.0
 30
0.0
  3
*PAPER_SPACE
  1

  0
ENDBLK
  5
103
100
AcDbEntity
 67
     1
  8
0
100
AcDbBlockEnd
  0
BLOCK
  5
10F
100
AcDbEntity
  8
0
100
AcDbBlockBegin
  2
$MODEL_SPACE
 70
     0
 10
0.0
 20
0.0
 30
0.0
  3
$MODEL_SPACE
  1

  0
ENDBLK
  5
110
100
AcDbEntity
  8
0
100
AcDbBlockEnd
  0
BLOCK
  5
112
100
AcDbEntity
  8
0
100
AcDbBlockBegin
  2
$PAPER_SPACE
 70
     0
 10
0.0
 20
0.0
 30
0.0
  3
$PAPER_SPACE
  1

  0
ENDBLK
  5
113
100
AcDbEntity
  8
0
100
AcDbBlockEnd
  0
BLOCK
  5
115
100
AcDbEntity
  8
0
100
AcDbBlockBegin
  2
_OPEN
 70
     0
 10
0.0
 20
0.0
 30
0.0
  3
_OPEN
  1
ARROW3
  0
LINE
  5
116
100
AcDbEntity
  8
0
  6
BYBLOCK
 62
     0
100
AcDbLine
 10
-1.0
 20
0.166667
 30
0.0
 11
0.0
 21
0.0
 31
0.0
  0
LINE
  5
117
100
AcDbEntity
  8
0
  6
BYBLOCK
 62
     0
100
AcDbLine
 10
0.0
 20
0.0
 30
0.0
 11
-1.0
 21
-0.166667
 31
0.0
  0
LINE
  5
118
100
AcDbEntity
  8
0
  6
BYBLOCK
 62
     0
100
AcDbLine
 10
0.0
 20
0.0
 30
0.0
 11
-1.0
 21
0.0
 31
0.0
  0
ENDBLK
  5
119
100
AcDbEntity
  8
0
100
AcDbBlockEnd
  0
ENDSEC
  0
SECTION
  2
ENTITIES
  0
LINE
  5
11A
100
AcDbEntity
  8
0
100
AcDbLine
 10
113.177615
 20
111.125596
 30
0.0
 11
113.177615
 21
100.425596
 31
0.0
  0
LINE
  5
11B
100
AcDbEntity
  8
0
100
AcDbLine
 10
120.177615
 20
88.925596
 30
0.0
 11
120.177615
 21
111.925596
 31
0.0
  0
LINE
  5
11C
100
AcDbEntity
  8
0
100
AcDbLine
 10
121.337616
 20
88.925596
 30
0.0
 11
121.337616
 21
111.925596
 31
0.0
  0
LINE
  5
11D
100
AcDbEntity
  8
0
100
AcDbLine
 10
123.177615
 20
122.925596
 30
0.0
 11
123.177615
 21
77.925596
 31
0.0
  0
LINE
  5
11E
100
AcDbEntity
  8
0
100
AcDbLine
 10
111.177615
 20
77.925596
 30
0.0
 11
111.177615
 21
122.925596
 31
0.0
  0
LINE
  5
121
100
AcDbEntity
  8
CENTER
  6
CENTER
 62
     1
100
AcDbLine
 10
108.939087
 20
100.425596
 30
0.0
 11
126.748405
 21
100.425596
 31
0.0
  0
LINE
  5
122
100
AcDbEntity
  8
CENTER
  6
CENTER
 62
     1
100
AcDbLine
 10
108.729802
 20
82.925596
 30
0.0
 11
124.896236
 21
82.925596
 31
0.0
  0
LINE
  5
123
100
AcDbEntity
  8
0
100
AcDbLine
 10
111.177615
 20
85.075596
 30
0.0
 11
118.777615
 21
85.075596
 31
0.0
  0
LINE
  5
124
100
AcDbEntity
  8
0
100
AcDbLine
 10
111.177615
 20
80.775596
 30
0.0
 11
118.777615
 21
80.775596
 31
0.0
  0
LINE
  5
125
100
AcDbEntity
  8
0
 62
     3
100
AcDbLine
 10
111.177615
 20
80.425596
 30
0.0
 11
118.777615
 21
80.425596
 31
0.0
  0
LINE
  5
126
100
AcDbEntity
  8
0
 62
     3
100
AcDbLine
 10
111.177615
 20
85.425596
 30
0.0
 11
118.777615
 21
85.425596
 31
0.0
  0
LINE
  5
127
100
AcDbEntity
  8
0
100
AcDbLine
 10
123.177615
 20
77.925596
 30
0.0
 11
111.177615
 21
77.925596
 31
0.0
  0
LINE
  5
128
100
AcDbEntity
  8
0
100
AcDbLine
 10
118.777615
 20
78.925596
 30
0.0
 11
118.777615
 21
86.925596
 31
0.0
  0
LINE
  5
129
100
AcDbEntity
  8
0
100
AcDbLine
 10
118.777615
 20
79.675596
 30
0.0
 11
118.777615
 21
86.175596
 31
0.0
  0
LINE
  5
12A
100
AcDbEntity
  8
0
100
AcDbLine
 10
118.777615
 20
78.925596
 30
0.0
 11
123.177615
 21
78.925596
 31
0.0
  0
LINE
  5
12B
100
AcDbEntity
  8
0
100
AcDbLine
 10
118.777615
 20
86.925596
 30
0.0
 11
123.177615
 21
86.925596
 31
0.0
  0
LINE
  5
12C
100
AcDbEntity
  8
0
100
AcDbLine
 10
119.877615
 20
104.425596
 30
0.0
 11
113.477615
 21
104.425596
 31
0.0
  0
ARC
  5
12D
100
AcDbEntity
  8
0
100
AcDbCircle
 10
113.878665
 20
90.741226
 30
0.0
 40
0.29895
100
AcDbArc
 50
209.99983
 51
0.0
  0
LINE
  5
12E
100
AcDbEntity
  8
0
100
AcDbLine
 10
113.626404
 20
90.842285
 30
0.0
 11
113.735235
 21
90.658416
 31
0.0
  0
LINE
  5
12F
100
AcDbEntity
  8
0
100
AcDbLine
 10
113.741875
 20
90.908946
 30
0.0
 11
113.626404
 21
90.842285
 31
0.0
  0
LINE
  5
130
100
AcDbEntity
  8
0
100
AcDbLine
 10
113.675215
 20
91.024426
 30
0.0
 11
113.741875
 21
90.908996
 31
0.0
  0
LINE
  5
131
100
AcDbEntity
  8
0
100
AcDbLine
 10
113.510945
 20
94.325606
 30
0.0
 11
113.725558
 21
94.588029
 31
0.0
  0
LINE
  5
132
100
AcDbEntity
  8
0
100
AcDbLine
 10
119.877615
 20
96.425596
 30
0.0
 11
113.477615
 21
96.425596
 31
0.0
  0
LINE
  5
133
100
AcDbEntity
  8
0
100
AcDbLine
 10
113.477615
 20
89.425596
 30
0.0
 11
120.177615
 21
89.425596
 31
0.0
  0
LINE
  5
134
100
AcDbEntity
  8
0
100
AcDbLine
 10
113.177615
 20
89.725596
 30
0.0
 11
113.177615
 21
100.425596
 31
0.0
  0
LINE
  5
135
100
AcDbEntity
  8
0
100
AcDbLine
 10
111.177615
 20
91.425596
 30
0.0
 11
113.177615
 21
91.425596
 31
0.0
  0
LINE
  5
136
100
AcDbEntity
  8
0
100
AcDbLine
 10
113.177645
 20
90.675616
 30
0.0
 11
113.277635
 21
90.775636
 31
0.0
  0
LINE
  5
137
100
AcDbEntity
  8
0
100
AcDbLine
 10
113.559745
 20
90.957776
 30
0.0
 11
113.675225
 21
91.024426
 31
0.0
  0
ARC
  5
138
100
AcDbEntity
  8
0
100
AcDbCircle
 10
113.477615
 20
89.725596
 30
0.0
 40
0.3
100
AcDbArc
 50
180.0
 51
270.0
  0
LINE
  5
139
100
AcDbEntity
  8
0
100
AcDbLine
 10
113.510943
 20
90.775606
 30
0.0
 11
113.619735
 21
90.591776
 31
0.0
  0
LINE
  5
13A
100
AcDbEntity
  8
0
100
AcDbLine
 10
113.277615
 20
90.775606
 30
0.0
 11
113.510943
 21
90.775606
 31
0.0
  0
ARC
  5
13B
100
AcDbEntity
  8
0
100
AcDbCircle
 10
113.626418
 20
90.842283
 30
0.0
 40
0.133343
100
AcDbArc
 50
119.998747
 51
210.003098
  0
LINE
  5
13C
100
AcDbEntity
  8
0
100
AcDbLine
 10
111.177615
 20
89.175596
 30
0.0
 11
111.177615
 21
89.175696
 31
0.0
  0
ARC
  5
13D
100
AcDbEntity
  8
0
100
AcDbCircle
 10
113.477615
 20
96.125596
 30
0.0
 40
0.3
100
AcDbArc
 50
90.0
 51
180.0
  0
LINE
  5
13E
100
AcDbEntity
  8
0
100
AcDbLine
 10
113.277615
 20
94.325606
 30
0.0
 11
113.510945
 21
94.325606
 31
0.0
  0
LINE
  5
13F
100
AcDbEntity
  8
0
100
AcDbLine
 10
113.177605
 20
94.425576
 30
0.0
 11
113.277605
 21
94.325586
 31
0.0
  0
LINE
  5
140
100
AcDbEntity
  8
0
100
AcDbLine
 10
111.177615
 20
100.425596
 30
0.0
 11
111.177715
 21
100.425596
 31
0.0
  0
ARC
  5
141
100
AcDbEntity
  8
0
100
AcDbCircle
 10
113.477615
 20
104.725596
 30
0.0
 40
0.3
100
AcDbArc
 50
180.0
 51
270.0
  0
ARC
  5
142
100
AcDbEntity
  8
0
100
AcDbCircle
 10
119.458395
 20
94.444306
 30
0.0
 40
0.22359
100
AcDbArc
 50
40.00096
 51
163.1517
  0
LINE
  5
143
100
AcDbEntity
  8
0
100
AcDbLine
 10
119.310945
 20
91.475606
 30
0.0
 11
119.577615
 21
91.742276
 31
0.0
  0
ARC
  5
144
100
AcDbEntity
  8
0
100
AcDbCircle
 10
119.444275
 20
93.927276
 30
0.0
 40
0.13335
100
AcDbArc
 50
0.00005
 51
90.00003
  0
ARC
  5
145
100
AcDbEntity
  8
0
100
AcDbCircle
 10
119.476565
 20
90.741226
 30
0.0
 40
0.16561
100
AcDbArc
 50
180.0
 51
330.00436
  0
ARC
  5
146
100
AcDbEntity
  8
0
100
AcDbCircle
 10
119.476565
 20
90.741226
 30
0.0
 40
0.29895
100
AcDbArc
 50
180.0
 51
330.00017
  0
LINE
  5
147
100
AcDbEntity
  8
0
100
AcDbLine
 10
119.444265
 20
93.927286
 30
0.0
 11
119.444265
 21
91.797496
 31
0.0
  0
LINE
  5
148
100
AcDbEntity
  8
0
100
AcDbLine
 10
113.910965
 20
93.927286
 30
0.0
 11
113.910965
 21
91.797496
 31
0.0
  0
LINE
  5
149
100
AcDbEntity
  8
0
100
AcDbLine
 10
113.777615
 20
91.742276
 30
0.0
 11
113.777615
 21
93.927276
 31
0.0
  0
CIRCLE
  5
14A
100
AcDbEntity
  8
0
100
AcDbCircle
 10
116.677615
 20
92.825606
 30
0.0
 40
2.0
  0
ARC
  5
14B
100
AcDbEntity
  8
0
100
AcDbCircle
 10
113.878665
 20
90.741226
 30
0.0
 40
0.16561
100
AcDbArc
 50
209.99564
 51
0.0
  0
LINE
  5
14C
100
AcDbEntity
  8
0
100
AcDbLine
 10
114.177625
 20
91.375606
 30
0.0
 11
114.277625
 21
91.475616
 31
0.0
  0
LINE
  5
14D
100
AcDbEntity
  8
0
100
AcDbLine
 10
114.177615
 20
90.741226
 30
0.0
 11
114.177615
 21
91.530836
 31
0.0
  0
LINE
  5
14E
100
AcDbEntity
  8
0
100
AcDbLine
 10
114.177615
 20
91.530836
 30
0.0
 11
113.910965
 21
91.797496
 31
0.0
  0
LINE
  5
14F
100
AcDbEntity
  8
0
100
AcDbLine
 10
114.044285
 20
90.741226
 30
0.0
 11
114.044285
 21
91.475606
 31
0.0
  0
LINE
  5
150
100
AcDbEntity
  8
0
100
AcDbLine
 10
114.044285
 20
91.475606
 30
0.0
 11
113.777615
 21
91.742276
 31
0.0
  0
LINE
  5
151
100
AcDbEntity
  8
0
100
AcDbLine
 10
114.277615
 20
91.475596
 30
0.0
 11
115.201975
 21
91.475596
 31
0.0
  0
LINE
  5
152
100
AcDbEntity
  8
0
100
AcDbLine
 10
119.310945
 20
90.741226
 30
0.0
 11
119.310945
 21
91.475606
 31
0.0
  0
LINE
  5
153
100
AcDbEntity
  8
0
100
AcDbLine
 10
119.177615
 20
91.530836
 30
0.0
 11
119.444265
 21
91.797496
 31
0.0
  0
LINE
  5
154
100
AcDbEntity
  8
0
100
AcDbLine
 10
119.177615
 20
90.741226
 30
0.0
 11
119.177615
 21
91.530836
 31
0.0
  0
LINE
  5
155
100
AcDbEntity
  8
0
100
AcDbLine
 10
119.177605
 20
91.375606
 30
0.0
 11
119.077605
 21
91.475616
 31
0.0
  0
LINE
  5
156
100
AcDbEntity
  8
0
100
AcDbLine
 10
119.077615
 20
91.475596
 30
0.0
 11
118.153255
 21
91.475596
 31
0.0
  0
ARC
  5
157
100
AcDbEntity
  8
0
100
AcDbCircle
 10
113.896835
 20
94.444306
 30
0.0
 40
0.22359
100
AcDbArc
 50
16.8483
 51
139.99904
  0
ARC
  5
158
100
AcDbEntity
  8
0
100
AcDbCircle
 10
113.910955
 20
93.927276
 30
0.0
 40
0.13335
100
AcDbArc
 50
89.99997
 51
179.99995
  0
LINE
  5
159
100
AcDbEntity
  8
0
100
AcDbLine
 10
114.216195
 20
94.219576
 30
0.0
 11
114.316195
 21
94.125606
 31
0.0
  0
LINE
  5
15A
100
AcDbEntity
  8
0
100
AcDbLine
 10
114.110955
 20
93.927276
 30
0.0
 11
113.910955
 21
93.927276
 31
0.0
  0
LINE
  5
15B
100
AcDbEntity
  8
0
100
AcDbLine
 10
114.110955
 20
94.060606
 30
0.0
 11
114.110955
 21
93.927286
 31
0.0
  0
LINE
  5
15C
100
AcDbEntity
  8
0
100
AcDbLine
 10
113.910955
 20
94.060606
 30
0.0
 11
114.110955
 21
94.060606
 31
0.0
  0
LINE
  5
15D
100
AcDbEntity
  8
0
100
AcDbLine
 10
114.110815
 20
94.509076
 30
0.0
 11
114.216195
 21
94.219546
 31
0.0
  0
LINE
  5
15E
100
AcDbEntity
  8
0
100
AcDbLine
 10
114.316205
 20
94.125606
 30
0.0
 11
115.157745
 21
94.125606
 31
0.0
  0
LINE
  5
15F
100
AcDbEntity
  8
0
100
AcDbLine
 10
119.444275
 20
94.060606
 30
0.0
 11
119.244275
 21
94.060606
 31
0.0
  0
LINE
  5
160
100
AcDbEntity
  8
0
100
AcDbLine
 10
119.244275
 20
94.060606
 30
0.0
 11
119.244275
 21
93.927286
 31
0.0
  0
LINE
  5
161
100
AcDbEntity
  8
0
100
AcDbLine
 10
119.244275
 20
93.927276
 30
0.0
 11
119.444275
 21
93.927276
 31
0.0
  0
LINE
  5
162
100
AcDbEntity
  8
0
100
AcDbLine
 10
119.139035
 20
94.219576
 30
0.0
 11
119.039035
 21
94.125606
 31
0.0
  0
LINE
  5
163
100
AcDbEntity
  8
0
100
AcDbLine
 10
119.244415
 20
94.509076
 30
0.0
 11
119.139035
 21
94.219546
 31
0.0
  0
LINE
  5
164
100
AcDbEntity
  8
0
100
AcDbLine
 10
119.039025
 20
94.125606
 30
0.0
 11
118.197485
 21
94.125606
 31
0.0
  0
LINE
  5
165
100
AcDbEntity
  8
0
100
AcDbLine
 10
119.577615
 20
91.742276
 30
0.0
 11
119.577615
 21
93.927276
 31
0.0
  0
LINE
  5
166
100
AcDbEntity
  8
0
100
AcDbLine
 10
123.177615
 20
89.425596
 30
0.0
 11
121.337616
 21
89.425596
 31
0.0
  0
LINE
  5
167
100
AcDbEntity
  8
0
100
AcDbLine
 10
120.177615
 20
90.925596
 30
0.0
 11
121.337616
 21
90.925596
 31
0.0
  0
LINE
  5
168
100
AcDbEntity
  8
0
100
AcDbLine
 10
120.177615
 20
88.925596
 30
0.0
 11
121.337616
 21
88.925596
 31
0.0
  0
ARC
  5
169
100
AcDbEntity
  8
0
100
AcDbCircle
 10
119.877615
 20
89.725596
 30
0.0
 40
0.3
100
AcDbArc
 50
270.0
 51
0.0
  0
ARC
  5
16A
100
AcDbEntity
  8
0
100
AcDbCircle
 10
119.728813
 20
90.842283
 30
0.0
 40
0.133343
100
AcDbArc
 50
329.996902
 51
60.001253
  0
LINE
  5
16B
100
AcDbEntity
  8
0
100
AcDbLine
 10
120.077615
 20
90.775606
 30
0.0
 11
119.844288
 21
90.775606
 31
0.0
  0
LINE
  5
16C
100
AcDbEntity
  8
0
100
AcDbLine
 10
119.844288
 20
90.775606
 30
0.0
 11
119.735495
 21
90.591776
 31
0.0
  0
LINE
  5
16D
100
AcDbEntity
  8
0
100
AcDbLine
 10
119.680015
 20
91.024426
 30
0.0
 11
119.613355
 21
90.908996
 31
0.0
  0
LINE
  5
16E
100
AcDbEntity
  8
0
100
AcDbLine
 10
119.613355
 20
90.908946
 30
0.0
 11
119.728827
 21
90.842285
 31
0.0
  0
LINE
  5
16F
100
AcDbEntity
  8
0
100
AcDbLine
 10
119.728827
 20
90.842285
 30
0.0
 11
119.619995
 21
90.658416
 31
0.0
  0
LINE
  5
170
100
AcDbEntity
  8
0
100
AcDbLine
 10
119.795485
 20
90.957776
 30
0.0
 11
119.680005
 21
91.024426
 31
0.0
  0
LINE
  5
171
100
AcDbEntity
  8
0
100
AcDbLine
 10
120.177585
 20
90.675616
 30
0.0
 11
120.077595
 21
90.775636
 31
0.0
  0
ARC
  5
172
100
AcDbEntity
  8
0
100
AcDbCircle
 10
119.877615
 20
96.125596
 30
0.0
 40
0.3
100
AcDbArc
 50
0.0
 51
90.0
  0
LINE
  5
173
100
AcDbEntity
  8
0
100
AcDbLine
 10
120.177625
 20
94.425576
 30
0.0
 11
120.077625
 21
94.325586
 31
0.0
  0
LINE
  5
174
100
AcDbEntity
  8
0
100
AcDbLine
 10
120.077615
 20
94.325606
 30
0.0
 11
119.844285
 21
94.325606
 31
0.0
  0
LINE
  5
175
100
AcDbEntity
  8
0
100
AcDbLine
 10
119.844285
 20
94.325606
 30
0.0
 11
119.629673
 21
94.588029
 31
0.0
  0
ARC
  5
176
100
AcDbEntity
  8
0
100
AcDbCircle
 10
119.877615
 20
104.725596
 30
0.0
 40
0.3
100
AcDbArc
 50
270.0
 51
0.0
  0
LINE
  5
177
100
AcDbEntity
  8
0
100
AcDbLine
 10
118.777615
 20
121.925596
 30
0.0
 11
118.777615
 21
113.925596
 31
0.0
  0
LINE
  5
178
100
AcDbEntity
  8
CENTER
  6
CENTER
 62
     1
100
AcDbLine
 10
108.729802
 20
117.925596
 30
0.0
 11
124.896236
 21
117.925596
 31
0.0
  0
LINE
  5
179
100
AcDbEntity
  8
0
100
AcDbLine
 10
111.177615
 20
120.075596
 30
0.0
 11
118.777615
 21
120.075596
 31
0.0
  0
LINE
  5
17A
100
AcDbEntity
  8
0
100
AcDbLine
 10
111.177615
 20
115.775596
 30
0.0
 11
118.777615
 21
115.775596
 31
0.0
  0
LINE
  5
17B
100
AcDbEntity
  8
0
100
AcDbLine
 10
113.510945
 20
106.525586
 30
0.0
 11
113.725558
 21
106.263162
 31
0.0
  0
LINE
  5
17C
100
AcDbEntity
  8
0
100
AcDbLine
 10
113.675215
 20
109.826766
 30
0.0
 11
113.741875
 21
109.942196
 31
0.0
  0
LINE
  5
17D
100
AcDbEntity
  8
0
100
AcDbLine
 10
113.741875
 20
109.942246
 30
0.0
 11
113.626404
 21
110.008906
 31
0.0
  0
LINE
  5
17E
100
AcDbEntity
  8
0
100
AcDbLine
 10
113.626404
 20
110.008906
 30
0.0
 11
113.735235
 21
110.192776
 31
0.0
  0
ARC
  5
17F
100
AcDbEntity
  8
0
100
AcDbCircle
 10
113.878665
 20
110.109966
 30
0.0
 40
0.29895
100
AcDbArc
 50
0.0
 51
150.00017
  0
LINE
  5
180
100
AcDbEntity
  8
0
100
AcDbLine
 10
113.477615
 20
111.425596
 30
0.0
 11
120.177615
 21
111.425596
 31
0.0
  0
LINE
  5
181
100
AcDbEntity
  8
0
 62
     3
100
AcDbLine
 10
111.177615
 20
115.425596
 30
0.0
 11
118.777615
 21
115.425596
 31
0.0
  0
LINE
  5
182
100
AcDbEntity
  8
0
 62
     3
100
AcDbLine
 10
111.177615
 20
120.425596
 30
0.0
 11
118.777615
 21
120.425596
 31
0.0
  0
LINE
  5
183
100
AcDbEntity
  8
0
100
AcDbLine
 10
113.177605
 20
106.425616
 30
0.0
 11
113.277605
 21
106.525606
 31
0.0
  0
LINE
  5
184
100
AcDbEntity
  8
0
100
AcDbLine
 10
113.277615
 20
106.525586
 30
0.0
 11
113.510945
 21
106.525586
 31
0.0
  0
ARC
  5
185
100
AcDbEntity
  8
0
100
AcDbCircle
 10
113.626418
 20
110.008908
 30
0.0
 40
0.133343
100
AcDbArc
 50
149.996902
 51
240.001253
  0
LINE
  5
186
100
AcDbEntity
  8
0
100
AcDbLine
 10
113.277615
 20
110.075586
 30
0.0
 11
113.510943
 21
110.075586
 31
0.0
  0
LINE
  5
187
100
AcDbEntity
  8
0
100
AcDbLine
 10
113.510943
 20
110.075586
 30
0.0
 11
113.619735
 21
110.259416
 31
0.0
  0
ARC
  5
188
100
AcDbEntity
  8
0
100
AcDbCircle
 10
113.477615
 20
111.125596
 30
0.0
 40
0.3
100
AcDbArc
 50
90.0
 51
180.0
  0
LINE
  5
189
100
AcDbEntity
  8
0
100
AcDbLine
 10
113.559745
 20
109.893416
 30
0.0
 11
113.675225
 21
109.826766
 31
0.0
  0
LINE
  5
18A
100
AcDbEntity
  8
0
100
AcDbLine
 10
113.177645
 20
110.175576
 30
0.0
 11
113.277635
 21
110.075556
 31
0.0
  0
LINE
  5
18B
100
AcDbEntity
  8
0
100
AcDbLine
 10
111.177615
 20
109.425596
 30
0.0
 11
113.177615
 21
109.425596
 31
0.0
  0
ARC
  5
18C
100
AcDbEntity
  8
0
100
AcDbCircle
 10
119.476565
 20
110.109966
 30
0.0
 40
0.29895
100
AcDbArc
 50
29.99983
 51
180.0
  0
ARC
  5
18D
100
AcDbEntity
  8
0
100
AcDbCircle
 10
119.476565
 20
110.109966
 30
0.0
 40
0.16561
100
AcDbArc
 50
29.99564
 51
180.0
  0
ARC
  5
18E
100
AcDbEntity
  8
0
100
AcDbCircle
 10
119.444275
 20
106.923916
 30
0.0
 40
0.13335
100
AcDbArc
 50
269.99997
 51
359.99995
  0
LINE
  5
18F
100
AcDbEntity
  8
0
100
AcDbLine
 10
119.310945
 20
109.375586
 30
0.0
 11
119.577615
 21
109.108916
 31
0.0
  0
ARC
  5
190
100
AcDbEntity
  8
0
100
AcDbCircle
 10
119.458395
 20
106.406886
 30
0.0
 40
0.22359
100
AcDbArc
 50
196.8483
 51
319.99904
  0
LINE
  5
191
100
AcDbEntity
  8
0
100
AcDbLine
 10
119.177615
 20
109.320356
 30
0.0
 11
119.444265
 21
109.053696
 31
0.0
  0
LINE
  5
192
100
AcDbEntity
  8
0
100
AcDbLine
 10
114.177615
 20
109.320356
 30
0.0
 11
113.910965
 21
109.053696
 31
0.0
  0
LINE
  5
193
100
AcDbEntity
  8
0
100
AcDbLine
 10
113.777615
 20
109.108916
 30
0.0
 11
113.777615
 21
106.923916
 31
0.0
  0
CIRCLE
  5
194
100
AcDbEntity
  8
0
100
AcDbCircle
 10
116.677615
 20
108.025586
 30
0.0
 40
2.0
  0
LINE
  5
195
100
AcDbEntity
  8
0
100
AcDbLine
 10
114.110815
 20
106.342116
 30
0.0
 11
114.216195
 21
106.631646
 31
0.0
  0
LINE
  5
196
100
AcDbEntity
  8
0
100
AcDbLine
 10
113.910965
 20
106.923906
 30
0.0
 11
113.910965
 21
109.053696
 31
0.0
  0
LINE
  5
197
100
AcDbEntity
  8
0
100
AcDbLine
 10
113.910955
 20
106.790586
 30
0.0
 11
114.110955
 21
106.790586
 31
0.0
  0
LINE
  5
198
100
AcDbEntity
  8
0
100
AcDbLine
 10
114.110955
 20
106.790586
 30
0.0
 11
114.110955
 21
106.923906
 31
0.0
  0
LINE
  5
199
100
AcDbEntity
  8
0
100
AcDbLine
 10
114.110955
 20
106.923916
 30
0.0
 11
113.910955
 21
106.923916
 31
0.0
  0
LINE
  5
19A
100
AcDbEntity
  8
0
100
AcDbLine
 10
114.216195
 20
106.631616
 30
0.0
 11
114.316195
 21
106.725586
 31
0.0
  0
ARC
  5
19B
100
AcDbEntity
  8
0
100
AcDbCircle
 10
113.910955
 20
106.923916
 30
0.0
 40
0.13335
100
AcDbArc
 50
180.00005
 51
270.00003
  0
ARC
  5
19C
100
AcDbEntity
  8
0
100
AcDbCircle
 10
113.896835
 20
106.406886
 30
0.0
 40
0.22359
100
AcDbArc
 50
220.00096
 51
343.1517
  0
LINE
  5
19D
100
AcDbEntity
  8
0
100
AcDbLine
 10
114.316205
 20
106.725586
 30
0.0
 11
115.157745
 21
106.725586
 31
0.0
  0
LINE
  5
19E
100
AcDbEntity
  8
0
100
AcDbLine
 10
119.244415
 20
106.342116
 30
0.0
 11
119.139035
 21
106.631646
 31
0.0
  0
LINE
  5
19F
100
AcDbEntity
  8
0
100
AcDbLine
 10
119.139035
 20
106.631616
 30
0.0
 11
119.039035
 21
106.725586
 31
0.0
  0
LINE
  5
1A0
100
AcDbEntity
  8
0
100
AcDbLine
 10
119.244275
 20
106.923916
 30
0.0
 11
119.444275
 21
106.923916
 31
0.0
  0
LINE
  5
1A1
100
AcDbEntity
  8
0
100
AcDbLine
 10
119.244275
 20
106.790586
 30
0.0
 11
119.244275
 21
106.923906
 31
0.0
  0
LINE
  5
1A2
100
AcDbEntity
  8
0
100
AcDbLine
 10
119.444275
 20
106.790586
 30
0.0
 11
119.244275
 21
106.790586
 31
0.0
  0
LINE
  5
1A3
100
AcDbEntity
  8
0
100
AcDbLine
 10
119.444265
 20
106.923906
 30
0.0
 11
119.444265
 21
109.053696
 31
0.0
  0
LINE
  5
1A4
100
AcDbEntity
  8
0
100
AcDbLine
 10
119.039025
 20
106.725586
 30
0.0
 11
118.197485
 21
106.725586
 31
0.0
  0
LINE
  5
1A5
100
AcDbEntity
  8
0
100
AcDbLine
 10
114.044285
 20
109.375586
 30
0.0
 11
113.777615
 21
109.108916
 31
0.0
  0
LINE
  5
1A6
100
AcDbEntity
  8
0
100
AcDbLine
 10
114.044285
 20
110.109966
 30
0.0
 11
114.044285
 21
109.375586
 31
0.0
  0
LINE
  5
1A7
100
AcDbEntity
  8
0
100
AcDbLine
 10
114.177615
 20
110.109966
 30
0.0
 11
114.177615
 21
109.320356
 31
0.0
  0
LINE
  5
1A8
100
AcDbEntity
  8
0
100
AcDbLine
 10
114.177625
 20
109.475586
 30
0.0
 11
114.277625
 21
109.375576
 31
0.0
  0
ARC
  5
1A9
100
AcDbEntity
  8
0
100
AcDbCircle
 10
113.878665
 20
110.109966
 30
0.0
 40
0.16561
100
AcDbArc
 50
0.0
 51
150.00436
  0
LINE
  5
1AA
100
AcDbEntity
  8
0
100
AcDbLine
 10
114.277615
 20
109.375596
 30
0.0
 11
115.201975
 21
109.375596
 31
0.0
  0
LINE
  5
1AB
100
AcDbEntity
  8
0
100
AcDbLine
 10
119.177605
 20
109.475586
 30
0.0
 11
119.077605
 21
109.375576
 31
0.0
  0
LINE
  5
1AC
100
AcDbEntity
  8
0
100
AcDbLine
 10
119.177615
 20
110.109966
 30
0.0
 11
119.177615
 21
109.320356
 31
0.0
  0
LINE
  5
1AD
100
AcDbEntity
  8
0
100
AcDbLine
 10
119.310945
 20
110.109966
 30
0.0
 11
119.310945
 21
109.375586
 31
0.0
  0
LINE
  5
1AE
100
AcDbEntity
  8
0
100
AcDbLine
 10
119.077615
 20
109.375596
 30
0.0
 11
118.153255
 21
109.375596
 31
0.0
  0
LINE
  5
1AF
100
AcDbEntity
  8
0
100
AcDbLine
 10
119.577615
 20
109.108916
 30
0.0
 11
119.577615
 21
106.923916
 31
0.0
  0
LINE
  5
1B0
100
AcDbEntity
  8
0
100
AcDbLine
 10
119.844285
 20
106.525586
 30
0.0
 11
119.629673
 21
106.263162
 31
0.0
  0
LINE
  5
1B1
100
AcDbEntity
  8
0
100
AcDbLine
 10
120.077615
 20
106.525586
 30
0.0
 11
119.844285
 21
106.525586
 31
0.0
  0
LINE
  5
1B2
100
AcDbEntity
  8
0
100
AcDbLine
 10
120.177625
 20
106.425616
 30
0.0
 11
120.077625
 21
106.525606
 31
0.0
  0
LINE
  5
1B3
100
AcDbEntity
  8
0
100
AcDbLine
 10
123.177615
 20
111.425596
 30
0.0
 11
121.337616
 21
111.425596
 31
0.0
  0
LINE
  5
1B4
100
AcDbEntity
  8
0
100
AcDbLine
 10
120.177615
 20
109.925596
 30
0.0
 11
121.337616
 21
109.925596
 31
0.0
  0
LINE
  5
1B5
100
AcDbEntity
  8
0
100
AcDbLine
 10
120.177585
 20
110.175576
 30
0.0
 11
120.077595
 21
110.075556
 31
0.0
  0
LINE
  5
1B6
100
AcDbEntity
  8
0
100
AcDbLine
 10
119.795485
 20
109.893416
 30
0.0
 11
119.680005
 21
109.826766
 31
0.0
  0
LINE
  5
1B7
100
AcDbEntity
  8
0
100
AcDbLine
 10
119.728827
 20
110.008906
 30
0.0
 11
119.619995
 21
110.192776
 31
0.0
  0
LINE
  5
1B8
100
AcDbEntity
  8
0
100
AcDbLine
 10
119.613355
 20
109.942246
 30
0.0
 11
119.728827
 21
110.008906
 31
0.0
  0
LINE
  5
1B9
100
AcDbEntity
  8
0
100
AcDbLine
 10
119.680015
 20
109.826766
 30
0.0
 11
119.613355
 21
109.942196
 31
0.0
  0
LINE
  5
1BA
100
AcDbEntity
  8
0
100
AcDbLine
 10
119.844288
 20
110.075586
 30
0.0
 11
119.735495
 21
110.259416
 31
0.0
  0
LINE
  5
1BB
100
AcDbEntity
  8
0
100
AcDbLine
 10
120.077615
 20
110.075586
 30
0.0
 11
119.844288
 21
110.075586
 31
0.0
  0
ARC
  5
1BC
100
AcDbEntity
  8
0
100
AcDbCircle
 10
119.728813
 20
110.008908
 30
0.0
 40
0.133343
100
AcDbArc
 50
299.998747
 51
30.003098
  0
ARC
  5
1BD
100
AcDbEntity
  8
0
100
AcDbCircle
 10
119.877615
 20
111.125596
 30
0.0
 40
0.3
100
AcDbArc
 50
0.0
 51
90.0
  0
LINE
  5
1BE
100
AcDbEntity
  8
0
100
AcDbLine
 10
120.177615
 20
111.925596
 30
0.0
 11
121.337616
 21
111.925596
 31
0.0
  0
LINE
  5
1BF
100
AcDbEntity
  8
0
100
AcDbLine
 10
118.777615
 20
113.925596
 30
0.0
 11
123.177615
 21
113.925596
 31
0.0
  0
LINE
  5
1C0
100
AcDbEntity
  8
0
100
AcDbLine
 10
118.777615
 20
121.175596
 30
0.0
 11
118.777615
 21
114.675596
 31
0.0
  0
LINE
  5
1C1
100
AcDbEntity
  8
0
100
AcDbLine
 10
111.177615
 20
122.925596
 30
0.0
 11
123.177615
 21
122.925596
 31
0.0
  0
LINE
  5
1C2
100
AcDbEntity
  8
0
100
AcDbLine
 10
118.777615
 20
121.925596
 30
0.0
 11
123.177615
 21
121.925596
 31
0.0
  0
LINE
  5
1C3
100
AcDbEntity
  8
CENTER
  6
CENTER
 62
     1
100
AcDbLine
 10
185.198985
 20
126.387338
 30
0.0
 11
185.198985
 21
74.463853
 31
0.0
  0
CIRCLE
  5
1C4
100
AcDbEntity
  8
CENTER
  6
CENTER
 62
     1
100
AcDbCircle
 10
185.198985
 20
100.425596
 30
0.0
 40
17.5
  0
LINE
  5
1C5
100
AcDbEntity
  8
0
100
AcDbLine
 10
207.472848
 20
103.607576
 30
0.0
 11
188.380965
 21
122.699459
 31
0.0
  0
LINE
  5
1C6
100
AcDbEntity
  8
0
100
AcDbLine
 10
162.925121
 20
103.607576
 30
0.0
 11
182.017004
 21
122.699459
 31
0.0
  0
CIRCLE
  5
1C7
100
AcDbEntity
  8
0
100
AcDbCircle
 10
185.198985
 20
100.425596
 30
0.0
 40
11.0
  0
LINE
  5
1C8
100
AcDbEntity
  8
CENTER
  6
CENTER
 62
     1
100
AcDbLine
 10
162.698985
 20
100.425596
 30
0.0
 11
211.160727
 21
100.425596
 31
0.0
  0
LINE
  5
1C9
100
AcDbEntity
  8
0
100
AcDbLine
 10
188.380965
 20
78.151732
 30
0.0
 11
207.472848
 21
97.243615
 31
0.0
  0
LINE
  5
1CA
100
AcDbEntity
  8
0
100
AcDbLine
 10
182.017004
 20
78.151732
 30
0.0
 11
162.925121
 21
97.243615
 31
0.0
  0
CIRCLE
  5
1CB
100
AcDbEntity
  8
0
100
AcDbCircle
 10
167.698985
 20
100.425596
 30
0.0
 40
4.0
  0
CIRCLE
  5
1CC
100
AcDbEntity
  8
0
 62
     3
100
AcDbCircle
 10
167.698985
 20
100.425596
 30
0.0
 40
2.5
  0
CIRCLE
  5
1CD
100
AcDbEntity
  8
0
100
AcDbCircle
 10
167.698985
 20
100.425596
 30
0.0
 40
2.0
  0
ARC
  5
1CE
100
AcDbEntity
  8
0
100
AcDbCircle
 10
185.198985
 20
100.425596
 30
0.0
 40
22.5
100
AcDbArc
 50
171.869898
 51
188.130102
  0
ARC
  5
1CF
100
AcDbEntity
  8
0
100
AcDbCircle
 10
185.198985
 20
100.425596
 30
0.0
 40
22.5
100
AcDbArc
 50
261.869898
 51
278.130102
  0
CIRCLE
  5
1D0
100
AcDbEntity
  8
0
 62
     3
100
AcDbCircle
 10
185.198985
 20
82.925596
 30
0.0
 40
2.5
  0
CIRCLE
  5
1D1
100
AcDbEntity
  8
0
100
AcDbCircle
 10
185.198985
 20
82.925596
 30
0.0
 40
2.0
  0
CIRCLE
  5
1D2
100
AcDbEntity
  8
0
100
AcDbCircle
 10
185.198985
 20
82.925596
 30
0.0
 40
4.0
  0
CIRCLE
  5
1D3
100
AcDbEntity
  8
0
100
AcDbCircle
 10
185.198985
 20
100.425596
 30
0.0
 40
4.0
  0
CIRCLE
  5
1D4
100
AcDbEntity
  8
0
100
AcDbCircle
 10
202.698985
 20
100.425596
 30
0.0
 40
4.0
  0
CIRCLE
  5
1D5
100
AcDbEntity
  8
0
 62
     3
100
AcDbCircle
 10
202.698985
 20
100.425596
 30
0.0
 40
2.5
  0
CIRCLE
  5
1D6
100
AcDbEntity
  8
0
100
AcDbCircle
 10
202.698985
 20
100.425596
 30
0.0
 40
2.0
  0
ARC
  5
1D7
100
AcDbEntity
  8
0
100
AcDbCircle
 10
185.198985
 20
100.425596
 30
0.0
 40
22.5
100
AcDbArc
 50
351.869898
 51
8.130102
  0
CIRCLE
  5
1D8
100
AcDbEntity
  8
0
100
AcDbCircle
 10
185.198985
 20
117.925596
 30
0.0
 40
4.0
  0
CIRCLE
  5
1D9
100
AcDbEntity
  8
0
 62
     3
100
AcDbCircle
 10
185.198985
 20
117.925596
 30
0.0
 40
2.5
  0
CIRCLE
  5
1DA
100
AcDbEntity
  8
0
100
AcDbCircle
 10
185.198985
 20
117.925596
 30
0.0
 40
2.0
  0
ARC
  5
1DB
100
AcDbEntity
  8
0
100
AcDbCircle
 10
185.198985
 20
100.425596
 30
0.0
 40
22.5
100
AcDbArc
 50
81.869898
 51
98.130102
  0
ENDSEC
  0
SECTION
  2
OBJECTS
  0
DICTIONARY
  5
F3
100
AcDbDictionary
  3
ACAD_GROUP
350
F4
  3
ACAD_LAYOUT
350
100
  3
ACAD_MLINESTYLE
350
FD
  3
ACAD_PLOTSETTINGS
350
FF
  3
ACAD_PLOTSTYLENAME
350
F5
  3
ACDBHEADERROUNDTRIPXREC
350
1E8
  3
AcDbVariableDictionary
350
211
  0
DICTIONARY
  5
1E6
100
AcDbDictionary
280
     1
  3
ACAD_XREC_ROUNDTRIP
360
1E7
  0
DICTIONARY
  5
1E2
100
AcDbDictionary
280
     1
  3
ACAD_XREC_ROUNDTRIP
360
1E3
  0
DICTIONARY
  5
1E4
100
AcDbDictionary
280
     1
  3
ACAD_XREC_ROUNDTRIP
360
1E5
  0
DICTIONARY
  5
20F
100
AcDbDictionary
280
     1
  3
ACAD_XREC_ROUNDTRIP
360
210
  0
DICTIONARY
  5
1DE
100
AcDbDictionary
280
     1
  3
ACAD_LAYOUTSELFREF
360
20E
  3
ACAD_XREC_ROUNDTRIP
360
1DF
  0
DICTIONARY
  5
1E0
100
AcDbDictionary
280
     1
  3
ACAD_LAYOUTSELFREF
360
20D
  3
ACAD_XREC_ROUNDTRIP
360
1E1
  0
DICTIONARY
  5
F4
102
{ACAD_REACTORS
330
F3
102
}
100
AcDbDictionary
  0
DICTIONARY
  5
100
102
{ACAD_XDICTIONARY
360
20B
102
}
102
{ACAD_REACTORS
330
F3
102
}
100
AcDbDictionary
  3
MODEL
350
108
  3
ﾚｲｱｳﾄ1
350
104
  0
DICTIONARY
  5
FD
102
{ACAD_XDICTIONARY
360
209
102
}
102
{ACAD_REACTORS
330
F3
102
}
100
AcDbDictionary
  3
STANDARD
350
FE
  0
DICTIONARY
  5
FF
102
{ACAD_REACTORS
330
F3
102
}
100
AcDbDictionary
  0
ACAD_PROXY_OBJECT
  5
F5
102
{ACAD_REACTORS
330
F3
102
}
100
AcDbProxyObject
 90
      499
 91
      500
 93
       86
310
405010041939BDC9B585B0
350
F6
340
F6
 94
        0
  0
DICTIONARY
  5
1E8
102
{ACAD_REACTORS
330
F3
102
}
100
AcDbDictionary
  3
CEPSNTYPE
350
1F2
  3
DIMSTYLEDATA
350
1F6
  3
FINGERPRINTGUID
350
1F3
  3
HYPERLINKBASE
350
1EB
  3
INSUNITS
350
1F1
  3
LAYOUTDICT
350
1ED
  3
LWETCUNION
350
1F0
  3
PLOTSETDICT
350
1EE
  3
PLOTSTYLNAMDICT
350
1EF
  3
PSVPSCALE
350
1F5
  3
PUCSBASE
350
1F9
  3
PUCSORGBACK
350
1FF
  3
PUCSORGBOTTOM
350
1FB
  3
PUCSORGFRONT
350
1FE
  3
PUCSORGLEFT
350
1FC
  3
PUCSORGRIGHT
350
1FD
  3
PUCSORGTOP
350
1FA
  3
PUCSORTHOREF
350
1F7
  3
PUCSORTHOVIEW
350
1F8
  3
STYLESHEET
350
1EC
  3
TSTACKALIGN
350
1E9
  3
TSTACKSIZE
350
1EA
  3
UCSBASE
350
202
  3
UCSORGBACK
350
208
  3
UCSORGBOTTOM
350
204
  3
UCSORGFRONT
350
207
  3
UCSORGLEFT
350
205
  3
UCSORGRIGHT
350
206
  3
UCSORGTOP
350
203
  3
UCSORTHOREF
350
200
  3
UCSORTHOVIEW
350
201
  3
VERSIONGUID
350
1F4
  0
DICTIONARY
  5
211
102
{ACAD_REACTORS
330
F3
102
}
100
AcDbDictionary
  3
DIMASSOC
350
212
  0
XRECORD
  5
1E7
102
{ACAD_REACTORS
330
1E6
102
}
100
AcDbXrecord
102
EXTNAMES
  1
*ACTIVE
  2
*Active
102
UCS
 74
     0
 71
     0
 10
0.0
 20
0.0
 30
0.0
 10
1.0
 20
0.0
 30
0.0
 10
0.0
 20
1.0
 30
0.0
146
0.0
 79
     0
102
VIEW
281
     0
  0
XRECORD
  5
1E3
102
{ACAD_REACTORS
330
1E2
102
}
100
AcDbXrecord
102
EXTNAMES
  1
BYBLOCK
  2
ByBlock
  0
XRECORD
  5
1E5
102
{ACAD_REACTORS
330
1E4
102
}
100
AcDbXrecord
102
EXTNAMES
  1
BYLAYER
  2
ByLayer
  0
XRECORD
  5
210
102
{ACAD_REACTORS
330
20F
102
}
100
AcDbXrecord
102
ACADR14ROUNDTRIP
1000
DSTYLE
1002
{
1070
   279
 70
     2
1002
}
  0
XRECORD
  5
20E
102
{ACAD_REACTORS
330
1DE
102
}
100
AcDbXrecord
340
105
  0
XRECORD
  5
1DF
102
{ACAD_REACTORS
330
1DE
102
}
100
AcDbXrecord
102
EXTNAMES
  1
*MODEL_SPACE
  2
*Model_Space
  0
XRECORD
  5
20D
102
{ACAD_REACTORS
330
1E0
102
}
100
AcDbXrecord
340
101
  0
XRECORD
  5
1E1
102
{ACAD_REACTORS
330
1E0
102
}
100
AcDbXrecord
102
EXTNAMES
  1
*PAPER_SPACE
  2
*Paper_Space
  0
DICTIONARY
  5
20B
100
AcDbDictionary
280
     1
  3
ACAD_XREC_ROUNDTRIP
360
20C
  0
ACAD_PROXY_OBJECT
  5
108
102
{ACAD_REACTORS
330
100
102
}
100
AcDbProxyObject
 90
      499
 91
      502
 93
      836
310
932433A5C50524F4752414D2046494C45535C4D4454365C706C6F74746572735C526F6C616E64204458592D313235302E7063332C01AAAAAAAAA5A69054D6F64656C901A800000000000000000000000000000000000000000000A1000000000000008902A6A6AAAA0
330
105
330
0
340
0
340
0
 94
        0
  0
ACAD_PROXY_OBJECT
  5
104
102
{ACAD_REACTORS
330
100
102
}
100
AcDbProxyObject
 90
      499
 91
      502
 93
     1252
310
932433A5C50524F4752414D2046494C45535C4D4454365C706C6F74746572735C526F6C616E64204458592D313235302E7063332C00AAAAAA416AA59106906DAB2B1B3C43140501A800000000000000000000000000000000000000000000A1000000000000008902A6A6A10232D5E076BC5510408CB5781DAF154410232D5
310
E076BC5510408CB5781DAF15C410232D5E076BC5710408CB5781DAF15C40
330
101
330
0
340
0
340
0
 94
        0
  0
DICTIONARY
  5
209
100
AcDbDictionary
280
     1
  3
ACAD_XREC_ROUNDTRIP
360
20A
  0
MLINESTYLE
  5
FE
102
{ACAD_REACTORS
330
FD
102
}
100
AcDbMlineStyle
  2
STANDARD
 70
     0
  3

 62
   256
 51
90.0
 52
90.0
 71
     2
 49
0.5
 62
   256
  6
BYLAYER
 49
-0.5
 62
   256
  6
BYLAYER
  0
ACAD_PROXY_OBJECT
  5
F6
102
{ACAD_REACTORS
330
F5
102
}
100
AcDbProxyObject
 90
      499
 91
      501
 93
        0
 94
        0
  0
XRECORD
  5
1F2
102
{ACAD_REACTORS
330
1E8
102
}
100
AcDbXrecord
 90
        0
  0
XRECORD
  5
1F6
102
{ACAD_REACTORS
330
1E8
102
}
100
AcDbXrecord
1000
DSTYLE
1002
{
1070
   341
340
114
1070
   343
340
114
1070
   344
340
114
1002
}
  0
XRECORD
  5
1F3
102
{ACAD_REACTORS
330
1E8
102
}
100
AcDbXrecord
  1
{14EF33B6-62BF-4DDE-A510-B42FFD03FAAA}
  0
XRECORD
  5
1EB
102
{ACAD_REACTORS
330
1E8
102
}
100
AcDbXrecord
  1

  0
XRECORD
  5
1F1
102
{ACAD_REACTORS
330
1E8
102
}
100
AcDbXrecord
 90
        0
  0
XRECORD
  5
1ED
102
{ACAD_REACTORS
330
1E8
102
}
100
AcDbXrecord
340
100
  0
XRECORD
  5
1F0
102
{ACAD_REACTORS
330
1E8
102
}
100
AcDbXrecord
 90
    10781
  0
XRECORD
  5
1EE
102
{ACAD_REACTORS
330
1E8
102
}
100
AcDbXrecord
340
FF
  0
XRECORD
  5
1EF
102
{ACAD_REACTORS
330
1E8
102
}
100
AcDbXrecord
340
F5
  0
XRECORD
  5
1F5
102
{ACAD_REACTORS
330
1E8
102
}
100
AcDbXrecord
 40
0.0
  0
XRECORD
  5
1F9
102
{ACAD_REACTORS
330
1E8
102
}
100
AcDbXrecord
340
0
  0
XRECORD
  5
1FF
102
{ACAD_REACTORS
330
1E8
102
}
100
AcDbXrecord
 10
0.0
 20
0.0
 30
0.0
  0
XRECORD
  5
1FB
102
{ACAD_REACTORS
330
1E8
102
}
100
AcDbXrecord
 10
0.0
 20
0.0
 30
0.0
  0
XRECORD
  5
1FE
102
{ACAD_REACTORS
330
1E8
102
}
100
AcDbXrecord
 10
0.0
 20
0.0
 30
0.0
  0
XRECORD
  5
1FC
102
{ACAD_REACTORS
330
1E8
102
}
100
AcDbXrecord
 10
0.0
 20
0.0
 30
0.0
  0
XRECORD
  5
1FD
102
{ACAD_REACTORS
330
1E8
102
}
100
AcDbXrecord
 10
0.0
 20
0.0
 30
0.0
  0
XRECORD
  5
1FA
102
{ACAD_REACTORS
330
1E8
102
}
100
AcDbXrecord
 10
0.0
 20
0.0
 30
0.0
  0
XRECORD
  5
1F7
102
{ACAD_REACTORS
330
1E8
102
}
100
AcDbXrecord
340
0
  0
XRECORD
  5
1F8
102
{ACAD_REACTORS
330
1E8
102
}
100
AcDbXrecord
 70
     0
  0
XRECORD
  5
1EC
102
{ACAD_REACTORS
330
1E8
102
}
100
AcDbXrecord
  1

  0
XRECORD
  5
1E9
102
{ACAD_REACTORS
330
1E8
102
}
100
AcDbXrecord
 90
        1
  0
XRECORD
  5
1EA
102
{ACAD_REACTORS
330
1E8
102
}
100
AcDbXrecord
 90
       70
  0
XRECORD
  5
202
102
{ACAD_REACTORS
330
1E8
102
}
100
AcDbXrecord
340
0
  0
XRECORD
  5
208
102
{ACAD_REACTORS
330
1E8
102
}
100
AcDbXrecord
 10
0.0
 20
0.0
 30
0.0
  0
XRECORD
  5
204
102
{ACAD_REACTORS
330
1E8
102
}
100
AcDbXrecord
 10
0.0
 20
0.0
 30
0.0
  0
XRECORD
  5
207
102
{ACAD_REACTORS
330
1E8
102
}
100
AcDbXrecord
 10
0.0
 20
0.0
 30
0.0
  0
XRECORD
  5
205
102
{ACAD_REACTORS
330
1E8
102
}
100
AcDbXrecord
 10
0.0
 20
0.0
 30
0.0
  0
XRECORD
  5
206
102
{ACAD_REACTORS
330
1E8
102
}
100
AcDbXrecord
 10
0.0
 20
0.0
 30
0.0
  0
XRECORD
  5
203
102
{ACAD_REACTORS
330
1E8
102
}
100
AcDbXrecord
 10
0.0
 20
0.0
 30
0.0
  0
XRECORD
  5
200
102
{ACAD_REACTORS
330
1E8
102
}
100
AcDbXrecord
340
0
  0
XRECORD
  5
201
102
{ACAD_REACTORS
330
1E8
102
}
100
AcDbXrecord
 70
     0
  0
XRECORD
  5
1F4
102
{ACAD_REACTORS
330
1E8
102
}
100
AcDbXrecord
  1
{0774BCE2-9A41-4F79-8F7F-7363C50292DF}
  0
DICTIONARYVAR
  5
212
102
{ACAD_REACTORS
330
211
102
}
100
DictionaryVariables
280
     0
  1
1
  0
XRECORD
  5
20C
102
{ACAD_REACTORS
330
20B
102
}
100
AcDbXrecord
102
EXTNAMES
  1
MODEL
  2
Model
  0
XRECORD
  5
20A
102
{ACAD_REACTORS
330
209
102
}
100
AcDbXrecord
102
EXTNAMES
  1
STANDARD
  2
Standard
  0
ENDSEC
  0
EOF
