  0
SECTION
  2
HEADER
  9
$ACADVER
  1
AC1014
  9
$ACADMAINTVER
 70
     0
  9
$DWGCODEPAGE
  3
ANSI_932
  9
$INSBASE
 10
0.0
 20
0.0
 30
0.0
  9
$EXTMIN
 10
43.329161
 20
28.047945
 30
0.0
  9
$EXTMAX
 10
118.358707
 20
72.636986
 30
0.0
  9
$LIMMIN
 10
0.0
 20
0.0
  9
$LIMMAX
 10
148.5
 20
105.0
  9
$ORTHOMODE
 70
     1
  9
$REGENMODE
 70
     1
  9
$FILLMODE
 70
     1
  9
$QTEXTMODE
 70
     0
  9
$MIRRTEXT
 70
     1
  9
$DRAGMODE
 70
     2
  9
$LTSCALE
 40
0.25
  9
$OSMODE
 70
    37
  9
$ATTMODE
 70
     1
  9
$TEXTSIZE
 40
3.2
  9
$TRACEWID
 40
0.05
  9
$TEXTSTYLE
  7
STANDARD
  9
$CLAYER
  8
0
  9
$CELTYPE
  6
BYLAYER
  9
$CECOLOR
 62
   256
  9
$CELTSCALE
 40
1.0
  9
$DELOBJ
 70
     1
  9
$DISPSILH
 70
     0
  9
$DIMSCALE
 40
0.5
  9
$DIMASZ
 40
3.0
  9
$DIMEXO
 40
1.0
  9
$DIMDLI
 40
0.0
  9
$DIMRND
 40
0.0
  9
$DIMDLE
 40
0.0
  9
$DIMEXE
 40
1.0
  9
$DIMTP
 40
0.0
  9
$DIMTM
 40
0.0
  9
$DIMTXT
 40
3.2
  9
$DIMCEN
 40
0.0
  9
$DIMTSZ
 40
0.0
  9
$DIMTOL
 70
     0
  9
$DIMLIM
 70
     0
  9
$DIMTIH
 70
     0
  9
$DIMTOH
 70
     0
  9
$DIMSE1
 70
     0
  9
$DIMSE2
 70
     0
  9
$DIMTAD
 70
     1
  9
$DIMZIN
 70
     8
  9
$DIMBLK
  1

  9
$DIMASO
 70
     1
  9
$DIMSHO
 70
     1
  9
$DIMPOST
  1

  9
$DIMAPOST
  1

  9
$DIMALT
 70
     0
  9
$DIMALTD
 70
     2
  9
$DIMALTF
 40
0.04
  9
$DIMLFAC
 40
1.0
  9
$DIMTOFL
 70
     1
  9
$DIMTVP
 40
1.0
  9
$DIMTIX
 70
     1
  9
$DIMSOXD
 70
     0
  9
$DIMSAH
 70
     1
  9
$DIMBLK1
  1
ARROW
  9
$DIMBLK2
  1
ARROW
  9
$DIMSTYLE
  2
AA1
  9
$DIMCLRD
 70
     0
  9
$DIMCLRE
 70
     0
  9
$DIMCLRT
 70
     0
  9
$DIMTFAC
 40
0.6
  9
$DIMGAP
 40
1.0
  9
$DIMJUST
 70
     0
  9
$DIMSD1
 70
     0
  9
$DIMSD2
 70
     0
  9
$DIMTOLJ
 70
     1
  9
$DIMTZIN
 70
     0
  9
$DIMALTZ
 70
     0
  9
$DIMALTTZ
 70
     0
  9
$DIMFIT
 70
     3
  9
$DIMUPT
 70
     0
  9
$DIMUNIT
 70
     2
  9
$DIMDEC
 70
     4
  9
$DIMTDEC
 70
     4
  9
$DIMALTU
 70
     2
  9
$DIMALTTD
 70
     2
  9
$DIMTXSTY
  7
STANDARD
  9
$DIMAUNIT
 70
     0
  9
$LUNITS
 70
     2
  9
$LUPREC
 70
     4
  9
$SKETCHINC
 40
0.1
  9
$FILLETRAD
 40
10.0
  9
$AUNITS
 70
     0
  9
$AUPREC
 70
     0
  9
$MENU
  1
acad
  9
$ELEVATION
 40
0.0
  9
$PELEVATION
 40
0.0
  9
$THICKNESS
 40
0.0
  9
$LIMCHECK
 70
     0
  9
$BLIPMODE
 70
     0
  9
$CHAMFERA
 40
0.0
  9
$CHAMFERB
 40
0.0
  9
$CHAMFERC
 40
0.0
  9
$CHAMFERD
 40
0.0
  9
$SKPOLY
 70
     0
  9
$TDCREATE
 40
2451466.515115857
  9
$TDUPDATE
 40
2452821.770820718
  9
$TDINDWG
 40
0.0001886574
  9
$TDUSRTIMER
 40
0.0001886574
  9
$USRTIMER
 70
     1
  9
$ANGBASE
 50
0.0
  9
$ANGDIR
 70
     0
  9
$PDMODE
 70
     0
  9
$PDSIZE
 40
0.0
  9
$PLINEWID
 40
0.0
  9
$COORDS
 70
     1
  9
$SPLFRAME
 70
     0
  9
$SPLINETYPE
 70
     6
  9
$SPLINESEGS
 70
     8
  9
$ATTDIA
 70
     0
  9
$ATTREQ
 70
     1
  9
$HANDLING
 70
     1
  9
$HANDSEED
  5
20C
  9
$SURFTAB1
 70
     6
  9
$SURFTAB2
 70
     6
  9
$SURFTYPE
 70
     6
  9
$SURFU
 70
     6
  9
$SURFV
 70
     6
  9
$UCSNAME
  2

  9
$UCSORG
 10
0.0
 20
0.0
 30
0.0
  9
$UCSXDIR
 10
1.0
 20
0.0
 30
0.0
  9
$UCSYDIR
 10
0.0
 20
1.0
 30
0.0
  9
$PUCSNAME
  2

  9
$PUCSORG
 10
0.0
 20
0.0
 30
0.0
  9
$PUCSXDIR
 10
1.0
 20
0.0
 30
0.0
  9
$PUCSYDIR
 10
0.0
 20
1.0
 30
0.0
  9
$USERI1
 70
     0
  9
$USERI2
 70
     0
  9
$USERI3
 70
     0
  9
$USERI4
 70
     0
  9
$USERI5
 70
     0
  9
$USERR1
 40
0.0
  9
$USERR2
 40
0.0
  9
$USERR3
 40
0.0
  9
$USERR4
 40
0.0
  9
$USERR5
 40
0.0
  9
$WORLDVIEW
 70
     1
  9
$SHADEDGE
 70
     3
  9
$SHADEDIF
 70
    70
  9
$TILEMODE
 70
     1
  9
$MAXACTVP
 70
    16
  9
$PINSBASE
 10
0.0
 20
0.0
 30
0.0
  9
$PLIMCHECK
 70
     0
  9
$PEXTMIN
 10
1.000000E+20
 20
1.000000E+20
 30
1.000000E+20
  9
$PEXTMAX
 10
-1.000000E+20
 20
-1.000000E+20
 30
-1.000000E+20
  9
$PLIMMIN
 10
0.0
 20
0.0
  9
$PLIMMAX
 10
12.0
 20
9.0
  9
$UNITMODE
 70
     0
  9
$VISRETAIN
 70
     0
  9
$PLINEGEN
 70
     0
  9
$PSLTSCALE
 70
     1
  9
$TREEDEPTH
 70
  3020
  9
$PICKSTYLE
 70
     1
  9
$CMLSTYLE
  2
STANDARD
  9
$CMLJUST
 70
     0
  9
$CMLSCALE
 40
1.0
  9
$PROXYGRAPHICS
 70
     1
  9
$MEASUREMENT
 70
     0
  0
ENDSEC
  0
SECTION
  2
CLASSES
  0
CLASS
  1
ACDBDICTIONARYWDFLT
  2
AcDbDictionaryWithDefault
  3
AutoCAD 2000
 90
        0
280
     0
281
     0
  0
CLASS
  1
ACDBPLACEHOLDER
  2
AcDbPlaceHolder
  3
AutoCAD 2000
 90
        0
280
     0
281
     0
  0
CLASS
  1
LAYOUT
  2
AcDbLayout
  3
AutoCAD 2000
 90
        0
280
     0
281
     0
  0
CLASS
  1
DICTIONARYVAR
  2
AcDbDictionaryVar
  3
"AutoCAD"
 90
        0
280
     0
281
     0
  0
CLASS
  1
LONG_TRANSACTION
  2
AcDbLongTransaction
  3
AutoCAD 2000
 90
        0
280
     0
281
     0
  0
CLASS
  1
LWPOLYLINE
  2
AcDbPolyline
  3
"AutoCAD"
 90
        0
280
     0
281
     1
  0
CLASS
  1
HATCH
  2
AcDbHatch
  3
"ACAD_SEDONA"
 90
        0
280
     0
281
     1
  0
CLASS
  1
XRECORD
  2
AcDbXrecord
  3
"<Built In>"
 90
        0
280
     0
281
     0
  0
ENDSEC
  0
SECTION
  2
TABLES
  0
TABLE
  2
VPORT
  5
EA
100
AcDbSymbolTable
 70
     1
  0
VPORT
  5
1D3
102
{ACAD_XDICTIONARY
360
1DC
102
}
100
AcDbSymbolTableRecord
100
AcDbViewportTableRecord
  2
*ACTIVE
 70
     0
 10
0.0
 20
0.0
 11
1.0
 21
1.0
 12
74.25
 22
78.858326
 13
0.0
 23
0.0
 14
10.0
 24
10.0
 15
10.0
 25
10.0
 16
0.0
 26
0.0
 36
1.0
 17
0.0
 27
0.0
 37
0.0
 40
173.15411
 41
1.530211
 42
50.0
 43
0.0
 44
0.0
 50
0.0
 51
0.0
 71
     0
 72
   100
 73
     1
 74
     0
 75
     0
 76
     0
 77
     0
 78
     0
  0
ENDTAB
  0
TABLE
  2
LTYPE
  5
E7
100
AcDbSymbolTable
 70
     2
  0
LTYPE
  5
F5
102
{ACAD_XDICTIONARY
360
1D8
102
}
100
AcDbSymbolTableRecord
100
AcDbLinetypeTableRecord
  2
BYBLOCK
 70
     0
  3

 72
    65
 73
     0
 40
0.0
  0
LTYPE
  5
F6
102
{ACAD_XDICTIONARY
360
1DA
102
}
100
AcDbSymbolTableRecord
100
AcDbLinetypeTableRecord
  2
BYLAYER
 70
     0
  3

 72
    65
 73
     0
 40
0.0
  0
LTYPE
  5
F7
100
AcDbSymbolTableRecord
100
AcDbLinetypeTableRecord
  2
CONTINUOUS
 70
     0
  3
Solid line
 72
    65
 73
     0
 40
0.0
  0
LTYPE
  5
105
100
AcDbSymbolTableRecord
100
AcDbLinetypeTableRecord
  2
CENTER
 70
     0
  3
____ _ ____ _ ____ _ ____ _ ____ _ ____ _ ____
 72
    65
 73
     4
 40
17.5
 49
13.0
 74
     0
 49
-1.5
 74
     0
 49
1.5
 74
     0
 49
-1.5
 74
     0
  0
ENDTAB
  0
TABLE
  2
LAYER
  5
E4
100
AcDbSymbolTable
 70
     3
  0
LAYER
  5
F2
100
AcDbSymbolTableRecord
100
AcDbLayerTableRecord
  2
0
 70
     0
 62
     7
  6
CONTINUOUS
  0
LAYER
  5
106
100
AcDbSymbolTableRecord
100
AcDbLayerTableRecord
  2
DIMENSION
 70
     0
 62
    -4
  6
CONTINUOUS
  0
LAYER
  5
107
100
AcDbSymbolTableRecord
100
AcDbLayerTableRecord
  2
CENTER
 70
     0
 62
     1
  6
CENTER
  0
ENDTAB
  0
TABLE
  2
STYLE
  5
E5
100
AcDbSymbolTable
 70
     1
  0
STYLE
  5
F3
100
AcDbSymbolTableRecord
100
AcDbTextStyleTableRecord
  2
STANDARD
 70
     0
 40
0.0
 41
1.0
 50
0.0
 71
     0
 42
3.2
  3
txt
  4

  0
ENDTAB
  0
TABLE
  2
VIEW
  5
E8
100
AcDbSymbolTable
 70
     0
  0
ENDTAB
  0
TABLE
  2
UCS
  5
E9
100
AcDbSymbolTable
 70
     0
  0
ENDTAB
  0
TABLE
  2
APPID
  5
EB
100
AcDbSymbolTable
 70
     1
  0
APPID
  5
F4
100
AcDbSymbolTableRecord
100
AcDbRegAppTableRecord
  2
ACAD
 70
     0
  0
ENDTAB
  0
TABLE
  2
DIMSTYLE
  5
EC
100
AcDbSymbolTable
 70
     1
  0
DIMSTYLE
105
108
102
{ACAD_XDICTIONARY
360
205
102
}
100
AcDbSymbolTableRecord
100
AcDbDimStyleTableRecord
  2
AA1
 70
     0
  3

  4

  5

  6

  7

 40
0.5
 41
3.0
 42
1.0
 43
0.0
 44
1.0
 45
0.0
 46
0.0
 47
0.0
 48
0.0
140
3.2
141
0.0
142
0.0
143
0.04
144
1.0
145
1.0
146
0.6
147
1.0
 71
     0
 72
     0
 73
     0
 74
     0
 75
     0
 76
     0
 77
     3
 78
     8
170
     0
171
     2
172
     1
173
     1
174
     1
175
     0
176
     0
177
     0
178
     0
270
     2
271
     4
272
     4
273
     2
274
     2
340
F3
275
     0
280
     0
281
     0
282
     0
283
     1
284
     8
285
     8
286
     8
287
     5
288
     0
  0
ENDTAB
  0
TABLE
  2
BLOCK_RECORD
  5
E3
100
AcDbSymbolTable
 70
     3
  0
BLOCK_RECORD
  5
100
102
{ACAD_XDICTIONARY
360
1D4
102
}
100
AcDbSymbolTableRecord
100
AcDbBlockTableRecord
  2
*MODEL_SPACE
  0
BLOCK_RECORD
  5
FC
102
{ACAD_XDICTIONARY
360
1D6
102
}
100
AcDbSymbolTableRecord
100
AcDbBlockTableRecord
  2
*PAPER_SPACE
  0
BLOCK_RECORD
  5
10A
100
AcDbSymbolTableRecord
100
AcDbBlockTableRecord
  2
$MODEL_SPACE
  0
BLOCK_RECORD
  5
10D
100
AcDbSymbolTableRecord
100
AcDbBlockTableRecord
  2
$PAPER_SPACE
  0
BLOCK_RECORD
  5
110
100
AcDbSymbolTableRecord
100
AcDbBlockTableRecord
  2
ARROW
  0
ENDTAB
  0
ENDSEC
  0
SECTION
  2
BLOCKS
  0
BLOCK
  5
101
100
AcDbEntity
  8
0
100
AcDbBlockBegin
  2
*MODEL_SPACE
 70
     0
 10
0.0
 20
0.0
 30
0.0
  3
*MODEL_SPACE
  1

  0
ENDBLK
  5
102
100
AcDbEntity
  8
0
100
AcDbBlockEnd
  0
BLOCK
  5
FD
100
AcDbEntity
 67
     1
  8
0
100
AcDbBlockBegin
  2
*PAPER_SPACE
 70
     0
 10
0.0
 20
0.0
 30
0.0
  3
*PAPER_SPACE
  1

  0
ENDBLK
  5
FE
100
AcDbEntity
 67
     1
  8
0
100
AcDbBlockEnd
  0
BLOCK
  5
10B
100
AcDbEntity
  8
0
100
AcDbBlockBegin
  2
$MODEL_SPACE
 70
     0
 10
0.0
 20
0.0
 30
0.0
  3
$MODEL_SPACE
  1

  0
ENDBLK
  5
10C
100
AcDbEntity
  8
0
100
AcDbBlockEnd
  0
BLOCK
  5
10E
100
AcDbEntity
  8
0
100
AcDbBlockBegin
  2
$PAPER_SPACE
 70
     0
 10
0.0
 20
0.0
 30
0.0
  3
$PAPER_SPACE
  1

  0
ENDBLK
  5
10F
100
AcDbEntity
  8
0
100
AcDbBlockEnd
  0
BLOCK
  5
111
100
AcDbEntity
  8
0
100
AcDbBlockBegin
  2
ARROW
 70
     0
 10
0.0
 20
0.0
 30
0.0
  3
ARROW
  1
ARROW3
  0
LINE
  5
112
100
AcDbEntity
  8
DIMENSION
100
AcDbLine
 10
-0.999981
 20
0.000009
 30
0.0
 11
0.000019
 21
0.000009
 31
0.0
  0
LINE
  5
113
100
AcDbEntity
  8
DIMENSION
100
AcDbLine
 10
0.000019
 20
0.000009
 30
0.0
 11
-0.999981
 21
-0.176318
 31
0.0
  0
LINE
  5
114
100
AcDbEntity
  8
DIMENSION
100
AcDbLine
 10
0.000019
 20
0.000009
 30
0.0
 11
-0.999981
 21
0.176336
 31
0.0
  0
ENDBLK
  5
115
100
AcDbEntity
  8
0
100
AcDbBlockEnd
  0
ENDSEC
  0
SECTION
  2
ENTITIES
  0
ARC
  5
116
100
AcDbEntity
  8
0
100
AcDbCircle
 10
52.576975
 20
52.577651
 30
0.0
 40
0.2
100
AcDbArc
 50
270.0
 51
0.0
  0
LINE
  5
117
100
AcDbEntity
  8
0
100
AcDbLine
 10
52.776975
 20
57.177651
 30
0.0
 11
52.776975
 21
49.877651
 31
0.0
  0
ARC
  5
118
100
AcDbEntity
  8
0
100
AcDbCircle
 10
47.976975
 20
52.577651
 30
0.0
 40
0.2
100
AcDbArc
 50
180.0
 51
270.0
  0
LINE
  5
119
100
AcDbEntity
  8
0
100
AcDbLine
 10
47.776975
 20
56.677651
 30
0.0
 11
47.776975
 21
49.877651
 31
0.0
  0
LINE
  5
11A
100
AcDbEntity
  8
0
100
AcDbLine
 10
52.776975
 20
56.677651
 30
0.0
 11
52.776975
 21
42.577651
 31
0.0
  0
LINE
  5
11B
100
AcDbEntity
  8
0
100
AcDbLine
 10
53.936975
 20
42.577651
 30
0.0
 11
53.936975
 21
57.177651
 31
0.0
  0
LINE
  5
11C
100
AcDbEntity
  8
0
100
AcDbLine
 10
55.776975
 20
67.877651
 30
0.0
 11
55.776975
 21
31.877651
 31
0.0
  0
LINE
  5
11D
100
AcDbEntity
  8
0
100
AcDbLine
 10
45.776975
 20
31.877651
 30
0.0
 11
45.776975
 21
67.877651
 31
0.0
  0
LINE
  5
120
100
AcDbEntity
  8
CENTER
  6
CENTER
 62
     1
100
AcDbLine
 10
43.329161
 20
49.877651
 30
0.0
 11
58.107875
 21
49.877651
 31
0.0
  0
LINE
  5
121
100
AcDbEntity
  8
CENTER
  6
CENTER
 62
     1
100
AcDbLine
 10
43.329161
 20
36.877651
 30
0.0
 11
58.107875
 21
36.877651
 31
0.0
  0
LINE
  5
122
100
AcDbEntity
  8
0
100
AcDbLine
 10
45.776975
 20
39.027651
 30
0.0
 11
51.376975
 21
39.027651
 31
0.0
  0
LINE
  5
123
100
AcDbEntity
  8
0
100
AcDbLine
 10
45.776975
 20
34.727651
 30
0.0
 11
51.376975
 21
34.727651
 31
0.0
  0
LINE
  5
124
100
AcDbEntity
  8
0
 62
     3
100
AcDbLine
 10
45.776975
 20
34.377651
 30
0.0
 11
51.376975
 21
34.377651
 31
0.0
  0
LINE
  5
125
100
AcDbEntity
  8
0
 62
     3
100
AcDbLine
 10
45.776975
 20
39.377651
 30
0.0
 11
51.376975
 21
39.377651
 31
0.0
  0
CIRCLE
  5
126
100
AcDbEntity
  8
0
100
AcDbCircle
 10
50.276975
 20
45.127651
 30
0.0
 40
1.1906
  0
LINE
  5
127
100
AcDbEntity
  8
0
100
AcDbLine
 10
47.976975
 20
42.877651
 30
0.0
 11
52.776975
 21
42.877651
 31
0.0
  0
LINE
  5
128
100
AcDbEntity
  8
0
100
AcDbLine
 10
52.576975
 20
47.377651
 30
0.0
 11
47.976975
 21
47.377651
 31
0.0
  0
LINE
  5
129
100
AcDbEntity
  8
0
100
AcDbLine
 10
52.576975
 20
52.377651
 30
0.0
 11
47.976975
 21
52.377651
 31
0.0
  0
LINE
  5
12A
100
AcDbEntity
  8
0
100
AcDbLine
 10
55.776975
 20
31.877651
 30
0.0
 11
45.776975
 21
31.877651
 31
0.0
  0
LINE
  5
12B
100
AcDbEntity
  8
0
100
AcDbLine
 10
48.649905
 20
43.847641
 30
0.0
 11
48.649905
 21
44.325871
 31
0.0
  0
LINE
  5
12C
100
AcDbEntity
  8
0
100
AcDbLine
 10
48.533515
 20
44.277661
 30
0.0
 11
48.300735
 21
44.510441
 31
0.0
  0
LINE
  5
12D
100
AcDbEntity
  8
0
100
AcDbLine
 10
47.776975
 20
43.077651
 30
0.0
 11
47.776975
 21
49.877651
 31
0.0
  0
LINE
  5
12E
100
AcDbEntity
  8
0
100
AcDbLine
 10
48.067955
 20
43.877651
 30
0.0
 11
48.162945
 21
43.717151
 31
0.0
  0
LINE
  5
12F
100
AcDbEntity
  8
0
100
AcDbLine
 10
48.110555
 20
44.036621
 30
0.0
 11
48.211355
 21
44.094821
 31
0.0
  0
LINE
  5
130
100
AcDbEntity
  8
0
100
AcDbLine
 10
45.776975
 20
40.877651
 30
0.0
 11
45.776975
 21
40.877751
 31
0.0
  0
ARC
  5
131
100
AcDbEntity
  8
0
100
AcDbCircle
 10
48.168762
 20
43.935845
 30
0.0
 40
0.116399
100
AcDbArc
 50
120.001456
 51
209.996814
  0
LINE
  5
132
100
AcDbEntity
  8
0
100
AcDbLine
 10
47.876975
 20
43.877651
 30
0.0
 11
48.067955
 21
43.877651
 31
0.0
  0
LINE
  5
133
100
AcDbEntity
  8
0
100
AcDbLine
 10
47.776975
 20
43.777631
 30
0.0
 11
47.876975
 21
43.877631
 31
0.0
  0
ARC
  5
134
100
AcDbEntity
  8
0
100
AcDbCircle
 10
47.976975
 20
43.077651
 30
0.0
 40
0.2
100
AcDbArc
 50
180.0
 51
270.0
  0
LINE
  5
135
100
AcDbEntity
  8
0
100
AcDbLine
 10
48.649915
 20
44.177641
 30
0.0
 11
48.749915
 21
44.277641
 31
0.0
  0
LINE
  5
136
100
AcDbEntity
  8
0
100
AcDbLine
 10
48.533515
 20
43.847641
 30
0.0
 11
48.533515
 21
44.277661
 31
0.0
  0
LINE
  5
137
100
AcDbEntity
  8
0
100
AcDbLine
 10
48.749905
 20
44.277651
 30
0.0
 11
49.443295
 21
44.277651
 31
0.0
  0
LINE
  5
138
100
AcDbEntity
  8
0
100
AcDbLine
 10
48.211355
 20
44.094821
 30
0.0
 11
48.269555
 21
43.994021
 31
0.0
  0
LINE
  5
139
100
AcDbEntity
  8
0
100
AcDbLine
 10
48.168755
 20
43.935831
 30
0.0
 11
48.263745
 21
43.775341
 31
0.0
  0
LINE
  5
13A
100
AcDbEntity
  8
0
100
AcDbLine
 10
48.269545
 20
43.994021
 30
0.0
 11
48.168755
 21
43.935831
 31
0.0
  0
ARC
  5
13B
100
AcDbEntity
  8
0
100
AcDbCircle
 10
48.388945
 20
43.847641
 30
0.0
 40
0.26096
100
AcDbArc
 50
209.99989
 51
0.0
  0
ARC
  5
13C
100
AcDbEntity
  8
0
100
AcDbCircle
 10
48.388945
 20
43.847641
 30
0.0
 40
0.14457
100
AcDbArc
 50
210.00017
 51
0.0
  0
LINE
  5
13D
100
AcDbEntity
  8
0
100
AcDbLine
 10
47.876975
 20
46.377651
 30
0.0
 11
48.649905
 21
46.377651
 31
0.0
  0
LINE
  5
13E
100
AcDbEntity
  8
0
100
AcDbLine
 10
45.776975
 20
44.877651
 30
0.0
 11
47.776975
 21
44.877651
 31
0.0
  0
LINE
  5
13F
100
AcDbEntity
  8
0
100
AcDbLine
 10
47.776975
 20
46.477651
 30
0.0
 11
47.876975
 21
46.377651
 31
0.0
  0
ARC
  5
140
100
AcDbEntity
  8
0
100
AcDbCircle
 10
47.976975
 20
47.177651
 30
0.0
 40
0.2
100
AcDbArc
 50
90.0
 51
180.0
  0
LINE
  5
141
100
AcDbEntity
  8
0
100
AcDbLine
 10
48.649905
 20
46.377651
 30
0.0
 11
48.649905
 21
46.077651
 31
0.0
  0
LINE
  5
142
100
AcDbEntity
  8
0
100
AcDbLine
 10
48.749895
 20
45.977651
 30
0.0
 11
49.443295
 21
45.977651
 31
0.0
  0
LINE
  5
143
100
AcDbEntity
  8
0
100
AcDbLine
 10
48.649905
 20
46.077641
 30
0.0
 11
48.749895
 21
45.977651
 31
0.0
  0
LINE
  5
144
100
AcDbEntity
  8
0
100
AcDbLine
 10
48.591725
 20
46.091261
 30
0.0
 11
48.417135
 21
46.091261
 31
0.0
  0
LINE
  5
145
100
AcDbEntity
  8
0
100
AcDbLine
 10
48.591715
 20
46.207651
 30
0.0
 11
48.591715
 21
46.091261
 31
0.0
  0
LINE
  5
146
100
AcDbEntity
  8
0
100
AcDbLine
 10
48.417125
 20
46.207651
 30
0.0
 11
48.591715
 21
46.207651
 31
0.0
  0
LINE
  5
147
100
AcDbEntity
  8
0
100
AcDbLine
 10
48.417135
 20
46.091261
 30
0.0
 11
48.417135
 21
44.558641
 31
0.0
  0
LINE
  5
148
100
AcDbEntity
  8
0
100
AcDbLine
 10
48.649905
 20
44.325871
 30
0.0
 11
48.417135
 21
44.558641
 31
0.0
  0
LINE
  5
149
100
AcDbEntity
  8
0
100
AcDbLine
 10
48.300735
 20
44.510441
 30
0.0
 11
48.300735
 21
46.091261
 31
0.0
  0
ARC
  5
14A
100
AcDbEntity
  8
0
100
AcDbCircle
 10
48.417125
 20
46.091261
 30
0.0
 40
0.11639
100
AcDbArc
 50
89.99997
 51
179.99995
  0
LINE
  5
14B
100
AcDbEntity
  8
0
100
AcDbLine
 10
45.776975
 20
49.877651
 30
0.0
 11
45.777075
 21
49.877651
 31
0.0
  0
LINE
  5
14C
100
AcDbEntity
  8
0
100
AcDbLine
 10
51.376975
 20
33.627651
 30
0.0
 11
51.376975
 21
40.127651
 31
0.0
  0
LINE
  5
14D
100
AcDbEntity
  8
0
100
AcDbLine
 10
51.376975
 20
32.877651
 30
0.0
 11
51.376975
 21
40.877651
 31
0.0
  0
LINE
  5
14E
100
AcDbEntity
  8
0
100
AcDbLine
 10
51.376975
 20
32.877651
 30
0.0
 11
55.776975
 21
32.877651
 31
0.0
  0
LINE
  5
14F
100
AcDbEntity
  8
0
100
AcDbLine
 10
51.904045
 20
43.847641
 30
0.0
 11
51.904045
 21
44.325871
 31
0.0
  0
LINE
  5
150
100
AcDbEntity
  8
0
100
AcDbLine
 10
52.020435
 20
44.277661
 30
0.0
 11
52.253215
 21
44.510441
 31
0.0
  0
LINE
  5
151
100
AcDbEntity
  8
0
100
AcDbLine
 10
52.776975
 20
43.077651
 30
0.0
 11
52.776975
 21
49.877651
 31
0.0
  0
LINE
  5
152
100
AcDbEntity
  8
0
100
AcDbLine
 10
51.376975
 20
40.877651
 30
0.0
 11
55.776975
 21
40.877651
 31
0.0
  0
LINE
  5
153
100
AcDbEntity
  8
0
100
AcDbLine
 10
55.776975
 20
42.877651
 30
0.0
 11
53.936975
 21
42.877651
 31
0.0
  0
LINE
  5
154
100
AcDbEntity
  8
0
100
AcDbLine
 10
52.676975
 20
43.877651
 30
0.0
 11
52.485995
 21
43.877651
 31
0.0
  0
ARC
  5
155
100
AcDbEntity
  8
0
100
AcDbCircle
 10
52.385187
 20
43.935845
 30
0.0
 40
0.116399
100
AcDbArc
 50
330.003186
 51
59.998544
  0
LINE
  5
156
100
AcDbEntity
  8
0
100
AcDbLine
 10
52.020435
 20
43.847641
 30
0.0
 11
52.020435
 21
44.277661
 31
0.0
  0
LINE
  5
157
100
AcDbEntity
  8
0
100
AcDbLine
 10
51.904035
 20
44.177641
 30
0.0
 11
51.804035
 21
44.277641
 31
0.0
  0
LINE
  5
158
100
AcDbEntity
  8
0
100
AcDbLine
 10
52.284405
 20
43.994021
 30
0.0
 11
52.385195
 21
43.935831
 31
0.0
  0
LINE
  5
159
100
AcDbEntity
  8
0
100
AcDbLine
 10
52.385195
 20
43.935831
 30
0.0
 11
52.290205
 21
43.775341
 31
0.0
  0
LINE
  5
15A
100
AcDbEntity
  8
0
100
AcDbLine
 10
52.342595
 20
44.094821
 30
0.0
 11
52.284395
 21
43.994021
 31
0.0
  0
LINE
  5
15B
100
AcDbEntity
  8
0
100
AcDbLine
 10
52.443395
 20
44.036621
 30
0.0
 11
52.342595
 21
44.094821
 31
0.0
  0
ARC
  5
15C
100
AcDbEntity
  8
0
100
AcDbCircle
 10
52.165005
 20
43.847641
 30
0.0
 40
0.14457
100
AcDbArc
 50
180.0
 51
329.99983
  0
ARC
  5
15D
100
AcDbEntity
  8
0
100
AcDbCircle
 10
52.165005
 20
43.847641
 30
0.0
 40
0.26096
100
AcDbArc
 50
180.0
 51
330.00011
  0
LINE
  5
15E
100
AcDbEntity
  8
0
100
AcDbLine
 10
52.485995
 20
43.877651
 30
0.0
 11
52.391005
 21
43.717151
 31
0.0
  0
LINE
  5
15F
100
AcDbEntity
  8
0
100
AcDbLine
 10
51.804045
 20
44.277651
 30
0.0
 11
51.110655
 21
44.277651
 31
0.0
  0
LINE
  5
160
100
AcDbEntity
  8
0
100
AcDbLine
 10
52.776975
 20
42.577651
 30
0.0
 11
53.936975
 21
42.577651
 31
0.0
  0
LINE
  5
161
100
AcDbEntity
  8
0
100
AcDbLine
 10
52.776975
 20
43.777631
 30
0.0
 11
52.676975
 21
43.877631
 31
0.0
  0
ARC
  5
162
100
AcDbEntity
  8
0
100
AcDbCircle
 10
52.576975
 20
43.077651
 30
0.0
 40
0.2
100
AcDbArc
 50
270.0
 51
0.0
  0
LINE
  5
163
100
AcDbEntity
  8
0
100
AcDbLine
 10
51.904045
 20
46.377651
 30
0.0
 11
51.904045
 21
46.077651
 31
0.0
  0
LINE
  5
164
100
AcDbEntity
  8
0
100
AcDbLine
 10
52.136825
 20
46.207651
 30
0.0
 11
51.962235
 21
46.207651
 31
0.0
  0
LINE
  5
165
100
AcDbEntity
  8
0
100
AcDbLine
 10
51.962235
 20
46.207651
 30
0.0
 11
51.962235
 21
46.091261
 31
0.0
  0
LINE
  5
166
100
AcDbEntity
  8
0
100
AcDbLine
 10
51.962225
 20
46.091261
 30
0.0
 11
52.136815
 21
46.091261
 31
0.0
  0
LINE
  5
167
100
AcDbEntity
  8
0
100
AcDbLine
 10
51.904045
 20
46.077641
 30
0.0
 11
51.804055
 21
45.977651
 31
0.0
  0
ARC
  5
168
100
AcDbEntity
  8
0
100
AcDbCircle
 10
52.136825
 20
46.091261
 30
0.0
 40
0.11639
100
AcDbArc
 50
0.00005
 51
90.00003
  0
LINE
  5
169
100
AcDbEntity
  8
0
100
AcDbLine
 10
51.904045
 20
44.325871
 30
0.0
 11
52.136815
 21
44.558641
 31
0.0
  0
LINE
  5
16A
100
AcDbEntity
  8
0
100
AcDbLine
 10
52.253215
 20
44.510441
 30
0.0
 11
52.253215
 21
46.091261
 31
0.0
  0
LINE
  5
16B
100
AcDbEntity
  8
0
100
AcDbLine
 10
52.136815
 20
46.091261
 30
0.0
 11
52.136815
 21
44.558641
 31
0.0
  0
LINE
  5
16C
100
AcDbEntity
  8
0
100
AcDbLine
 10
51.804055
 20
45.977651
 30
0.0
 11
51.110655
 21
45.977651
 31
0.0
  0
LINE
  5
16D
100
AcDbEntity
  8
0
100
AcDbLine
 10
52.776975
 20
44.377651
 30
0.0
 11
53.936975
 21
44.377651
 31
0.0
  0
LINE
  5
16E
100
AcDbEntity
  8
0
100
AcDbLine
 10
52.676975
 20
46.377651
 30
0.0
 11
51.904045
 21
46.377651
 31
0.0
  0
LINE
  5
16F
100
AcDbEntity
  8
0
100
AcDbLine
 10
52.776975
 20
46.477651
 30
0.0
 11
52.676975
 21
46.377651
 31
0.0
  0
ARC
  5
170
100
AcDbEntity
  8
0
100
AcDbCircle
 10
52.576975
 20
47.177651
 30
0.0
 40
0.2
100
AcDbArc
 50
0.0
 51
90.0
  0
LINE
  5
171
100
AcDbEntity
  8
CENTER
  6
CENTER
 62
     1
100
AcDbLine
 10
43.329161
 20
62.877651
 30
0.0
 11
58.107875
 21
62.877651
 31
0.0
  0
LINE
  5
172
100
AcDbEntity
  8
0
100
AcDbLine
 10
45.776975
 20
65.027651
 30
0.0
 11
51.376975
 21
65.027651
 31
0.0
  0
LINE
  5
173
100
AcDbEntity
  8
0
100
AcDbLine
 10
45.776975
 20
60.727651
 30
0.0
 11
51.376975
 21
60.727651
 31
0.0
  0
LINE
  5
174
100
AcDbEntity
  8
0
 62
     3
100
AcDbLine
 10
45.776975
 20
60.377651
 30
0.0
 11
51.376975
 21
60.377651
 31
0.0
  0
CIRCLE
  5
175
100
AcDbEntity
  8
0
100
AcDbCircle
 10
50.276975
 20
54.627651
 30
0.0
 40
1.1906
  0
LINE
  5
176
100
AcDbEntity
  8
0
100
AcDbLine
 10
47.976975
 20
56.877651
 30
0.0
 11
52.776975
 21
56.877651
 31
0.0
  0
LINE
  5
177
100
AcDbEntity
  8
0
 62
     3
100
AcDbLine
 10
45.776975
 20
65.377651
 30
0.0
 11
51.376975
 21
65.377651
 31
0.0
  0
LINE
  5
178
100
AcDbEntity
  8
0
100
AcDbLine
 10
45.776975
 20
67.877651
 30
0.0
 11
55.776975
 21
67.877651
 31
0.0
  0
LINE
  5
179
100
AcDbEntity
  8
0
100
AcDbLine
 10
47.876975
 20
53.377651
 30
0.0
 11
48.649905
 21
53.377651
 31
0.0
  0
LINE
  5
17A
100
AcDbEntity
  8
0
100
AcDbLine
 10
48.110555
 20
55.718681
 30
0.0
 11
48.211355
 21
55.660481
 31
0.0
  0
LINE
  5
17B
100
AcDbEntity
  8
0
100
AcDbLine
 10
48.067955
 20
55.877651
 30
0.0
 11
48.162945
 21
56.038151
 31
0.0
  0
LINE
  5
17C
100
AcDbEntity
  8
0
100
AcDbLine
 10
47.776975
 20
53.277651
 30
0.0
 11
47.876975
 21
53.377651
 31
0.0
  0
LINE
  5
17D
100
AcDbEntity
  8
0
100
AcDbLine
 10
45.776975
 20
54.877651
 30
0.0
 11
47.776975
 21
54.877651
 31
0.0
  0
LINE
  5
17E
100
AcDbEntity
  8
0
100
AcDbLine
 10
47.776975
 20
55.977671
 30
0.0
 11
47.876975
 21
55.877671
 31
0.0
  0
LINE
  5
17F
100
AcDbEntity
  8
0
100
AcDbLine
 10
47.876975
 20
55.877651
 30
0.0
 11
48.067955
 21
55.877651
 31
0.0
  0
ARC
  5
180
100
AcDbEntity
  8
0
100
AcDbCircle
 10
48.168762
 20
55.819457
 30
0.0
 40
0.116399
100
AcDbArc
 50
150.003186
 51
239.998544
  0
LINE
  5
181
100
AcDbEntity
  8
0
100
AcDbLine
 10
48.300735
 20
55.244861
 30
0.0
 11
48.300735
 21
53.664041
 31
0.0
  0
LINE
  5
182
100
AcDbEntity
  8
0
100
AcDbLine
 10
48.417135
 20
53.664041
 30
0.0
 11
48.417135
 21
55.196661
 31
0.0
  0
LINE
  5
183
100
AcDbEntity
  8
0
100
AcDbLine
 10
48.417125
 20
53.547651
 30
0.0
 11
48.591715
 21
53.547651
 31
0.0
  0
LINE
  5
184
100
AcDbEntity
  8
0
100
AcDbLine
 10
48.591715
 20
53.547651
 30
0.0
 11
48.591715
 21
53.664041
 31
0.0
  0
LINE
  5
185
100
AcDbEntity
  8
0
100
AcDbLine
 10
48.591725
 20
53.664041
 30
0.0
 11
48.417135
 21
53.664041
 31
0.0
  0
LINE
  5
186
100
AcDbEntity
  8
0
100
AcDbLine
 10
48.649905
 20
53.377651
 30
0.0
 11
48.649905
 21
53.677651
 31
0.0
  0
LINE
  5
187
100
AcDbEntity
  8
0
100
AcDbLine
 10
48.649905
 20
53.677661
 30
0.0
 11
48.749895
 21
53.777651
 31
0.0
  0
ARC
  5
188
100
AcDbEntity
  8
0
100
AcDbCircle
 10
48.417125
 20
53.664041
 30
0.0
 40
0.11639
100
AcDbArc
 50
180.00005
 51
270.00003
  0
LINE
  5
189
100
AcDbEntity
  8
0
100
AcDbLine
 10
48.749895
 20
53.777651
 30
0.0
 11
49.443295
 21
53.777651
 31
0.0
  0
LINE
  5
18A
100
AcDbEntity
  8
0
100
AcDbLine
 10
48.649905
 20
55.429431
 30
0.0
 11
48.417135
 21
55.196661
 31
0.0
  0
LINE
  5
18B
100
AcDbEntity
  8
0
100
AcDbLine
 10
48.649905
 20
55.907661
 30
0.0
 11
48.649905
 21
55.429431
 31
0.0
  0
LINE
  5
18C
100
AcDbEntity
  8
0
100
AcDbLine
 10
48.533515
 20
55.907661
 30
0.0
 11
48.533515
 21
55.477641
 31
0.0
  0
LINE
  5
18D
100
AcDbEntity
  8
0
100
AcDbLine
 10
48.649915
 20
55.577661
 30
0.0
 11
48.749915
 21
55.477661
 31
0.0
  0
LINE
  5
18E
100
AcDbEntity
  8
0
100
AcDbLine
 10
48.269545
 20
55.761281
 30
0.0
 11
48.168755
 21
55.819471
 31
0.0
  0
LINE
  5
18F
100
AcDbEntity
  8
0
100
AcDbLine
 10
48.168755
 20
55.819471
 30
0.0
 11
48.263745
 21
55.979961
 31
0.0
  0
LINE
  5
190
100
AcDbEntity
  8
0
100
AcDbLine
 10
48.211355
 20
55.660481
 30
0.0
 11
48.269555
 21
55.761281
 31
0.0
  0
LINE
  5
191
100
AcDbEntity
  8
0
100
AcDbLine
 10
48.533515
 20
55.477641
 30
0.0
 11
48.300735
 21
55.244861
 31
0.0
  0
ARC
  5
192
100
AcDbEntity
  8
0
100
AcDbCircle
 10
48.388945
 20
55.907661
 30
0.0
 40
0.14457
100
AcDbArc
 50
360.0
 51
149.99983
  0
ARC
  5
193
100
AcDbEntity
  8
0
100
AcDbCircle
 10
48.388945
 20
55.907661
 30
0.0
 40
0.26096
100
AcDbArc
 50
360.0
 51
150.00011
  0
LINE
  5
194
100
AcDbEntity
  8
0
100
AcDbLine
 10
48.749905
 20
55.477651
 30
0.0
 11
49.443295
 21
55.477651
 31
0.0
  0
ARC
  5
195
100
AcDbEntity
  8
0
100
AcDbCircle
 10
47.976975
 20
56.677651
 30
0.0
 40
0.2
100
AcDbArc
 50
90.0
 51
180.0
  0
LINE
  5
196
100
AcDbEntity
  8
0
100
AcDbLine
 10
51.376975
 20
66.877651
 30
0.0
 11
51.376975
 21
58.877651
 31
0.0
  0
LINE
  5
197
100
AcDbEntity
  8
0
100
AcDbLine
 10
51.376975
 20
66.127651
 30
0.0
 11
51.376975
 21
59.627651
 31
0.0
  0
LINE
  5
198
100
AcDbEntity
  8
0
100
AcDbLine
 10
52.136815
 20
53.664041
 30
0.0
 11
52.136815
 21
55.196661
 31
0.0
  0
LINE
  5
199
100
AcDbEntity
  8
0
100
AcDbLine
 10
52.253215
 20
55.244861
 30
0.0
 11
52.253215
 21
53.664041
 31
0.0
  0
LINE
  5
19A
100
AcDbEntity
  8
0
100
AcDbLine
 10
52.676975
 20
53.377651
 30
0.0
 11
51.904045
 21
53.377651
 31
0.0
  0
ARC
  5
19B
100
AcDbEntity
  8
0
100
AcDbCircle
 10
52.136825
 20
53.664041
 30
0.0
 40
0.11639
100
AcDbArc
 50
269.99997
 51
359.99995
  0
LINE
  5
19C
100
AcDbEntity
  8
0
100
AcDbLine
 10
51.904045
 20
53.677661
 30
0.0
 11
51.804055
 21
53.777651
 31
0.0
  0
LINE
  5
19D
100
AcDbEntity
  8
0
100
AcDbLine
 10
51.904045
 20
53.377651
 30
0.0
 11
51.904045
 21
53.677651
 31
0.0
  0
LINE
  5
19E
100
AcDbEntity
  8
0
100
AcDbLine
 10
51.962225
 20
53.664041
 30
0.0
 11
52.136815
 21
53.664041
 31
0.0
  0
LINE
  5
19F
100
AcDbEntity
  8
0
100
AcDbLine
 10
51.962235
 20
53.547651
 30
0.0
 11
51.962235
 21
53.664041
 31
0.0
  0
LINE
  5
1A0
100
AcDbEntity
  8
0
100
AcDbLine
 10
52.136825
 20
53.547651
 30
0.0
 11
51.962235
 21
53.547651
 31
0.0
  0
LINE
  5
1A1
100
AcDbEntity
  8
0
100
AcDbLine
 10
51.804055
 20
53.777651
 30
0.0
 11
51.110655
 21
53.777651
 31
0.0
  0
LINE
  5
1A2
100
AcDbEntity
  8
0
100
AcDbLine
 10
52.776975
 20
53.277651
 30
0.0
 11
52.676975
 21
53.377651
 31
0.0
  0
ARC
  5
1A3
100
AcDbEntity
  8
0
100
AcDbCircle
 10
52.385187
 20
55.819457
 30
0.0
 40
0.116399
100
AcDbArc
 50
300.001456
 51
29.996814
  0
LINE
  5
1A4
100
AcDbEntity
  8
0
100
AcDbLine
 10
52.676975
 20
55.877651
 30
0.0
 11
52.485995
 21
55.877651
 31
0.0
  0
LINE
  5
1A5
100
AcDbEntity
  8
0
100
AcDbLine
 10
52.020435
 20
55.477641
 30
0.0
 11
52.253215
 21
55.244861
 31
0.0
  0
LINE
  5
1A6
100
AcDbEntity
  8
0
100
AcDbLine
 10
52.443395
 20
55.718681
 30
0.0
 11
52.342595
 21
55.660481
 31
0.0
  0
LINE
  5
1A7
100
AcDbEntity
  8
0
100
AcDbLine
 10
52.342595
 20
55.660481
 30
0.0
 11
52.284395
 21
55.761281
 31
0.0
  0
LINE
  5
1A8
100
AcDbEntity
  8
0
100
AcDbLine
 10
52.385195
 20
55.819471
 30
0.0
 11
52.290205
 21
55.979961
 31
0.0
  0
LINE
  5
1A9
100
AcDbEntity
  8
0
100
AcDbLine
 10
52.284405
 20
55.761281
 30
0.0
 11
52.385195
 21
55.819471
 31
0.0
  0
LINE
  5
1AA
100
AcDbEntity
  8
0
100
AcDbLine
 10
51.904035
 20
55.577661
 30
0.0
 11
51.804035
 21
55.477661
 31
0.0
  0
LINE
  5
1AB
100
AcDbEntity
  8
0
100
AcDbLine
 10
52.020435
 20
55.907661
 30
0.0
 11
52.020435
 21
55.477641
 31
0.0
  0
LINE
  5
1AC
100
AcDbEntity
  8
0
100
AcDbLine
 10
51.904045
 20
55.907661
 30
0.0
 11
51.904045
 21
55.429431
 31
0.0
  0
LINE
  5
1AD
100
AcDbEntity
  8
0
100
AcDbLine
 10
51.904045
 20
55.429431
 30
0.0
 11
52.136815
 21
55.196661
 31
0.0
  0
LINE
  5
1AE
100
AcDbEntity
  8
0
100
AcDbLine
 10
51.804045
 20
55.477651
 30
0.0
 11
51.110655
 21
55.477651
 31
0.0
  0
LINE
  5
1AF
100
AcDbEntity
  8
0
100
AcDbLine
 10
52.485995
 20
55.877651
 30
0.0
 11
52.391005
 21
56.038151
 31
0.0
  0
ARC
  5
1B0
100
AcDbEntity
  8
0
100
AcDbCircle
 10
52.165005
 20
55.907661
 30
0.0
 40
0.26096
100
AcDbArc
 50
29.99989
 51
180.0
  0
ARC
  5
1B1
100
AcDbEntity
  8
0
100
AcDbCircle
 10
52.165005
 20
55.907661
 30
0.0
 40
0.14457
100
AcDbArc
 50
30.00017
 51
180.0
  0
LINE
  5
1B2
100
AcDbEntity
  8
0
100
AcDbLine
 10
52.776975
 20
55.377651
 30
0.0
 11
53.936975
 21
55.377651
 31
0.0
  0
LINE
  5
1B3
100
AcDbEntity
  8
0
100
AcDbLine
 10
52.776975
 20
55.977671
 30
0.0
 11
52.676975
 21
55.877671
 31
0.0
  0
LINE
  5
1B4
100
AcDbEntity
  8
0
100
AcDbLine
 10
51.376975
 20
58.877651
 30
0.0
 11
55.776975
 21
58.877651
 31
0.0
  0
LINE
  5
1B5
100
AcDbEntity
  8
0
100
AcDbLine
 10
55.776975
 20
56.877651
 30
0.0
 11
53.936975
 21
56.877651
 31
0.0
  0
ARC
  5
1B6
100
AcDbEntity
  8
0
100
AcDbCircle
 10
52.576975
 20
56.677651
 30
0.0
 40
0.2
100
AcDbArc
 50
0.0
 51
90.0
  0
LINE
  5
1B7
100
AcDbEntity
  8
0
100
AcDbLine
 10
52.776975
 20
57.177651
 30
0.0
 11
53.936975
 21
57.177651
 31
0.0
  0
LINE
  5
1B8
100
AcDbEntity
  8
0
100
AcDbLine
 10
51.376975
 20
66.877651
 30
0.0
 11
55.776975
 21
66.877651
 31
0.0
  0
LINE
  5
1B9
100
AcDbEntity
  8
CENTER
  6
CENTER
 62
     1
100
AcDbLine
 10
96.764156
 20
72.636986
 30
0.0
 11
96.764156
 21
28.047945
 31
0.0
  0
CIRCLE
  5
1BA
100
AcDbEntity
  8
CENTER
  6
CENTER
 62
     1
100
AcDbCircle
 10
96.764156
 20
49.877651
 30
0.0
 40
13.0
  0
ARC
  5
1BB
100
AcDbEntity
  8
0
100
AcDbCircle
 10
96.764156
 20
49.877651
 30
0.0
 40
18.0
100
AcDbArc
 50
348.55731
 51
11.44269
  0
ARC
  5
1BC
100
AcDbEntity
  8
0
100
AcDbCircle
 10
96.764156
 20
49.877651
 30
0.0
 40
18.0
100
AcDbArc
 50
168.55731
 51
191.44269
  0
CIRCLE
  5
1BD
100
AcDbEntity
  8
0
100
AcDbCircle
 10
109.764156
 20
49.877651
 30
0.0
 40
4.0
  0
CIRCLE
  5
1BE
100
AcDbEntity
  8
0
100
AcDbCircle
 10
83.764156
 20
49.877651
 30
0.0
 40
4.0
  0
CIRCLE
  5
1BF
100
AcDbEntity
  8
0
100
AcDbCircle
 10
96.764156
 20
49.877651
 30
0.0
 40
7.0
  0
LINE
  5
1C0
100
AcDbEntity
  8
CENTER
  6
CENTER
 62
     1
100
AcDbLine
 10
74.589845
 20
49.877651
 30
0.0
 11
118.358707
 21
49.877651
 31
0.0
  0
ARC
  5
1C1
100
AcDbEntity
  8
0
100
AcDbCircle
 10
96.764156
 20
49.877651
 30
0.0
 40
18.0
100
AcDbArc
 50
258.55731
 51
281.44269
  0
CIRCLE
  5
1C2
100
AcDbEntity
  8
0
100
AcDbCircle
 10
96.764156
 20
36.877651
 30
0.0
 40
4.0
  0
CIRCLE
  5
1C3
100
AcDbEntity
  8
0
 62
     3
100
AcDbCircle
 10
96.764156
 20
36.877651
 30
0.0
 40
2.5
  0
CIRCLE
  5
1C4
100
AcDbEntity
  8
0
100
AcDbCircle
 10
96.764156
 20
36.877651
 30
0.0
 40
2.0
  0
CIRCLE
  5
1C5
100
AcDbEntity
  8
0
100
AcDbCircle
 10
96.764156
 20
49.877651
 30
0.0
 40
2.5
  0
LINE
  5
1C6
100
AcDbEntity
  8
0
100
AcDbLine
 10
93.193178
 20
32.235425
 30
0.0
 11
79.12193
 21
46.306673
 31
0.0
  0
CIRCLE
  5
1C7
100
AcDbEntity
  8
0
 62
     3
100
AcDbCircle
 10
83.764156
 20
49.877651
 30
0.0
 40
2.5
  0
CIRCLE
  5
1C8
100
AcDbEntity
  8
0
100
AcDbCircle
 10
83.764156
 20
49.877651
 30
0.0
 40
2.0
  0
LINE
  5
1C9
100
AcDbEntity
  8
0
100
AcDbLine
 10
100.335134
 20
32.235425
 30
0.0
 11
114.406381
 21
46.306673
 31
0.0
  0
CIRCLE
  5
1CA
100
AcDbEntity
  8
0
 62
     3
100
AcDbCircle
 10
109.764156
 20
49.877651
 30
0.0
 40
2.5
  0
CIRCLE
  5
1CB
100
AcDbEntity
  8
0
100
AcDbCircle
 10
109.764156
 20
49.877651
 30
0.0
 40
2.0
  0
ARC
  5
1CC
100
AcDbEntity
  8
0
100
AcDbCircle
 10
96.764156
 20
49.877651
 30
0.0
 40
18.0
100
AcDbArc
 50
78.55731
 51
101.44269
  0
CIRCLE
  5
1CD
100
AcDbEntity
  8
0
100
AcDbCircle
 10
96.764156
 20
62.877651
 30
0.0
 40
4.0
  0
CIRCLE
  5
1CE
100
AcDbEntity
  8
0
 62
     3
100
AcDbCircle
 10
96.764156
 20
62.877651
 30
0.0
 40
2.5
  0
CIRCLE
  5
1CF
100
AcDbEntity
  8
0
100
AcDbCircle
 10
96.764156
 20
62.877651
 30
0.0
 40
2.0
  0
LINE
  5
1D0
100
AcDbEntity
  8
0
100
AcDbLine
 10
79.12193
 20
53.448629
 30
0.0
 11
93.193178
 21
67.519876
 31
0.0
  0
LINE
  5
1D1
100
AcDbEntity
  8
0
100
AcDbLine
 10
114.406381
 20
53.448629
 30
0.0
 11
100.335134
 21
67.519876
 31
0.0
  0
ENDSEC
  0
SECTION
  2
OBJECTS
  0
DICTIONARY
  5
EE
100
AcDbDictionary
  3
ACAD_GROUP
350
EF
  3
ACAD_LAYOUT
350
FB
  3
ACAD_MLINESTYLE
350
F8
  3
ACAD_PLOTSETTINGS
350
FA
  3
ACAD_PLOTSTYLENAME
350
F0
  3
ACDBHEADERROUNDTRIPXREC
350
1DE
  3
AcDbVariableDictionary
350
207
  0
DICTIONARY
  5
1DC
100
AcDbDictionary
280
     1
  3
ACAD_XREC_ROUNDTRIP
360
1DD
  0
DICTIONARY
  5
1D8
100
AcDbDictionary
280
     1
  3
ACAD_XREC_ROUNDTRIP
360
1D9
  0
DICTIONARY
  5
1DA
100
AcDbDictionary
280
     1
  3
ACAD_XREC_ROUNDTRIP
360
1DB
  0
DICTIONARY
  5
205
100
AcDbDictionary
280
     1
  3
ACAD_XREC_ROUNDTRIP
360
206
  0
DICTIONARY
  5
1D4
100
AcDbDictionary
280
     1
  3
ACAD_LAYOUTSELFREF
360
204
  3
ACAD_XREC_ROUNDTRIP
360
1D5
  0
DICTIONARY
  5
1D6
100
AcDbDictionary
280
     1
  3
ACAD_LAYOUTSELFREF
360
203
  3
ACAD_XREC_ROUNDTRIP
360
1D7
  0
DICTIONARY
  5
EF
102
{ACAD_REACTORS
330
EE
102
}
100
AcDbDictionary
  0
DICTIONARY
  5
FB
102
{ACAD_XDICTIONARY
360
201
102
}
102
{ACAD_REACTORS
330
EE
102
}
100
AcDbDictionary
  3
MODEL
350
103
  3
ﾚｲｱｳﾄ1
350
FF
  0
DICTIONARY
  5
F8
102
{ACAD_XDICTIONARY
360
1FF
102
}
102
{ACAD_REACTORS
330
EE
102
}
100
AcDbDictionary
  3
STANDARD
350
F9
  0
DICTIONARY
  5
FA
102
{ACAD_REACTORS
330
EE
102
}
100
AcDbDictionary
  0
ACAD_PROXY_OBJECT
  5
F0
102
{ACAD_REACTORS
330
EE
102
}
100
AcDbProxyObject
 90
      499
 91
      500
 93
       86
310
405010041939BDC9B585B3
350
F1
340
F1
 94
        0
  0
DICTIONARY
  5
1DE
102
{ACAD_REACTORS
330
EE
102
}
100
AcDbDictionary
  3
CEPSNTYPE
350
1E8
  3
DIMSTYLEDATA
350
1EC
  3
FINGERPRINTGUID
350
1E9
  3
HYPERLINKBASE
350
1E1
  3
INSUNITS
350
1E7
  3
LAYOUTDICT
350
1E3
  3
LWETCUNION
350
1E6
  3
PLOTSETDICT
350
1E4
  3
PLOTSTYLNAMDICT
350
1E5
  3
PSVPSCALE
350
1EB
  3
PUCSBASE
350
1EF
  3
PUCSORGBACK
350
1F5
  3
PUCSORGBOTTOM
350
1F1
  3
PUCSORGFRONT
350
1F4
  3
PUCSORGLEFT
350
1F2
  3
PUCSORGRIGHT
350
1F3
  3
PUCSORGTOP
350
1F0
  3
PUCSORTHOREF
350
1ED
  3
PUCSORTHOVIEW
350
1EE
  3
STYLESHEET
350
1E2
  3
TSTACKALIGN
350
1DF
  3
TSTACKSIZE
350
1E0
  3
UCSBASE
350
1F8
  3
UCSORGBACK
350
1FE
  3
UCSORGBOTTOM
350
1FA
  3
UCSORGFRONT
350
1FD
  3
UCSORGLEFT
350
1FB
  3
UCSORGRIGHT
350
1FC
  3
UCSORGTOP
350
1F9
  3
UCSORTHOREF
350
1F6
  3
UCSORTHOVIEW
350
1F7
  3
VERSIONGUID
350
1EA
  0
DICTIONARY
  5
207
102
{ACAD_REACTORS
330
EE
102
}
100
AcDbDictionary
  3
DIMASSOC
350
208
  0
XRECORD
  5
1DD
102
{ACAD_REACTORS
330
1DC
102
}
100
AcDbXrecord
102
EXTNAMES
  1
*ACTIVE
  2
*Active
102
UCS
 74
     0
 71
     0
 10
0.0
 20
0.0
 30
0.0
 10
1.0
 20
0.0
 30
0.0
 10
0.0
 20
1.0
 30
0.0
146
0.0
 79
     0
102
VIEW
281
     0
  0
XRECORD
  5
1D9
102
{ACAD_REACTORS
330
1D8
102
}
100
AcDbXrecord
102
EXTNAMES
  1
BYBLOCK
  2
ByBlock
  0
XRECORD
  5
1DB
102
{ACAD_REACTORS
330
1DA
102
}
100
AcDbXrecord
102
EXTNAMES
  1
BYLAYER
  2
ByLayer
  0
XRECORD
  5
206
102
{ACAD_REACTORS
330
205
102
}
100
AcDbXrecord
102
ACADR14ROUNDTRIP
1000
DSTYLE
1002
{
1070
   279
 70
     2
1002
}
  0
XRECORD
  5
204
102
{ACAD_REACTORS
330
1D4
102
}
100
AcDbXrecord
340
100
  0
XRECORD
  5
1D5
102
{ACAD_REACTORS
330
1D4
102
}
100
AcDbXrecord
102
EXTNAMES
  1
*MODEL_SPACE
  2
*Model_Space
  0
XRECORD
  5
203
102
{ACAD_REACTORS
330
1D6
102
}
100
AcDbXrecord
340
FC
  0
XRECORD
  5
1D7
102
{ACAD_REACTORS
330
1D6
102
}
100
AcDbXrecord
102
EXTNAMES
  1
*PAPER_SPACE
  2
*Paper_Space
  0
DICTIONARY
  5
201
100
AcDbDictionary
280
     1
  3
ACAD_XREC_ROUNDTRIP
360
202
  0
ACAD_PROXY_OBJECT
  5
103
102
{ACAD_REACTORS
330
FB
102
}
100
AcDbProxyObject
 90
      499
 91
      502
 93
      836
310
932433A5C50524F4752414D2046494C45535C4D4454365C706C6F74746572735C526F6C616E64204458592D313235302E7063332C01AAAAAAAAA5A69054D6F64656C901A800000000000000000000000000000000000000000000A1000000000000008902A6A6AAAA0
330
100
330
0
340
0
340
0
 94
        0
  0
ACAD_PROXY_OBJECT
  5
FF
102
{ACAD_REACTORS
330
FB
102
}
100
AcDbProxyObject
 90
      499
 91
      502
 93
     1252
310
932433A5C50524F4752414D2046494C45535C4D4454365C706C6F74746572735C526F6C616E64204458592D313235302E7063332C00AAAAAA416AA59106906DAB2B1B3C43140501A800000000000000000000000000000000000000000000A1000000000000008902A6A6A10232D5E076BC5510408CB5781DAF154410232D5
310
E076BC5510408CB5781DAF15C410232D5E076BC5710408CB5781DAF15C40
330
FC
330
0
340
0
340
0
 94
        0
  0
DICTIONARY
  5
1FF
100
AcDbDictionary
280
     1
  3
ACAD_XREC_ROUNDTRIP
360
200
  0
MLINESTYLE
  5
F9
102
{ACAD_REACTORS
330
F8
102
}
100
AcDbMlineStyle
  2
STANDARD
 70
     0
  3

 62
   256
 51
90.0
 52
90.0
 71
     2
 49
0.5
 62
   256
  6
BYLAYER
 49
-0.5
 62
   256
  6
BYLAYER
  0
ACAD_PROXY_OBJECT
  5
F1
102
{ACAD_REACTORS
330
F0
102
}
100
AcDbProxyObject
 90
      499
 91
      501
 93
        0
 94
        0
  0
XRECORD
  5
1E8
102
{ACAD_REACTORS
330
1DE
102
}
100
AcDbXrecord
 90
        0
  0
XRECORD
  5
1EC
102
{ACAD_REACTORS
330
1DE
102
}
100
AcDbXrecord
1000
DSTYLE
1002
{
1070
   341
340
110
1070
   343
340
110
1070
   344
340
110
1002
}
  0
XRECORD
  5
1E9
102
{ACAD_REACTORS
330
1DE
102
}
100
AcDbXrecord
  1
{12B6D691-D0D8-4E5C-9152-974E6F7A79FD}
  0
XRECORD
  5
1E1
102
{ACAD_REACTORS
330
1DE
102
}
100
AcDbXrecord
  1

  0
XRECORD
  5
1E7
102
{ACAD_REACTORS
330
1DE
102
}
100
AcDbXrecord
 90
        0
  0
XRECORD
  5
1E3
102
{ACAD_REACTORS
330
1DE
102
}
100
AcDbXrecord
340
FB
  0
XRECORD
  5
1E6
102
{ACAD_REACTORS
330
1DE
102
}
100
AcDbXrecord
 90
    10781
  0
XRECORD
  5
1E4
102
{ACAD_REACTORS
330
1DE
102
}
100
AcDbXrecord
340
FA
  0
XRECORD
  5
1E5
102
{ACAD_REACTORS
330
1DE
102
}
100
AcDbXrecord
340
F0
  0
XRECORD
  5
1EB
102
{ACAD_REACTORS
330
1DE
102
}
100
AcDbXrecord
 40
0.0
  0
XRECORD
  5
1EF
102
{ACAD_REACTORS
330
1DE
102
}
100
AcDbXrecord
340
0
  0
XRECORD
  5
1F5
102
{ACAD_REACTORS
330
1DE
102
}
100
AcDbXrecord
 10
0.0
 20
0.0
 30
0.0
  0
XRECORD
  5
1F1
102
{ACAD_REACTORS
330
1DE
102
}
100
AcDbXrecord
 10
0.0
 20
0.0
 30
0.0
  0
XRECORD
  5
1F4
102
{ACAD_REACTORS
330
1DE
102
}
100
AcDbXrecord
 10
0.0
 20
0.0
 30
0.0
  0
XRECORD
  5
1F2
102
{ACAD_REACTORS
330
1DE
102
}
100
AcDbXrecord
 10
0.0
 20
0.0
 30
0.0
  0
XRECORD
  5
1F3
102
{ACAD_REACTORS
330
1DE
102
}
100
AcDbXrecord
 10
0.0
 20
0.0
 30
0.0
  0
XRECORD
  5
1F0
102
{ACAD_REACTORS
330
1DE
102
}
100
AcDbXrecord
 10
0.0
 20
0.0
 30
0.0
  0
XRECORD
  5
1ED
102
{ACAD_REACTORS
330
1DE
102
}
100
AcDbXrecord
340
0
  0
XRECORD
  5
1EE
102
{ACAD_REACTORS
330
1DE
102
}
100
AcDbXrecord
 70
     0
  0
XRECORD
  5
1E2
102
{ACAD_REACTORS
330
1DE
102
}
100
AcDbXrecord
  1

  0
XRECORD
  5
1DF
102
{ACAD_REACTORS
330
1DE
102
}
100
AcDbXrecord
 90
        1
  0
XRECORD
  5
1E0
102
{ACAD_REACTORS
330
1DE
102
}
100
AcDbXrecord
 90
       70
  0
XRECORD
  5
1F8
102
{ACAD_REACTORS
330
1DE
102
}
100
AcDbXrecord
340
0
  0
XRECORD
  5
1FE
102
{ACAD_REACTORS
330
1DE
102
}
100
AcDbXrecord
 10
0.0
 20
0.0
 30
0.0
  0
XRECORD
  5
1FA
102
{ACAD_REACTORS
330
1DE
102
}
100
AcDbXrecord
 10
0.0
 20
0.0
 30
0.0
  0
XRECORD
  5
1FD
102
{ACAD_REACTORS
330
1DE
102
}
100
AcDbXrecord
 10
0.0
 20
0.0
 30
0.0
  0
XRECORD
  5
1FB
102
{ACAD_REACTORS
330
1DE
102
}
100
AcDbXrecord
 10
0.0
 20
0.0
 30
0.0
  0
XRECORD
  5
1FC
102
{ACAD_REACTORS
330
1DE
102
}
100
AcDbXrecord
 10
0.0
 20
0.0
 30
0.0
  0
XRECORD
  5
1F9
102
{ACAD_REACTORS
330
1DE
102
}
100
AcDbXrecord
 10
0.0
 20
0.0
 30
0.0
  0
XRECORD
  5
1F6
102
{ACAD_REACTORS
330
1DE
102
}
100
AcDbXrecord
340
0
  0
XRECORD
  5
1F7
102
{ACAD_REACTORS
330
1DE
102
}
100
AcDbXrecord
 70
     0
  0
XRECORD
  5
1EA
102
{ACAD_REACTORS
330
1DE
102
}
100
AcDbXrecord
  1
{80022F30-DC0D-40C1-90F3-C9844D992564}
  0
DICTIONARYVAR
  5
208
102
{ACAD_REACTORS
330
207
102
}
100
DictionaryVariables
280
     0
  1
1
  0
XRECORD
  5
202
102
{ACAD_REACTORS
330
201
102
}
100
AcDbXrecord
102
EXTNAMES
  1
MODEL
  2
Model
  0
XRECORD
  5
200
102
{ACAD_REACTORS
330
1FF
102
}
100
AcDbXrecord
102
EXTNAMES
  1
STANDARD
  2
Standard
  0
ENDSEC
  0
EOF
