  0
SECTION
  2
HEADER
  9
$ACADVER
  1
AC1009
  9
$INSBASE
 10
0.0
 20
0.0
 30
0.0
  9
$EXTMIN
 10
75.75
 20
62.75
 30
0.0
  9
$EXTMAX
 10
209.75
 20
147.75
 30
0.0
  9
$LIMMIN
 10
0.0
 20
0.0
  9
$LIMMAX
 10
265.0
 20
200.0
  9
$ORTHOMODE
 70
     1
  9
$REGENMODE
 70
     1
  9
$FILLMODE
 70
     1
  9
$QTEXTMODE
 70
     0
  9
$MIRRTEXT
 70
     1
  9
$DRAGMODE
 70
     2
  9
$LTSCALE
 40
1.0
  9
$OSMODE
 70
     0
  9
$ATTMODE
 70
     1
  9
$TEXTSIZE
 40
2.5
  9
$TRACEWID
 40
1.0
  9
$TEXTSTYLE
  7
STANDARD
  9
$CLAYER
  8
2
  9
$CELTYPE
  6
BYLAYER
  9
$CECOLOR
 62
   256
  9
$DIMSCALE
 40
1.0
  9
$DIMASZ
 40
2.5
  9
$DIMEXO
 40
0.625
  9
$DIMDLI
 40
3.75
  9
$DIMRND
 40
0.0
  9
$DIMDLE
 40
0.0
  9
$DIMEXE
 40
1.25
  9
$DIMTP
 40
0.0
  9
$DIMTM
 40
0.0
  9
$DIMTXT
 40
2.5
  9
$DIMCEN
 40
2.5
  9
$DIMTSZ
 40
0.0
  9
$DIMTOL
 70
     0
  9
$DIMLIM
 70
     0
  9
$DIMTIH
 70
     0
  9
$DIMTOH
 70
     0
  9
$DIMSE1
 70
     0
  9
$DIMSE2
 70
     0
  9
$DIMTAD
 70
     1
  9
$DIMZIN
 70
     8
  9
$DIMBLK
  1

  9
$DIMASO
 70
     1
  9
$DIMSHO
 70
     1
  9
$DIMPOST
  1

  9
$DIMAPOST
  1

  9
$DIMALT
 70
     0
  9
$DIMALTD
 70
     4
  9
$DIMALTF
 40
0.0394
  9
$DIMLFAC
 40
1.0
  9
$DIMTOFL
 70
     1
  9
$DIMTVP
 40
0.0
  9
$DIMTIX
 70
     0
  9
$DIMSOXD
 70
     0
  9
$DIMSAH
 70
     0
  9
$DIMBLK1
  1

  9
$DIMBLK2
  1

  9
$DIMSTYLE
  2
STANDARD
  9
$DIMCLRD
 70
     0
  9
$DIMCLRE
 70
     0
  9
$DIMCLRT
 70
     0
  9
$DIMTFAC
 40
1.0
  9
$DIMGAP
 40
0.625
  9
$LUNITS
 70
     2
  9
$LUPREC
 70
     4
  9
$SKETCHINC
 40
1.0
  9
$FILLETRAD
 40
10.0
  9
$AUNITS
 70
     0
  9
$AUPREC
 70
     0
  9
$MENU
  1
.
  9
$ELEVATION
 40
0.0
  9
$PELEVATION
 40
0.0
  9
$THICKNESS
 40
0.0
  9
$LIMCHECK
 70
     0
  9
$BLIPMODE
 70
     0
  9
$CHAMFERA
 40
10.0
  9
$CHAMFERB
 40
10.0
  9
$SKPOLY
 70
     0
  9
$TDCREATE
 40
2452361.611515
  9
$TDUPDATE
 40
2452364.680904
  9
$TDINDWG
 40
0.211617
  9
$TDUSRTIMER
 40
0.211617
  9
$USRTIMER
 70
     1
  9
$ANGBASE
 50
0.0
  9
$ANGDIR
 70
     0
  9
$PDMODE
 70
     0
  9
$PDSIZE
 40
0.0
  9
$PLINEWID
 40
0.0
  9
$COORDS
 70
     2
  9
$SPLFRAME
 70
     0
  9
$SPLINETYPE
 70
     6
  9
$SPLINESEGS
 70
     8
  9
$ATTDIA
 70
     0
  9
$ATTREQ
 70
     1
  9
$HANDLING
 70
     1
  9
$HANDSEED
  5
53F
  9
$SURFTAB1
 70
     6
  9
$SURFTAB2
 70
     6
  9
$SURFTYPE
 70
     6
  9
$SURFU
 70
     6
  9
$SURFV
 70
     6
  9
$UCSNAME
  2

  9
$UCSORG
 10
0.0
 20
0.0
 30
0.0
  9
$UCSXDIR
 10
1.0
 20
0.0
 30
0.0
  9
$UCSYDIR
 10
0.0
 20
1.0
 30
0.0
  9
$PUCSNAME
  2

  9
$PUCSORG
 10
0.0
 20
0.0
 30
0.0
  9
$PUCSXDIR
 10
1.0
 20
0.0
 30
0.0
  9
$PUCSYDIR
 10
0.0
 20
1.0
 30
0.0
  9
$USERI1
 70
     0
  9
$USERI2
 70
     0
  9
$USERI3
 70
     0
  9
$USERI4
 70
     0
  9
$USERI5
 70
     0
  9
$USERR1
 40
0.0
  9
$USERR2
 40
0.0
  9
$USERR3
 40
0.0
  9
$USERR4
 40
0.0
  9
$USERR5
 40
0.0
  9
$WORLDVIEW
 70
     1
  9
$SHADEDGE
 70
     3
  9
$SHADEDIF
 70
    70
  9
$TILEMODE
 70
     1
  9
$MAXACTVP
 70
    48
  9
$PLIMCHECK
 70
     0
  9
$PEXTMIN
 10
1.000000E+020
 20
1.000000E+020
 30
1.000000E+020
  9
$PEXTMAX
 10
-1.000000E+020
 20
-1.000000E+020
 30
-1.000000E+020
  9
$PLIMMIN
 10
0.0
 20
0.0
  9
$PLIMMAX
 10
420.0
 20
297.0
  9
$UNITMODE
 70
     0
  9
$VISRETAIN
 70
     1
  9
$PLINEGEN
 70
     0
  9
$PSLTSCALE
 70
     1
  0
ENDSEC
  0
SECTION
  2
TABLES
  0
TABLE
  2
VPORT
 70
     2
  0
VPORT
  2
*ACTIVE
 70
     0
 10
0.0
 20
0.0
 11
1.0
 21
1.0
 12
146.401821
 22
124.971081
 13
0.0
 23
0.0
 14
0.25
 24
0.25
 15
1.0
 25
1.0
 16
0.0
 26
0.0
 36
1.0
 17
0.0
 27
0.0
 37
0.0
 40
249.951882
 41
1.171492
 42
50.0
 43
0.0
 44
0.0
 50
0.0
 51
0.0
 71
     0
 72
 20000
 73
     1
 74
     1
 75
     1
 76
     0
 77
     0
 78
     0
  0
ENDTAB
  0
TABLE
  2
LTYPE
 70
     7
  0
LTYPE
  2
CONTINUOUS
 70
     0
  3
Solid line
 72
    65
 73
     0
 40
0.0
  0
LTYPE
  2
CENTERX2
 70
     0
  3
Center (2x) ________  __  ________  __  _____
 72
    65
 73
     4
 40
101.6
 49
63.5
 49
-12.7
 49
12.7
 49
-12.7
  0
LTYPE
  2
DASHEDX2
 70
     0
  3
Dashed (2x) ____  ____  ____  ____  ____  ___
 72
    65
 73
     2
 40
38.1
 49
25.4
 49
-12.7
  0
LTYPE
  2
DASHED
 70
     0
  3
Dashed __ __ __ __ __ __ __ __ __ __ __ __ __ _
 72
    65
 73
     2
 40
19.05
 49
12.7
 49
-6.35
  0
LTYPE
  2
CENTER
 70
     0
  3
Center ____ _ ____ _ ____ _ ____ _ ____ _ ____
 72
    65
 73
     4
 40
50.8
 49
31.75
 49
-6.35
 49
6.35
 49
-6.35
  0
LTYPE
  2
CENTER2
 70
     0
  3
Center (.5x) ___ _ ___ _ ___ _ ___ _ ___ _ ___
 72
    65
 73
     4
 40
28.575
 49
19.05
 49
-3.175
 49
3.175
 49
-3.175
  0
LTYPE
  2
DASHED2
 70
     0
  3
Dashed (.5x) _ _ _ _ _ _ _ _ _ _ _ _ _ _ _ _ _
 72
    65
 73
     2
 40
9.525
 49
6.35
 49
-3.175
  0
ENDTAB
  0
TABLE
  2
LAYER
 70
     5
  0
LAYER
  2
0
 70
     0
 62
     7
  6
CONTINUOUS
  0
LAYER
  2
1
 70
     0
 62
     1
  6
CENTER2
  0
LAYER
  2
2
 70
     0
 62
     2
  6
DASHED2
  0
LAYER
  2
3
 70
     0
 62
     4
  6
CONTINUOUS
  0
LAYER
  2
DEFPOINTS
 70
     0
 62
     7
  6
CONTINUOUS
  0
ENDTAB
  0
TABLE
  2
STYLE
 70
     2
  0
STYLE
  2
STANDARD
 70
     0
 40
0.0
 41
1.0
 50
0.0
 71
     0
 42
2.5
  3
txt
  4

  0
STYLE
  2

 70
     1
 40
0.0
 41
1.0
 50
0.0
 71
     0
 42
2.5
  3
ltypeshp.shx
  4

  0
ENDTAB
  0
TABLE
  2
VIEW
 70
     0
  0
ENDTAB
  0
TABLE
  2
UCS
 70
     0
  0
ENDTAB
  0
TABLE
  2
APPID
 70
     1
  0
APPID
  2
ACAD
 70
     0
  0
ENDTAB
  0
TABLE
  2
DIMSTYLE
 70
     1
  0
DIMSTYLE
  2
STANDARD
 70
     0
  3

  4

  5

  6

  7

 40
1.0
 41
0.18
 42
0.0625
 43
0.38
 44
0.18
 45
0.0
 46
0.0
 47
0.0
 48
0.0
140
0.18
141
0.09
142
0.0
143
25.4
144
1.0
145
0.0
146
1.0
147
0.09
 71
     0
 72
     0
 73
     1
 74
     1
 75
     0
 76
     0
 77
     0
 78
     0
170
     0
171
     2
172
     0
173
     0
174
     0
175
     0
176
     0
177
     0
178
     0
  0
ENDTAB
  0
ENDSEC
  0
SECTION
  2
BLOCKS
  0
BLOCK
  8
0
  2
$MODEL_SPACE
 70
     0
 10
0.0
 20
0.0
 30
0.0
  3
$MODEL_SPACE
  1

  0
ENDBLK
  5
1A
  8
0
  0
BLOCK
 67
     1
  8
0
  2
$PAPER_SPACE
 70
     0
 10
0.0
 20
0.0
 30
0.0
  3
$PAPER_SPACE
  1

  0
ENDBLK
  5
17
 67
     1
  8
0
  0
ENDSEC
  0
SECTION
  2
ENTITIES
  0
LINE
  5
3C2
  8
1
 10
120.5
 20
103.0
 30
0.0
 11
209.75
 21
103.0
 31
0.0
  0
LINE
  5
3C3
  8
1
 10
163.0
 20
63.0
 30
0.0
 11
163.0
 21
147.75
 31
0.0
  0
LINE
  5
476
  8
1
 10
101.25
 20
103.0
 30
0.0
 11
75.75
 21
103.0
 31
0.0
  0
CIRCLE
  5
49F
  8
0
 10
163.0
 20
103.0
 30
0.0
 40
34.5
  0
CIRCLE
  5
4A0
  8
1
 10
163.0
 20
103.0
 30
0.0
 40
28.0
  0
CIRCLE
  5
4A1
  8
0
 10
163.0
 20
131.0
 30
0.0
 40
5.5
  0
CIRCLE
  5
4A2
  8
0
 10
191.0
 20
103.0
 30
0.0
 40
5.5
  0
CIRCLE
  5
4A3
  8
0
 10
163.0
 20
75.0
 30
0.0
 40
5.5
  0
CIRCLE
  5
4A4
  8
0
 10
135.0
 20
103.0
 30
0.0
 40
5.5
  0
CIRCLE
  5
4A5
  8
0
 10
163.0
 20
131.0
 30
0.0
 40
4.0
  0
CIRCLE
  5
4A6
  8
0
 10
191.0
 20
103.0
 30
0.0
 40
4.0
  0
CIRCLE
  5
4A7
  8
0
 10
163.0
 20
75.0
 30
0.0
 40
4.0
  0
CIRCLE
  5
4A8
  8
0
 10
135.0
 20
103.0
 30
0.0
 40
4.0
  0
CIRCLE
  5
4A9
  8
0
 10
163.0
 20
131.0
 30
0.0
 40
3.4
  0
CIRCLE
  5
4AA
  8
0
 10
191.0
 20
103.0
 30
0.0
 40
3.4
  0
CIRCLE
  5
4AB
  8
0
 10
163.0
 20
75.0
 30
0.0
 40
3.4
  0
CIRCLE
  5
4AC
  8
0
 10
135.0
 20
103.0
 30
0.0
 40
3.4
  0
CIRCLE
  5
4AD
  8
0
 10
163.0
 20
103.0
 30
0.0
 40
10.0
  0
LINE
  5
4B0
  8
1
 10
98.25
 20
131.0
 30
0.0
 11
79.0
 21
131.0
 31
0.0
  0
LINE
  5
4B1
  8
0
 10
95.25
 20
103.0
 30
0.0
 11
95.25
 21
137.5
 31
0.0
  0
LINE
  5
4B2
  8
0
 10
95.25
 20
137.5
 30
0.0
 11
80.25
 21
137.5
 31
0.0
  0
LINE
  5
4B3
  8
0
 10
80.25
 20
137.5
 30
0.0
 11
80.25
 21
103.0
 31
0.0
  0
LINE
  5
4B4
  8
0
 10
95.25
 20
103.0
 30
0.0
 11
95.25
 21
121.5
 31
0.0
  0
LINE
  5
4B5
  8
0
 10
95.25
 20
121.5
 30
0.0
 11
92.9
 21
121.5
 31
0.0
  0
LINE
  5
4B6
  8
0
 10
82.25
 20
121.5
 30
0.0
 11
82.25
 21
103.0
 31
0.0
  0
LINE
  5
4B7
  8
0
 10
82.25
 20
103.0
 30
0.0
 11
82.25
 21
120.0
 31
0.0
  0
LINE
  5
4B8
  8
0
 10
82.25
 20
120.0
 30
0.0
 11
80.25
 21
120.0
 31
0.0
  0
LINE
  5
4BB
  8
0
 10
95.25
 20
103.0
 30
0.0
 11
95.25
 21
113.0
 31
0.0
  0
LINE
  5
4BC
  8
0
 10
91.25
 20
113.0
 30
0.0
 11
82.25
 21
113.0
 31
0.0
  0
LINE
  5
4BD
  8
0
 10
95.25
 20
131.0
 30
0.0
 11
95.25
 21
136.5
 31
0.0
  0
LINE
  5
4BE
  8
0
 10
95.25
 20
136.5
 30
0.0
 11
88.75
 21
136.5
 31
0.0
  0
LINE
  5
4BF
  8
0
 10
88.75
 20
136.5
 30
0.0
 11
88.75
 21
125.5
 31
0.0
  0
LINE
  5
4C0
  8
0
 10
88.75
 20
125.5
 30
0.0
 11
95.25
 21
125.5
 31
0.0
  0
LINE
  5
4C1
  8
0
 10
80.25
 20
135.0
 30
0.0
 11
88.75
 21
135.0
 31
0.0
  0
LINE
  5
4C3
  8
0
 10
80.25
 20
134.4
 30
0.0
 11
88.75
 21
134.4
 31
0.0
  0
LINE
  5
4C4
  8
0
 10
80.25
 20
127.6
 30
0.0
 11
88.75
 21
127.6
 31
0.0
  0
LINE
  5
4C5
  8
0
 10
80.25
 20
127.0
 30
0.0
 11
88.75
 21
127.0
 31
0.0
  0
CIRCLE
  5
4D9
  8
0
 10
86.75
 20
117.25
 30
0.0
 40
3.25
  0
LINE
  5
4DA
  8
0
 10
82.25
 20
119.5
 30
0.0
 11
84.404792
 21
119.5
 31
0.0
  0
LINE
  5
4DB
  8
0
 10
82.25
 20
115.0
 30
0.0
 11
84.404792
 21
115.0
 31
0.0
  0
LINE
  5
4DC
  8
0
 10
89.095208
 20
119.5
 30
0.0
 11
91.25
 21
119.5
 31
0.0
  0
LINE
  5
4DD
  8
0
 10
89.095208
 20
115.0
 30
0.0
 11
91.25
 21
115.0
 31
0.0
  0
LINE
  5
4DE
  8
0
 10
90.0
 20
115.0
 30
0.0
 11
90.75
 21
115.75
 31
0.0
  0
LINE
  5
4DF
  8
0
 10
90.75
 20
115.75
 30
0.0
 11
90.75
 21
118.75
 31
0.0
  0
LINE
  5
4E0
  8
0
 10
90.75
 20
118.75
 30
0.0
 11
90.0
 21
119.5
 31
0.0
  0
LINE
  5
4E1
  8
0
 10
83.5
 20
115.0
 30
0.0
 11
82.75
 21
115.75
 31
0.0
  0
LINE
  5
4E2
  8
0
 10
82.75
 20
118.75
 30
0.0
 11
83.5
 21
119.5
 31
0.0
  0
LINE
  5
4E3
  8
0
 10
82.75
 20
115.75
 30
0.0
 11
82.75
 21
118.75
 31
0.0
  0
LINE
  5
50E
  8
0
 10
91.25
 20
103.0
 30
0.0
 11
91.25
 21
122.5
 31
0.0
  0
LINE
  5
50F
  8
0
 10
91.25
 20
122.5
 30
0.0
 11
92.9
 21
122.5
 31
0.0
  0
LINE
  5
510
  8
0
 10
92.9
 20
122.5
 30
0.0
 11
92.9
 21
103.0
 31
0.0
  0
LINE
  5
511
  8
0
 10
91.25
 20
121.5
 30
0.0
 11
82.25
 21
121.5
 31
0.0
  0
LINE
  5
512
  8
0
 10
91.25
 20
84.5
 30
0.0
 11
82.25
 21
84.5
 31
0.0
  0
LINE
  5
513
  8
0
 10
89.095208
 20
86.5
 30
0.0
 11
91.25
 21
86.5
 31
0.0
  0
LINE
  5
514
  8
0
 10
89.095208
 20
91.0
 30
0.0
 11
91.25
 21
91.0
 31
0.0
  0
LINE
  5
515
  8
0
 10
91.25
 20
93.0
 30
0.0
 11
82.25
 21
93.0
 31
0.0
  0
LINE
  5
516
  8
0
 10
95.25
 20
68.5
 30
0.0
 11
80.25
 21
68.5
 31
0.0
  0
LINE
  5
517
  8
0
 10
88.75
 20
80.5
 30
0.0
 11
95.25
 21
80.5
 31
0.0
  0
LINE
  5
518
  8
0
 10
95.25
 20
69.5
 30
0.0
 11
88.75
 21
69.5
 31
0.0
  0
LINE
  5
519
  8
1
 10
98.25
 20
75.0
 30
0.0
 11
79.0
 21
75.0
 31
0.0
  0
LINE
  5
51A
  8
0
 10
80.25
 20
68.5
 30
0.0
 11
80.25
 21
103.0
 31
0.0
  0
LINE
  5
51B
  8
0
 10
88.75
 20
69.5
 30
0.0
 11
88.75
 21
80.5
 31
0.0
  0
LINE
  5
51C
  8
0
 10
82.25
 20
84.5
 30
0.0
 11
82.25
 21
103.0
 31
0.0
  0
LINE
  5
51D
  8
0
 10
82.25
 20
103.0
 30
0.0
 11
82.25
 21
86.0
 31
0.0
  0
LINE
  5
51E
  8
0
 10
83.5
 20
91.0
 30
0.0
 11
82.75
 21
90.25
 31
0.0
  0
LINE
  5
51F
  8
0
 10
90.0
 20
91.0
 30
0.0
 11
90.75
 21
90.25
 31
0.0
  0
CIRCLE
  5
520
  8
0
 10
86.75
 20
88.75
 30
0.0
 40
3.25
  0
LINE
  5
521
  8
0
 10
82.25
 20
91.0
 30
0.0
 11
84.404792
 21
91.0
 31
0.0
  0
LINE
  5
522
  8
0
 10
82.25
 20
86.0
 30
0.0
 11
80.25
 21
86.0
 31
0.0
  0
LINE
  5
523
  8
0
 10
80.25
 20
78.4
 30
0.0
 11
88.75
 21
78.4
 31
0.0
  0
LINE
  5
524
  8
0
 10
80.25
 20
79.0
 30
0.0
 11
88.75
 21
79.0
 31
0.0
  0
LINE
  5
525
  8
0
 10
82.25
 20
86.5
 30
0.0
 11
84.404792
 21
86.5
 31
0.0
  0
LINE
  5
526
  8
0
 10
82.75
 20
87.25
 30
0.0
 11
83.5
 21
86.5
 31
0.0
  0
LINE
  5
527
  8
0
 10
82.75
 20
90.25
 30
0.0
 11
82.75
 21
87.25
 31
0.0
  0
LINE
  5
528
  8
0
 10
90.75
 20
90.25
 30
0.0
 11
90.75
 21
87.25
 31
0.0
  0
LINE
  5
529
  8
0
 10
90.75
 20
87.25
 30
0.0
 11
90.0
 21
86.5
 31
0.0
  0
LINE
  5
52A
  8
0
 10
80.25
 20
71.0
 30
0.0
 11
88.75
 21
71.0
 31
0.0
  0
LINE
  5
52B
  8
0
 10
80.25
 20
71.6
 30
0.0
 11
88.75
 21
71.6
 31
0.0
  0
LINE
  5
52C
  8
0
 10
95.25
 20
75.0
 30
0.0
 11
95.25
 21
69.5
 31
0.0
  0
LINE
  5
52D
  8
0
 10
95.25
 20
103.0
 30
0.0
 11
95.25
 21
68.5
 31
0.0
  0
LINE
  5
52E
  8
0
 10
92.9
 20
83.5
 30
0.0
 11
92.9
 21
103.0
 31
0.0
  0
LINE
  5
52F
  8
0
 10
91.25
 20
103.0
 30
0.0
 11
91.25
 21
83.5
 31
0.0
  0
LINE
  5
530
  8
0
 10
95.25
 20
103.0
 30
0.0
 11
95.25
 21
84.5
 31
0.0
  0
LINE
  5
531
  8
0
 10
95.25
 20
103.0
 30
0.0
 11
95.25
 21
93.0
 31
0.0
  0
LINE
  5
532
  8
0
 10
95.25
 20
84.5
 30
0.0
 11
92.9
 21
84.5
 31
0.0
  0
LINE
  5
533
  8
0
 10
91.25
 20
83.5
 30
0.0
 11
92.9
 21
83.5
 31
0.0
  0
TEXT
  5
534
  8
0
 10
102.75
 20
62.75
 30
0.0
 40
2.5
  1
BCR-6904ZZ
  0
CIRCLE
  5
535
  8
0
 10
163.0
 20
103.0
 30
0.0
 40
18.5
  0
CIRCLE
  5
536
  8
2
 10
163.0
 20
103.0
 30
0.0
 40
19.5
  0
CIRCLE
  5
537
  8
2
 10
163.0
 20
103.0
 30
0.0
 40
17.0
  0
ENDSEC
  0
EOF
