  0
SECTION
  2
HEADER
  9
$ACADVER
  1
AC1009
  9
$INSBASE
 10
0.0
 20
0.0
 30
0.0
  9
$EXTMIN
 10
78.0
 20
63.0
 30
0.0
  9
$EXTMAX
 10
209.75
 20
147.75
 30
0.0
  9
$LIMMIN
 10
0.0
 20
0.0
  9
$LIMMAX
 10
265.0
 20
200.0
  9
$ORTHOMODE
 70
     1
  9
$REGENMODE
 70
     1
  9
$FILLMODE
 70
     1
  9
$QTEXTMODE
 70
     0
  9
$MIRRTEXT
 70
     1
  9
$DRAGMODE
 70
     2
  9
$LTSCALE
 40
1.0
  9
$OSMODE
 70
     0
  9
$ATTMODE
 70
     1
  9
$TEXTSIZE
 40
2.5
  9
$TRACEWID
 40
1.0
  9
$TEXTSTYLE
  7
STANDARD
  9
$CLAYER
  8
2
  9
$CELTYPE
  6
BYLAYER
  9
$CECOLOR
 62
   256
  9
$DIMSCALE
 40
1.0
  9
$DIMASZ
 40
2.5
  9
$DIMEXO
 40
0.625
  9
$DIMDLI
 40
3.75
  9
$DIMRND
 40
0.0
  9
$DIMDLE
 40
0.0
  9
$DIMEXE
 40
1.25
  9
$DIMTP
 40
0.0
  9
$DIMTM
 40
0.0
  9
$DIMTXT
 40
2.5
  9
$DIMCEN
 40
2.5
  9
$DIMTSZ
 40
0.0
  9
$DIMTOL
 70
     0
  9
$DIMLIM
 70
     0
  9
$DIMTIH
 70
     0
  9
$DIMTOH
 70
     0
  9
$DIMSE1
 70
     0
  9
$DIMSE2
 70
     0
  9
$DIMTAD
 70
     1
  9
$DIMZIN
 70
     8
  9
$DIMBLK
  1

  9
$DIMASO
 70
     1
  9
$DIMSHO
 70
     1
  9
$DIMPOST
  1

  9
$DIMAPOST
  1

  9
$DIMALT
 70
     0
  9
$DIMALTD
 70
     4
  9
$DIMALTF
 40
0.0394
  9
$DIMLFAC
 40
1.0
  9
$DIMTOFL
 70
     1
  9
$DIMTVP
 40
0.0
  9
$DIMTIX
 70
     0
  9
$DIMSOXD
 70
     0
  9
$DIMSAH
 70
     0
  9
$DIMBLK1
  1

  9
$DIMBLK2
  1

  9
$DIMSTYLE
  2
STANDARD
  9
$DIMCLRD
 70
     0
  9
$DIMCLRE
 70
     0
  9
$DIMCLRT
 70
     0
  9
$DIMTFAC
 40
1.0
  9
$DIMGAP
 40
0.625
  9
$LUNITS
 70
     2
  9
$LUPREC
 70
     4
  9
$SKETCHINC
 40
1.0
  9
$FILLETRAD
 40
10.0
  9
$AUNITS
 70
     0
  9
$AUPREC
 70
     0
  9
$MENU
  1
.
  9
$ELEVATION
 40
0.0
  9
$PELEVATION
 40
0.0
  9
$THICKNESS
 40
0.0
  9
$LIMCHECK
 70
     0
  9
$BLIPMODE
 70
     0
  9
$CHAMFERA
 40
10.0
  9
$CHAMFERB
 40
10.0
  9
$SKPOLY
 70
     0
  9
$TDCREATE
 40
2452361.611515
  9
$TDUPDATE
 40
2452364.674673
  9
$TDINDWG
 40
0.159217
  9
$TDUSRTIMER
 40
0.159217
  9
$USRTIMER
 70
     1
  9
$ANGBASE
 50
0.0
  9
$ANGDIR
 70
     0
  9
$PDMODE
 70
     0
  9
$PDSIZE
 40
0.0
  9
$PLINEWID
 40
0.0
  9
$COORDS
 70
     2
  9
$SPLFRAME
 70
     0
  9
$SPLINETYPE
 70
     6
  9
$SPLINESEGS
 70
     8
  9
$ATTDIA
 70
     0
  9
$ATTREQ
 70
     1
  9
$HANDLING
 70
     1
  9
$HANDSEED
  5
44A
  9
$SURFTAB1
 70
     6
  9
$SURFTAB2
 70
     6
  9
$SURFTYPE
 70
     6
  9
$SURFU
 70
     6
  9
$SURFV
 70
     6
  9
$UCSNAME
  2

  9
$UCSORG
 10
0.0
 20
0.0
 30
0.0
  9
$UCSXDIR
 10
1.0
 20
0.0
 30
0.0
  9
$UCSYDIR
 10
0.0
 20
1.0
 30
0.0
  9
$PUCSNAME
  2

  9
$PUCSORG
 10
0.0
 20
0.0
 30
0.0
  9
$PUCSXDIR
 10
1.0
 20
0.0
 30
0.0
  9
$PUCSYDIR
 10
0.0
 20
1.0
 30
0.0
  9
$USERI1
 70
     0
  9
$USERI2
 70
     0
  9
$USERI3
 70
     0
  9
$USERI4
 70
     0
  9
$USERI5
 70
     0
  9
$USERR1
 40
0.0
  9
$USERR2
 40
0.0
  9
$USERR3
 40
0.0
  9
$USERR4
 40
0.0
  9
$USERR5
 40
0.0
  9
$WORLDVIEW
 70
     1
  9
$SHADEDGE
 70
     3
  9
$SHADEDIF
 70
    70
  9
$TILEMODE
 70
     1
  9
$MAXACTVP
 70
    48
  9
$PLIMCHECK
 70
     0
  9
$PEXTMIN
 10
1.000000E+020
 20
1.000000E+020
 30
1.000000E+020
  9
$PEXTMAX
 10
-1.000000E+020
 20
-1.000000E+020
 30
-1.000000E+020
  9
$PLIMMIN
 10
0.0
 20
0.0
  9
$PLIMMAX
 10
420.0
 20
297.0
  9
$UNITMODE
 70
     0
  9
$VISRETAIN
 70
     1
  9
$PLINEGEN
 70
     0
  9
$PSLTSCALE
 70
     1
  0
ENDSEC
  0
SECTION
  2
TABLES
  0
TABLE
  2
VPORT
 70
     2
  0
VPORT
  2
*ACTIVE
 70
     0
 10
0.0
 20
0.0
 11
1.0
 21
1.0
 12
146.401821
 22
124.971081
 13
0.0
 23
0.0
 14
0.25
 24
0.25
 15
1.0
 25
1.0
 16
0.0
 26
0.0
 36
1.0
 17
0.0
 27
0.0
 37
0.0
 40
249.951882
 41
1.171492
 42
50.0
 43
0.0
 44
0.0
 50
0.0
 51
0.0
 71
     0
 72
 20000
 73
     1
 74
     1
 75
     1
 76
     0
 77
     0
 78
     0
  0
ENDTAB
  0
TABLE
  2
LTYPE
 70
     7
  0
LTYPE
  2
CONTINUOUS
 70
     0
  3
Solid line
 72
    65
 73
     0
 40
0.0
  0
LTYPE
  2
CENTERX2
 70
     0
  3
Center (2x) ________  __  ________  __  _____
 72
    65
 73
     4
 40
101.6
 49
63.5
 49
-12.7
 49
12.7
 49
-12.7
  0
LTYPE
  2
DASHEDX2
 70
     0
  3
Dashed (2x) ____  ____  ____  ____  ____  ___
 72
    65
 73
     2
 40
38.1
 49
25.4
 49
-12.7
  0
LTYPE
  2
DASHED
 70
     0
  3
Dashed __ __ __ __ __ __ __ __ __ __ __ __ __ _
 72
    65
 73
     2
 40
19.05
 49
12.7
 49
-6.35
  0
LTYPE
  2
CENTER
 70
     0
  3
Center ____ _ ____ _ ____ _ ____ _ ____ _ ____
 72
    65
 73
     4
 40
50.8
 49
31.75
 49
-6.35
 49
6.35
 49
-6.35
  0
LTYPE
  2
CENTER2
 70
     0
  3
Center (.5x) ___ _ ___ _ ___ _ ___ _ ___ _ ___
 72
    65
 73
     4
 40
28.575
 49
19.05
 49
-3.175
 49
3.175
 49
-3.175
  0
LTYPE
  2
DASHED2
 70
     0
  3
Dashed (.5x) _ _ _ _ _ _ _ _ _ _ _ _ _ _ _ _ _
 72
    65
 73
     2
 40
9.525
 49
6.35
 49
-3.175
  0
ENDTAB
  0
TABLE
  2
LAYER
 70
     5
  0
LAYER
  2
0
 70
     0
 62
     7
  6
CONTINUOUS
  0
LAYER
  2
1
 70
     0
 62
     1
  6
CENTER2
  0
LAYER
  2
2
 70
     0
 62
     2
  6
DASHED2
  0
LAYER
  2
3
 70
     0
 62
     4
  6
CONTINUOUS
  0
LAYER
  2
DEFPOINTS
 70
     0
 62
     7
  6
CONTINUOUS
  0
ENDTAB
  0
TABLE
  2
STYLE
 70
     2
  0
STYLE
  2
STANDARD
 70
     0
 40
0.0
 41
1.0
 50
0.0
 71
     0
 42
2.5
  3
txt
  4

  0
STYLE
  2

 70
     1
 40
0.0
 41
1.0
 50
0.0
 71
     0
 42
2.5
  3
ltypeshp.shx
  4

  0
ENDTAB
  0
TABLE
  2
VIEW
 70
     0
  0
ENDTAB
  0
TABLE
  2
UCS
 70
     0
  0
ENDTAB
  0
TABLE
  2
APPID
 70
     1
  0
APPID
  2
ACAD
 70
     0
  0
ENDTAB
  0
TABLE
  2
DIMSTYLE
 70
     1
  0
DIMSTYLE
  2
STANDARD
 70
     0
  3

  4

  5

  6

  7

 40
1.0
 41
0.18
 42
0.0625
 43
0.38
 44
0.18
 45
0.0
 46
0.0
 47
0.0
 48
0.0
140
0.18
141
0.09
142
0.0
143
25.4
144
1.0
145
0.0
146
1.0
147
0.09
 71
     0
 72
     0
 73
     1
 74
     1
 75
     0
 76
     0
 77
     0
 78
     0
170
     0
171
     2
172
     0
173
     0
174
     0
175
     0
176
     0
177
     0
178
     0
  0
ENDTAB
  0
ENDSEC
  0
SECTION
  2
BLOCKS
  0
BLOCK
  8
0
  2
$MODEL_SPACE
 70
     0
 10
0.0
 20
0.0
 30
0.0
  3
$MODEL_SPACE
  1

  0
ENDBLK
  5
1A
  8
0
  0
BLOCK
 67
     1
  8
0
  2
$PAPER_SPACE
 70
     0
 10
0.0
 20
0.0
 30
0.0
  3
$PAPER_SPACE
  1

  0
ENDBLK
  5
17
 67
     1
  8
0
  0
ENDSEC
  0
SECTION
  2
ENTITIES
  0
LINE
  5
241
  8
1
 10
98.25
 20
103.0
 30
0.0
 11
78.0
 21
103.0
 31
0.0
  0
LINE
  5
3C2
  8
1
 10
120.5
 20
103.0
 30
0.0
 11
209.75
 21
103.0
 31
0.0
  0
LINE
  5
3C3
  8
1
 10
163.0
 20
63.0
 30
0.0
 11
163.0
 21
147.75
 31
0.0
  0
CIRCLE
  5
3C4
  8
1
 10
163.0
 20
103.0
 30
0.0
 40
22.5
  0
CIRCLE
  5
3C5
  8
0
 10
163.0
 20
103.0
 30
0.0
 40
28.5
  0
CIRCLE
  5
3C6
  8
0
 10
163.0
 20
125.5
 30
0.0
 40
4.75
  0
CIRCLE
  5
3C7
  8
0
 10
140.5
 20
103.0
 30
0.0
 40
4.75
  0
CIRCLE
  5
3C8
  8
0
 10
163.0
 20
80.5
 30
0.0
 40
4.75
  0
CIRCLE
  5
3C9
  8
0
 10
185.5
 20
103.0
 30
0.0
 40
4.75
  0
CIRCLE
  5
3CA
  8
0
 10
163.0
 20
125.5
 30
0.0
 40
3.0
  0
CIRCLE
  5
3CB
  8
0
 10
140.5
 20
103.0
 30
0.0
 40
3.0
  0
CIRCLE
  5
3CC
  8
0
 10
163.0
 20
80.5
 30
0.0
 40
3.0
  0
CIRCLE
  5
3CD
  8
0
 10
185.5
 20
103.0
 30
0.0
 40
3.0
  0
CIRCLE
  5
3CE
  8
0
 10
163.0
 20
125.5
 30
0.0
 40
2.6
  0
CIRCLE
  5
3CF
  8
0
 10
140.5
 20
103.0
 30
0.0
 40
2.6
  0
CIRCLE
  5
3D0
  8
0
 10
163.0
 20
80.5
 30
0.0
 40
2.6
  0
CIRCLE
  5
3D1
  8
0
 10
185.5
 20
103.0
 30
0.0
 40
2.6
  0
CIRCLE
  5
3D2
  8
0
 10
163.0
 20
103.0
 30
0.0
 40
7.5
  0
LINE
  5
3D5
  8
1
 10
98.5
 20
125.5
 30
0.0
 11
79.25
 21
125.5
 31
0.0
  0
LINE
  5
3D6
  8
0
 10
93.25
 20
103.0
 30
0.0
 11
93.25
 21
131.5
 31
0.0
  0
LINE
  5
3D7
  8
0
 10
93.25
 20
131.5
 30
0.0
 11
81.25
 21
131.5
 31
0.0
  0
LINE
  5
3D8
  8
0
 10
81.25
 20
131.5
 30
0.0
 11
81.25
 21
103.0
 31
0.0
  0
LINE
  5
3D9
  8
0
 10
93.25
 20
103.0
 30
0.0
 11
93.25
 21
117.0
 31
0.0
  0
LINE
  5
3DA
  8
0
 10
93.25
 20
117.0
 30
0.0
 11
91.6
 21
117.0
 31
0.0
  0
LINE
  5
3DB
  8
0
 10
83.25
 20
117.0
 30
0.0
 11
83.25
 21
103.0
 31
0.0
  0
LINE
  5
3DC
  8
0
 10
83.25
 20
103.0
 30
0.0
 11
83.25
 21
115.5
 31
0.0
  0
LINE
  5
3DD
  8
0
 10
83.25
 20
115.5
 30
0.0
 11
81.25
 21
115.5
 31
0.0
  0
LINE
  5
3DE
  8
0
 10
93.25
 20
103.0
 30
0.0
 11
93.25
 21
110.5
 31
0.0
  0
LINE
  5
3DF
  8
0
 10
90.25
 20
110.5
 30
0.0
 11
83.25
 21
110.5
 31
0.0
  0
LINE
  5
3E0
  8
0
 10
93.25
 20
125.5
 30
0.0
 11
93.25
 21
130.25
 31
0.0
  0
LINE
  5
3E1
  8
0
 10
93.25
 20
130.25
 30
0.0
 11
87.85
 21
130.25
 31
0.0
  0
LINE
  5
3E2
  8
0
 10
87.85
 20
130.25
 30
0.0
 11
87.85
 21
120.75
 31
0.0
  0
LINE
  5
3E3
  8
0
 10
87.85
 20
120.75
 30
0.0
 11
93.25
 21
120.75
 31
0.0
  0
LINE
  5
3E4
  8
0
 10
87.85
 20
128.5
 30
0.0
 11
81.25
 21
128.5
 31
0.0
  0
LINE
  5
3E5
  8
0
 10
87.85
 20
128.1
 30
0.0
 11
81.25
 21
128.1
 31
0.0
  0
LINE
  5
3E6
  8
0
 10
87.85
 20
122.9
 30
0.0
 11
81.25
 21
122.9
 31
0.0
  0
LINE
  5
3E7
  8
0
 10
87.85
 20
122.5
 30
0.0
 11
81.25
 21
122.5
 31
0.0
  0
CIRCLE
  5
3E8
  8
0
 10
86.75
 20
113.75
 30
0.0
 40
2.5
  0
LINE
  5
3E9
  8
0
 10
83.25
 20
115.75
 30
0.0
 11
85.25
 21
115.75
 31
0.0
  0
LINE
  5
3EA
  8
0
 10
83.25
 20
111.75
 30
0.0
 11
85.25
 21
111.75
 31
0.0
  0
LINE
  5
3EB
  8
0
 10
88.25
 20
115.75
 30
0.0
 11
90.25
 21
115.75
 31
0.0
  0
LINE
  5
3EC
  8
0
 10
88.25
 20
111.75
 30
0.0
 11
90.25
 21
111.75
 31
0.0
  0
LINE
  5
3ED
  8
0
 10
89.25
 20
111.75
 30
0.0
 11
89.75
 21
112.25
 31
0.0
  0
LINE
  5
3EE
  8
0
 10
89.75
 20
112.25
 30
0.0
 11
89.75
 21
115.25
 31
0.0
  0
LINE
  5
3EF
  8
0
 10
89.75
 20
115.25
 30
0.0
 11
89.25
 21
115.75
 31
0.0
  0
LINE
  5
3F0
  8
0
 10
83.75
 20
115.25
 30
0.0
 11
84.25
 21
115.75
 31
0.0
  0
LINE
  5
3F1
  8
0
 10
83.75
 20
112.25
 30
0.0
 11
83.75
 21
115.25
 31
0.0
  0
LINE
  5
3F2
  8
0
 10
84.25
 20
111.75
 30
0.0
 11
83.75
 21
112.25
 31
0.0
  0
TEXT
  5
419
  8
0
 10
106.319286
 20
66.512134
 30
0.0
 40
2.5
  1
BCR-6902ZZ
  0
LINE
  5
41A
  8
0
 10
90.25
 20
103.0
 30
0.0
 11
90.25
 21
117.7
 31
0.0
  0
LINE
  5
41B
  8
0
 10
90.25
 20
117.7
 30
0.0
 11
91.6
 21
117.7
 31
0.0
  0
LINE
  5
41C
  8
0
 10
91.6
 20
117.7
 30
0.0
 11
91.6
 21
103.0
 31
0.0
  0
LINE
  5
41D
  8
0
 10
90.25
 20
117.0
 30
0.0
 11
83.25
 21
117.0
 31
0.0
  0
LINE
  5
41E
  8
0
 10
90.25
 20
88.3
 30
0.0
 11
91.6
 21
88.3
 31
0.0
  0
LINE
  5
41F
  8
0
 10
93.25
 20
74.5
 30
0.0
 11
81.25
 21
74.5
 31
0.0
  0
LINE
  5
420
  8
0
 10
87.85
 20
85.25
 30
0.0
 11
93.25
 21
85.25
 31
0.0
  0
LINE
  5
421
  8
0
 10
93.25
 20
75.75
 30
0.0
 11
87.85
 21
75.75
 31
0.0
  0
LINE
  5
422
  8
1
 10
98.5
 20
80.5
 30
0.0
 11
79.25
 21
80.5
 31
0.0
  0
LINE
  5
423
  8
0
 10
81.25
 20
74.5
 30
0.0
 11
81.25
 21
103.0
 31
0.0
  0
LINE
  5
424
  8
0
 10
90.25
 20
103.0
 30
0.0
 11
90.25
 21
88.3
 31
0.0
  0
LINE
  5
425
  8
0
 10
83.25
 20
89.0
 30
0.0
 11
83.25
 21
103.0
 31
0.0
  0
CIRCLE
  5
426
  8
0
 10
86.75
 20
92.25
 30
0.0
 40
2.5
  0
LINE
  5
427
  8
0
 10
89.75
 20
90.75
 30
0.0
 11
89.25
 21
90.25
 31
0.0
  0
LINE
  5
428
  8
0
 10
83.75
 20
90.75
 30
0.0
 11
84.25
 21
90.25
 31
0.0
  0
LINE
  5
429
  8
0
 10
83.25
 20
103.0
 30
0.0
 11
83.25
 21
90.5
 31
0.0
  0
LINE
  5
42A
  8
0
 10
90.25
 20
95.5
 30
0.0
 11
83.25
 21
95.5
 31
0.0
  0
LINE
  5
42B
  8
0
 10
83.25
 20
94.25
 30
0.0
 11
85.25
 21
94.25
 31
0.0
  0
LINE
  5
42C
  8
0
 10
83.25
 20
90.5
 30
0.0
 11
81.25
 21
90.5
 31
0.0
  0
LINE
  5
42D
  8
0
 10
83.75
 20
93.75
 30
0.0
 11
83.75
 21
90.75
 31
0.0
  0
LINE
  5
42E
  8
0
 10
84.25
 20
94.25
 30
0.0
 11
83.75
 21
93.75
 31
0.0
  0
LINE
  5
42F
  8
0
 10
88.25
 20
94.25
 30
0.0
 11
90.25
 21
94.25
 31
0.0
  0
LINE
  5
430
  8
0
 10
89.25
 20
94.25
 30
0.0
 11
89.75
 21
93.75
 31
0.0
  0
LINE
  5
431
  8
0
 10
89.75
 20
93.75
 30
0.0
 11
89.75
 21
90.75
 31
0.0
  0
LINE
  5
432
  8
0
 10
87.85
 20
75.75
 30
0.0
 11
87.85
 21
85.25
 31
0.0
  0
LINE
  5
433
  8
0
 10
90.25
 20
89.0
 30
0.0
 11
83.25
 21
89.0
 31
0.0
  0
LINE
  5
434
  8
0
 10
87.85
 20
83.1
 30
0.0
 11
81.25
 21
83.1
 31
0.0
  0
LINE
  5
435
  8
0
 10
87.85
 20
83.5
 30
0.0
 11
81.25
 21
83.5
 31
0.0
  0
LINE
  5
436
  8
0
 10
83.25
 20
90.25
 30
0.0
 11
85.25
 21
90.25
 31
0.0
  0
LINE
  5
437
  8
0
 10
88.25
 20
90.25
 30
0.0
 11
90.25
 21
90.25
 31
0.0
  0
LINE
  5
438
  8
0
 10
87.85
 20
77.9
 30
0.0
 11
81.25
 21
77.9
 31
0.0
  0
LINE
  5
439
  8
0
 10
87.85
 20
77.5
 30
0.0
 11
81.25
 21
77.5
 31
0.0
  0
LINE
  5
43A
  8
0
 10
93.25
 20
103.0
 30
0.0
 11
93.25
 21
74.5
 31
0.0
  0
LINE
  5
43B
  8
0
 10
91.6
 20
88.3
 30
0.0
 11
91.6
 21
103.0
 31
0.0
  0
LINE
  5
43C
  8
0
 10
93.25
 20
103.0
 30
0.0
 11
93.25
 21
89.0
 31
0.0
  0
LINE
  5
43D
  8
0
 10
93.25
 20
103.0
 30
0.0
 11
93.25
 21
95.5
 31
0.0
  0
LINE
  5
43E
  8
0
 10
93.25
 20
89.0
 30
0.0
 11
91.6
 21
89.0
 31
0.0
  0
LINE
  5
43F
  8
0
 10
93.25
 20
80.5
 30
0.0
 11
93.25
 21
75.75
 31
0.0
  0
CIRCLE
  5
440
  8
0
 10
163.0
 20
103.0
 30
0.0
 40
14.0
  0
CIRCLE
  5
441
  8
2
 10
163.0
 20
103.0
 30
0.0
 40
14.7
  0
CIRCLE
  5
442
  8
2
 10
163.0
 20
103.0
 30
0.0
 40
12.5
  0
ENDSEC
  0
EOF
