  0
SECTION
  2
HEADER
  9
$ACADVER
  1
AC1009
  9
$INSBASE
 10
0.0
 20
0.0
 30
0.0
  9
$EXTMIN
 10
94.031688
 20
68.04126
 30
0.0
  9
$EXTMAX
 10
207.25
 20
136.5
 30
0.0
  9
$LIMMIN
 10
0.0
 20
0.0
  9
$LIMMAX
 10
265.0
 20
200.0
  9
$ORTHOMODE
 70
     1
  9
$REGENMODE
 70
     1
  9
$FILLMODE
 70
     1
  9
$QTEXTMODE
 70
     0
  9
$MIRRTEXT
 70
     1
  9
$DRAGMODE
 70
     2
  9
$LTSCALE
 40
1.0
  9
$OSMODE
 70
     0
  9
$ATTMODE
 70
     1
  9
$TEXTSIZE
 40
2.5
  9
$TRACEWID
 40
1.0
  9
$TEXTSTYLE
  7
STANDARD
  9
$CLAYER
  8
2
  9
$CELTYPE
  6
BYLAYER
  9
$CECOLOR
 62
   256
  9
$DIMSCALE
 40
1.0
  9
$DIMASZ
 40
2.5
  9
$DIMEXO
 40
0.625
  9
$DIMDLI
 40
3.75
  9
$DIMRND
 40
0.0
  9
$DIMDLE
 40
0.0
  9
$DIMEXE
 40
1.25
  9
$DIMTP
 40
0.0
  9
$DIMTM
 40
0.0
  9
$DIMTXT
 40
2.5
  9
$DIMCEN
 40
2.5
  9
$DIMTSZ
 40
0.0
  9
$DIMTOL
 70
     0
  9
$DIMLIM
 70
     0
  9
$DIMTIH
 70
     0
  9
$DIMTOH
 70
     0
  9
$DIMSE1
 70
     0
  9
$DIMSE2
 70
     0
  9
$DIMTAD
 70
     1
  9
$DIMZIN
 70
     8
  9
$DIMBLK
  1

  9
$DIMASO
 70
     1
  9
$DIMSHO
 70
     1
  9
$DIMPOST
  1

  9
$DIMAPOST
  1

  9
$DIMALT
 70
     0
  9
$DIMALTD
 70
     4
  9
$DIMALTF
 40
0.0394
  9
$DIMLFAC
 40
1.0
  9
$DIMTOFL
 70
     1
  9
$DIMTVP
 40
0.0
  9
$DIMTIX
 70
     0
  9
$DIMSOXD
 70
     0
  9
$DIMSAH
 70
     0
  9
$DIMBLK1
  1

  9
$DIMBLK2
  1

  9
$DIMSTYLE
  2
STANDARD
  9
$DIMCLRD
 70
     0
  9
$DIMCLRE
 70
     0
  9
$DIMCLRT
 70
     0
  9
$DIMTFAC
 40
1.0
  9
$DIMGAP
 40
0.625
  9
$LUNITS
 70
     2
  9
$LUPREC
 70
     4
  9
$SKETCHINC
 40
1.0
  9
$FILLETRAD
 40
10.0
  9
$AUNITS
 70
     0
  9
$AUPREC
 70
     0
  9
$MENU
  1
.
  9
$ELEVATION
 40
0.0
  9
$PELEVATION
 40
0.0
  9
$THICKNESS
 40
0.0
  9
$LIMCHECK
 70
     0
  9
$BLIPMODE
 70
     0
  9
$CHAMFERA
 40
10.0
  9
$CHAMFERB
 40
10.0
  9
$SKPOLY
 70
     0
  9
$TDCREATE
 40
2452361.611515
  9
$TDUPDATE
 40
2452364.672112
  9
$TDINDWG
 40
0.153904
  9
$TDUSRTIMER
 40
0.153904
  9
$USRTIMER
 70
     1
  9
$ANGBASE
 50
0.0
  9
$ANGDIR
 70
     0
  9
$PDMODE
 70
     0
  9
$PDSIZE
 40
0.0
  9
$PLINEWID
 40
0.0
  9
$COORDS
 70
     2
  9
$SPLFRAME
 70
     0
  9
$SPLINETYPE
 70
     6
  9
$SPLINESEGS
 70
     8
  9
$ATTDIA
 70
     0
  9
$ATTREQ
 70
     1
  9
$HANDLING
 70
     1
  9
$HANDSEED
  5
400
  9
$SURFTAB1
 70
     6
  9
$SURFTAB2
 70
     6
  9
$SURFTYPE
 70
     6
  9
$SURFU
 70
     6
  9
$SURFV
 70
     6
  9
$UCSNAME
  2

  9
$UCSORG
 10
0.0
 20
0.0
 30
0.0
  9
$UCSXDIR
 10
1.0
 20
0.0
 30
0.0
  9
$UCSYDIR
 10
0.0
 20
1.0
 30
0.0
  9
$PUCSNAME
  2

  9
$PUCSORG
 10
0.0
 20
0.0
 30
0.0
  9
$PUCSXDIR
 10
1.0
 20
0.0
 30
0.0
  9
$PUCSYDIR
 10
0.0
 20
1.0
 30
0.0
  9
$USERI1
 70
     0
  9
$USERI2
 70
     0
  9
$USERI3
 70
     0
  9
$USERI4
 70
     0
  9
$USERI5
 70
     0
  9
$USERR1
 40
0.0
  9
$USERR2
 40
0.0
  9
$USERR3
 40
0.0
  9
$USERR4
 40
0.0
  9
$USERR5
 40
0.0
  9
$WORLDVIEW
 70
     1
  9
$SHADEDGE
 70
     3
  9
$SHADEDIF
 70
    70
  9
$TILEMODE
 70
     1
  9
$MAXACTVP
 70
    48
  9
$PLIMCHECK
 70
     0
  9
$PEXTMIN
 10
1.000000E+020
 20
1.000000E+020
 30
1.000000E+020
  9
$PEXTMAX
 10
-1.000000E+020
 20
-1.000000E+020
 30
-1.000000E+020
  9
$PLIMMIN
 10
0.0
 20
0.0
  9
$PLIMMAX
 10
420.0
 20
297.0
  9
$UNITMODE
 70
     0
  9
$VISRETAIN
 70
     1
  9
$PLINEGEN
 70
     0
  9
$PSLTSCALE
 70
     1
  0
ENDSEC
  0
SECTION
  2
TABLES
  0
TABLE
  2
VPORT
 70
     2
  0
VPORT
  2
*ACTIVE
 70
     0
 10
0.0
 20
0.0
 11
1.0
 21
1.0
 12
146.401821
 22
124.971081
 13
0.0
 23
0.0
 14
0.25
 24
0.25
 15
1.0
 25
1.0
 16
0.0
 26
0.0
 36
1.0
 17
0.0
 27
0.0
 37
0.0
 40
249.951882
 41
1.171492
 42
50.0
 43
0.0
 44
0.0
 50
0.0
 51
0.0
 71
     0
 72
 20000
 73
     1
 74
     1
 75
     1
 76
     0
 77
     0
 78
     0
  0
ENDTAB
  0
TABLE
  2
LTYPE
 70
     7
  0
LTYPE
  2
CONTINUOUS
 70
     0
  3
Solid line
 72
    65
 73
     0
 40
0.0
  0
LTYPE
  2
CENTERX2
 70
     0
  3
Center (2x) ________  __  ________  __  _____
 72
    65
 73
     4
 40
101.6
 49
63.5
 49
-12.7
 49
12.7
 49
-12.7
  0
LTYPE
  2
DASHEDX2
 70
     0
  3
Dashed (2x) ____  ____  ____  ____  ____  ___
 72
    65
 73
     2
 40
38.1
 49
25.4
 49
-12.7
  0
LTYPE
  2
DASHED
 70
     0
  3
Dashed __ __ __ __ __ __ __ __ __ __ __ __ __ _
 72
    65
 73
     2
 40
19.05
 49
12.7
 49
-6.35
  0
LTYPE
  2
CENTER
 70
     0
  3
Center ____ _ ____ _ ____ _ ____ _ ____ _ ____
 72
    65
 73
     4
 40
50.8
 49
31.75
 49
-6.35
 49
6.35
 49
-6.35
  0
LTYPE
  2
CENTER2
 70
     0
  3
Center (.5x) ___ _ ___ _ ___ _ ___ _ ___ _ ___
 72
    65
 73
     4
 40
28.575
 49
19.05
 49
-3.175
 49
3.175
 49
-3.175
  0
LTYPE
  2
DASHED2
 70
     0
  3
Dashed (.5x) _ _ _ _ _ _ _ _ _ _ _ _ _ _ _ _ _
 72
    65
 73
     2
 40
9.525
 49
6.35
 49
-3.175
  0
ENDTAB
  0
TABLE
  2
LAYER
 70
     5
  0
LAYER
  2
0
 70
     0
 62
     7
  6
CONTINUOUS
  0
LAYER
  2
1
 70
     0
 62
     1
  6
CENTER2
  0
LAYER
  2
2
 70
     0
 62
     2
  6
DASHED2
  0
LAYER
  2
3
 70
     0
 62
     4
  6
CONTINUOUS
  0
LAYER
  2
DEFPOINTS
 70
     0
 62
     7
  6
CONTINUOUS
  0
ENDTAB
  0
TABLE
  2
STYLE
 70
     2
  0
STYLE
  2
STANDARD
 70
     0
 40
0.0
 41
1.0
 50
0.0
 71
     0
 42
2.5
  3
txt
  4

  0
STYLE
  2

 70
     1
 40
0.0
 41
1.0
 50
0.0
 71
     0
 42
2.5
  3
ltypeshp.shx
  4

  0
ENDTAB
  0
TABLE
  2
VIEW
 70
     0
  0
ENDTAB
  0
TABLE
  2
UCS
 70
     0
  0
ENDTAB
  0
TABLE
  2
APPID
 70
     1
  0
APPID
  2
ACAD
 70
     0
  0
ENDTAB
  0
TABLE
  2
DIMSTYLE
 70
     1
  0
DIMSTYLE
  2
STANDARD
 70
     0
  3

  4

  5

  6

  7

 40
1.0
 41
0.18
 42
0.0625
 43
0.38
 44
0.18
 45
0.0
 46
0.0
 47
0.0
 48
0.0
140
0.18
141
0.09
142
0.0
143
25.4
144
1.0
145
0.0
146
1.0
147
0.09
 71
     0
 72
     0
 73
     1
 74
     1
 75
     0
 76
     0
 77
     0
 78
     0
170
     0
171
     2
172
     0
173
     0
174
     0
175
     0
176
     0
177
     0
178
     0
  0
ENDTAB
  0
ENDSEC
  0
SECTION
  2
BLOCKS
  0
BLOCK
  8
0
  2
$MODEL_SPACE
 70
     0
 10
0.0
 20
0.0
 30
0.0
  3
$MODEL_SPACE
  1

  0
ENDBLK
  5
1A
  8
0
  0
BLOCK
 67
     1
  8
0
  2
$PAPER_SPACE
 70
     0
 10
0.0
 20
0.0
 30
0.0
  3
$PAPER_SPACE
  1

  0
ENDBLK
  5
17
 67
     1
  8
0
  0
ENDSEC
  0
SECTION
  2
ENTITIES
  0
CIRCLE
  5
80
  8
0
 10
172.0
 20
126.0
 30
0.0
 40
4.0
  0
CIRCLE
  5
81
  8
0
 10
149.0
 20
103.0
 30
0.0
 40
4.0
  0
CIRCLE
  5
82
  8
0
 10
195.0
 20
103.0
 30
0.0
 40
4.0
  0
CIRCLE
  5
83
  8
0
 10
172.0
 20
80.0
 30
0.0
 40
4.0
  0
LINE
  5
EA
  8
0
 10
115.0
 20
130.0
 30
0.0
 11
110.6
 21
130.0
 31
0.0
  0
LINE
  5
EB
  8
0
 10
110.6
 20
130.0
 30
0.0
 11
110.6
 21
122.0
 31
0.0
  0
LINE
  5
EC
  8
0
 10
110.6
 20
122.0
 30
0.0
 11
115.0
 21
122.0
 31
0.0
  0
CIRCLE
  5
1BB
  8
0
 10
172.0
 20
126.0
 30
0.0
 40
2.5
  0
CIRCLE
  5
1BC
  8
0
 10
149.0
 20
103.0
 30
0.0
 40
2.5
  0
CIRCLE
  5
1BD
  8
0
 10
195.0
 20
103.0
 30
0.0
 40
2.5
  0
CIRCLE
  5
1BE
  8
0
 10
172.0
 20
80.0
 30
0.0
 40
2.5
  0
CIRCLE
  5
1C4
  8
0
 10
149.0
 20
103.0
 30
0.0
 40
2.15
  0
CIRCLE
  5
1C5
  8
0
 10
172.0
 20
80.0
 30
0.0
 40
2.15
  0
CIRCLE
  5
1C6
  8
0
 10
195.0
 20
103.0
 30
0.0
 40
2.15
  0
CIRCLE
  5
1C7
  8
0
 10
172.0
 20
126.0
 30
0.0
 40
2.15
  0
LINE
  5
201
  8
0
 10
107.0
 20
128.5
 30
0.0
 11
110.6
 21
128.5
 31
0.0
  0
LINE
  5
203
  8
0
 10
110.6
 20
128.15
 30
0.0
 11
107.0
 21
128.15
 31
0.0
  0
LINE
  5
205
  8
0
 10
110.6
 20
123.85
 30
0.0
 11
107.0
 21
123.85
 31
0.0
  0
LINE
  5
206
  8
0
 10
107.0
 20
123.5
 30
0.0
 11
110.6
 21
123.5
 31
0.0
  0
LINE
  5
241
  8
1
 10
120.5
 20
103.0
 30
0.0
 11
100.25
 21
103.0
 31
0.0
  0
LINE
  5
2B9
  8
1
 10
116.5
 20
126.0
 30
0.0
 11
102.5
 21
126.0
 31
0.0
  0
CIRCLE
  5
2F0
  8
0
 10
172.0
 20
103.0
 30
0.0
 40
6.0
  0
LINE
  5
345
  8
0
 10
107.0
 20
128.5
 30
0.0
 11
105.0
 21
128.5
 31
0.0
  0
LINE
  5
346
  8
0
 10
107.0
 20
128.15
 30
0.0
 11
105.0
 21
128.15
 31
0.0
  0
LINE
  5
347
  8
0
 10
107.0
 20
123.85
 30
0.0
 11
105.0
 21
123.85
 31
0.0
  0
LINE
  5
348
  8
0
 10
107.0
 20
123.5
 30
0.0
 11
105.0
 21
123.5
 31
0.0
  0
CIRCLE
  5
379
  8
0
 10
172.0
 20
103.0
 30
0.0
 40
28.0
  0
LINE
  5
37A
  8
1
 10
137.25
 20
103.0
 30
0.0
 11
207.25
 21
103.0
 31
0.0
  0
LINE
  5
37B
  8
1
 10
172.0
 20
136.5
 30
0.0
 11
172.0
 21
68.25
 31
0.0
  0
CIRCLE
  5
37C
  8
1
 10
172.0
 20
103.0
 30
0.0
 40
23.0
  0
LINE
  5
37F
  8
0
 10
115.0
 20
103.0
 30
0.0
 11
115.0
 21
131.0
 31
0.0
  0
LINE
  5
380
  8
0
 10
115.0
 20
131.0
 30
0.0
 11
100.0
 21
131.0
 31
0.0
  0
LINE
  5
381
  8
0
 10
100.0
 20
131.0
 30
0.0
 11
100.0
 21
103.0
 31
0.0
  0
LINE
  5
382
  8
0
 10
115.0
 20
103.0
 30
0.0
 11
115.0
 21
119.0
 31
0.0
  0
LINE
  5
383
  8
0
 10
115.0
 20
119.0
 30
0.0
 11
113.35
 21
119.0
 31
0.0
  0
LINE
  5
384
  8
0
 10
102.0
 20
119.0
 30
0.0
 11
102.0
 21
103.0
 31
0.0
  0
LINE
  5
385
  8
0
 10
102.0
 20
103.0
 30
0.0
 11
102.0
 21
116.0
 31
0.0
  0
LINE
  5
386
  8
0
 10
102.0
 20
116.0
 30
0.0
 11
100.0
 21
116.0
 31
0.0
  0
LINE
  5
387
  8
0
 10
102.0
 20
103.0
 30
0.0
 11
102.0
 21
109.0
 31
0.0
  0
LINE
  5
388
  8
0
 10
102.0
 20
109.0
 30
0.0
 11
112.0
 21
109.0
 31
0.0
  0
LINE
  5
389
  8
0
 10
105.0
 20
128.5
 30
0.0
 11
100.0
 21
128.5
 31
0.0
  0
LINE
  5
38A
  8
0
 10
105.0
 20
128.15
 30
0.0
 11
100.0
 21
128.15
 31
0.0
  0
LINE
  5
38B
  8
0
 10
105.0
 20
123.85
 30
0.0
 11
100.0
 21
123.85
 31
0.0
  0
LINE
  5
38C
  8
0
 10
105.0
 20
123.5
 30
0.0
 11
100.0
 21
123.5
 31
0.0
  0
CIRCLE
  5
38E
  8
0
 10
107.0
 20
114.0
 30
0.0
 40
3.5
  0
LINE
  5
38F
  8
0
 10
102.0
 20
116.75
 30
0.0
 11
104.834936
 21
116.75
 31
0.0
  0
LINE
  5
390
  8
0
 10
102.0
 20
111.25
 30
0.0
 11
104.834936
 21
111.25
 31
0.0
  0
LINE
  5
391
  8
0
 10
110.5
 20
111.25
 30
0.0
 11
111.25
 21
112.0
 31
0.0
  0
LINE
  5
392
  8
0
 10
111.25
 20
112.0
 30
0.0
 11
111.25
 21
116.0
 31
0.0
  0
LINE
  5
393
  8
0
 10
111.25
 20
116.0
 30
0.0
 11
110.5
 21
116.75
 31
0.0
  0
LINE
  5
394
  8
0
 10
102.75
 20
112.0
 30
0.0
 11
102.75
 21
116.0
 31
0.0
  0
LINE
  5
395
  8
0
 10
103.5
 20
111.25
 30
0.0
 11
102.75
 21
112.0
 31
0.0
  0
LINE
  5
396
  8
0
 10
102.75
 20
116.0
 30
0.0
 11
103.5
 21
116.75
 31
0.0
  0
LINE
  5
397
  8
0
 10
109.165064
 20
116.75
 30
0.0
 11
112.0
 21
116.75
 31
0.0
  0
LINE
  5
398
  8
0
 10
109.165064
 20
111.25
 30
0.0
 11
112.0
 21
111.25
 31
0.0
  0
TEXT
  5
3C5
  8
0
 10
123.453805
 20
68.04126
 30
0.0
 40
2.5
  1
BCR-6201ZZ
  0
LINE
  5
3C6
  8
1
 10
102.5
 20
126.0
 30
0.0
 11
97.330963
 21
126.0
 31
0.0
  0
LINE
  5
3C7
  8
1
 10
100.25
 20
103.0
 30
0.0
 11
94.031688
 21
103.0
 31
0.0
  0
LINE
  5
3C8
  8
0
 10
112.0
 20
103.0
 30
0.0
 11
112.0
 21
119.85
 31
0.0
  0
LINE
  5
3C9
  8
0
 10
112.0
 20
119.85
 30
0.0
 11
113.35
 21
119.85
 31
0.0
  0
LINE
  5
3CA
  8
0
 10
113.35
 20
119.85
 30
0.0
 11
113.35
 21
103.0
 31
0.0
  0
LINE
  5
3CB
  8
0
 10
112.0
 20
119.0
 30
0.0
 11
102.0
 21
119.0
 31
0.0
  0
LINE
  5
3CC
  8
0
 10
112.0
 20
87.0
 30
0.0
 11
102.0
 21
87.0
 31
0.0
  0
LINE
  5
3CD
  8
0
 10
109.165064
 20
89.25
 30
0.0
 11
112.0
 21
89.25
 31
0.0
  0
LINE
  5
3CE
  8
0
 10
109.165064
 20
94.75
 30
0.0
 11
112.0
 21
94.75
 31
0.0
  0
LINE
  5
3CF
  8
0
 10
102.0
 20
97.0
 30
0.0
 11
112.0
 21
97.0
 31
0.0
  0
LINE
  5
3D0
  8
0
 10
115.0
 20
75.0
 30
0.0
 11
100.0
 21
75.0
 31
0.0
  0
LINE
  5
3D1
  8
1
 10
116.5
 20
80.0
 30
0.0
 11
102.5
 21
80.0
 31
0.0
  0
LINE
  5
3D2
  8
0
 10
110.6
 20
84.0
 30
0.0
 11
115.0
 21
84.0
 31
0.0
  0
LINE
  5
3D3
  8
0
 10
115.0
 20
76.0
 30
0.0
 11
110.6
 21
76.0
 31
0.0
  0
LINE
  5
3D4
  8
0
 10
102.0
 20
87.0
 30
0.0
 11
102.0
 21
103.0
 31
0.0
  0
LINE
  5
3D5
  8
0
 10
102.0
 20
103.0
 30
0.0
 11
102.0
 21
90.0
 31
0.0
  0
LINE
  5
3D6
  8
0
 10
102.75
 20
94.0
 30
0.0
 11
102.75
 21
90.0
 31
0.0
  0
CIRCLE
  5
3D7
  8
0
 10
107.0
 20
92.0
 30
0.0
 40
3.5
  0
LINE
  5
3D8
  8
0
 10
111.25
 20
94.0
 30
0.0
 11
111.25
 21
90.0
 31
0.0
  0
LINE
  5
3D9
  8
0
 10
100.0
 20
75.0
 30
0.0
 11
100.0
 21
103.0
 31
0.0
  0
LINE
  5
3DA
  8
1
 10
100.25
 20
103.0
 30
0.0
 11
94.031688
 21
103.0
 31
0.0
  0
LINE
  5
3DB
  8
0
 10
102.0
 20
103.0
 30
0.0
 11
102.0
 21
97.0
 31
0.0
  0
LINE
  5
3DC
  8
0
 10
103.5
 20
94.75
 30
0.0
 11
102.75
 21
94.0
 31
0.0
  0
LINE
  5
3DD
  8
0
 10
102.0
 20
94.75
 30
0.0
 11
104.834936
 21
94.75
 31
0.0
  0
LINE
  5
3DE
  8
0
 10
110.5
 20
94.75
 30
0.0
 11
111.25
 21
94.0
 31
0.0
  0
LINE
  5
3DF
  8
0
 10
102.0
 20
90.0
 30
0.0
 11
100.0
 21
90.0
 31
0.0
  0
LINE
  5
3E0
  8
1
 10
102.5
 20
80.0
 30
0.0
 11
97.330963
 21
80.0
 31
0.0
  0
LINE
  5
3E1
  8
0
 10
105.0
 20
77.5
 30
0.0
 11
100.0
 21
77.5
 31
0.0
  0
LINE
  5
3E2
  8
0
 10
105.0
 20
77.85
 30
0.0
 11
100.0
 21
77.85
 31
0.0
  0
LINE
  5
3E3
  8
0
 10
105.0
 20
82.15
 30
0.0
 11
100.0
 21
82.15
 31
0.0
  0
LINE
  5
3E4
  8
0
 10
105.0
 20
82.5
 30
0.0
 11
100.0
 21
82.5
 31
0.0
  0
LINE
  5
3E5
  8
0
 10
110.6
 20
76.0
 30
0.0
 11
110.6
 21
84.0
 31
0.0
  0
LINE
  5
3E6
  8
0
 10
102.0
 20
89.25
 30
0.0
 11
104.834936
 21
89.25
 31
0.0
  0
LINE
  5
3E7
  8
0
 10
102.75
 20
90.0
 30
0.0
 11
103.5
 21
89.25
 31
0.0
  0
LINE
  5
3E8
  8
0
 10
111.25
 20
90.0
 30
0.0
 11
110.5
 21
89.25
 31
0.0
  0
LINE
  5
3E9
  8
0
 10
107.0
 20
82.5
 30
0.0
 11
105.0
 21
82.5
 31
0.0
  0
LINE
  5
3EA
  8
0
 10
107.0
 20
82.15
 30
0.0
 11
105.0
 21
82.15
 31
0.0
  0
LINE
  5
3EB
  8
0
 10
107.0
 20
77.85
 30
0.0
 11
105.0
 21
77.85
 31
0.0
  0
LINE
  5
3EC
  8
0
 10
107.0
 20
77.5
 30
0.0
 11
105.0
 21
77.5
 31
0.0
  0
LINE
  5
3ED
  8
0
 10
107.0
 20
82.5
 30
0.0
 11
110.6
 21
82.5
 31
0.0
  0
LINE
  5
3EE
  8
0
 10
110.6
 20
82.15
 30
0.0
 11
107.0
 21
82.15
 31
0.0
  0
LINE
  5
3EF
  8
0
 10
110.6
 20
77.85
 30
0.0
 11
107.0
 21
77.85
 31
0.0
  0
LINE
  5
3F0
  8
0
 10
107.0
 20
77.5
 30
0.0
 11
110.6
 21
77.5
 31
0.0
  0
LINE
  5
3F1
  8
0
 10
113.35
 20
86.15
 30
0.0
 11
113.35
 21
103.0
 31
0.0
  0
LINE
  5
3F2
  8
0
 10
112.0
 20
103.0
 30
0.0
 11
112.0
 21
86.15
 31
0.0
  0
LINE
  5
3F3
  8
0
 10
115.0
 20
103.0
 30
0.0
 11
115.0
 21
87.0
 31
0.0
  0
LINE
  5
3F4
  8
0
 10
115.0
 20
103.0
 30
0.0
 11
115.0
 21
75.0
 31
0.0
  0
LINE
  5
3F5
  8
0
 10
115.0
 20
87.0
 30
0.0
 11
113.35
 21
87.0
 31
0.0
  0
LINE
  5
3F6
  8
0
 10
112.0
 20
86.15
 30
0.0
 11
113.35
 21
86.15
 31
0.0
  0
CIRCLE
  5
3F7
  8
0
 10
172.0
 20
103.0
 30
0.0
 40
16.0
  0
CIRCLE
  5
3F8
  8
2
 10
172.0
 20
103.0
 30
0.0
 40
16.75
  0
CIRCLE
  5
3F9
  8
2
 10
172.0
 20
103.0
 30
0.0
 40
13.0
  0
ENDSEC
  0
EOF
