  0
SECTION
  2
HEADER
  9
$ACADVER
  1
AC1009
  9
$INSBASE
 10
0.0
 20
0.0
 30
0.0
  9
$EXTMIN
 10
98.0
 20
69.876212
 30
0.0
  9
$EXTMAX
 10
199.75
 20
132.25
 30
0.0
  9
$LIMMIN
 10
0.0
 20
0.0
  9
$LIMMAX
 10
265.0
 20
200.0
  9
$ORTHOMODE
 70
     1
  9
$REGENMODE
 70
     1
  9
$FILLMODE
 70
     1
  9
$QTEXTMODE
 70
     0
  9
$MIRRTEXT
 70
     1
  9
$DRAGMODE
 70
     2
  9
$LTSCALE
 40
1.0
  9
$OSMODE
 70
     0
  9
$ATTMODE
 70
     1
  9
$TEXTSIZE
 40
2.5
  9
$TRACEWID
 40
1.0
  9
$TEXTSTYLE
  7
STANDARD
  9
$CLAYER
  8
2
  9
$CELTYPE
  6
BYLAYER
  9
$CECOLOR
 62
   256
  9
$DIMSCALE
 40
1.0
  9
$DIMASZ
 40
2.5
  9
$DIMEXO
 40
0.625
  9
$DIMDLI
 40
3.75
  9
$DIMRND
 40
0.0
  9
$DIMDLE
 40
0.0
  9
$DIMEXE
 40
1.25
  9
$DIMTP
 40
0.0
  9
$DIMTM
 40
0.0
  9
$DIMTXT
 40
2.5
  9
$DIMCEN
 40
2.5
  9
$DIMTSZ
 40
0.0
  9
$DIMTOL
 70
     0
  9
$DIMLIM
 70
     0
  9
$DIMTIH
 70
     0
  9
$DIMTOH
 70
     0
  9
$DIMSE1
 70
     0
  9
$DIMSE2
 70
     0
  9
$DIMTAD
 70
     1
  9
$DIMZIN
 70
     8
  9
$DIMBLK
  1

  9
$DIMASO
 70
     1
  9
$DIMSHO
 70
     1
  9
$DIMPOST
  1

  9
$DIMAPOST
  1

  9
$DIMALT
 70
     0
  9
$DIMALTD
 70
     4
  9
$DIMALTF
 40
0.0394
  9
$DIMLFAC
 40
1.0
  9
$DIMTOFL
 70
     1
  9
$DIMTVP
 40
0.0
  9
$DIMTIX
 70
     0
  9
$DIMSOXD
 70
     0
  9
$DIMSAH
 70
     0
  9
$DIMBLK1
  1

  9
$DIMBLK2
  1

  9
$DIMSTYLE
  2
STANDARD
  9
$DIMCLRD
 70
     0
  9
$DIMCLRE
 70
     0
  9
$DIMCLRT
 70
     0
  9
$DIMTFAC
 40
1.0
  9
$DIMGAP
 40
0.625
  9
$LUNITS
 70
     2
  9
$LUPREC
 70
     4
  9
$SKETCHINC
 40
1.0
  9
$FILLETRAD
 40
10.0
  9
$AUNITS
 70
     0
  9
$AUPREC
 70
     0
  9
$MENU
  1
.
  9
$ELEVATION
 40
0.0
  9
$PELEVATION
 40
0.0
  9
$THICKNESS
 40
0.0
  9
$LIMCHECK
 70
     0
  9
$BLIPMODE
 70
     0
  9
$CHAMFERA
 40
10.0
  9
$CHAMFERB
 40
10.0
  9
$SKPOLY
 70
     0
  9
$TDCREATE
 40
2452361.611515
  9
$TDUPDATE
 40
2452364.659489
  9
$TDINDWG
 40
0.133528
  9
$TDUSRTIMER
 40
0.133528
  9
$USRTIMER
 70
     1
  9
$ANGBASE
 50
0.0
  9
$ANGDIR
 70
     0
  9
$PDMODE
 70
     0
  9
$PDSIZE
 40
0.0
  9
$PLINEWID
 40
0.0
  9
$COORDS
 70
     2
  9
$SPLFRAME
 70
     0
  9
$SPLINETYPE
 70
     6
  9
$SPLINESEGS
 70
     8
  9
$ATTDIA
 70
     0
  9
$ATTREQ
 70
     1
  9
$HANDLING
 70
     1
  9
$HANDSEED
  5
2E2
  9
$SURFTAB1
 70
     6
  9
$SURFTAB2
 70
     6
  9
$SURFTYPE
 70
     6
  9
$SURFU
 70
     6
  9
$SURFV
 70
     6
  9
$UCSNAME
  2

  9
$UCSORG
 10
0.0
 20
0.0
 30
0.0
  9
$UCSXDIR
 10
1.0
 20
0.0
 30
0.0
  9
$UCSYDIR
 10
0.0
 20
1.0
 30
0.0
  9
$PUCSNAME
  2

  9
$PUCSORG
 10
0.0
 20
0.0
 30
0.0
  9
$PUCSXDIR
 10
1.0
 20
0.0
 30
0.0
  9
$PUCSYDIR
 10
0.0
 20
1.0
 30
0.0
  9
$USERI1
 70
     0
  9
$USERI2
 70
     0
  9
$USERI3
 70
     0
  9
$USERI4
 70
     0
  9
$USERI5
 70
     0
  9
$USERR1
 40
0.0
  9
$USERR2
 40
0.0
  9
$USERR3
 40
0.0
  9
$USERR4
 40
0.0
  9
$USERR5
 40
0.0
  9
$WORLDVIEW
 70
     1
  9
$SHADEDGE
 70
     3
  9
$SHADEDIF
 70
    70
  9
$TILEMODE
 70
     1
  9
$MAXACTVP
 70
    48
  9
$PLIMCHECK
 70
     0
  9
$PEXTMIN
 10
1.000000E+020
 20
1.000000E+020
 30
1.000000E+020
  9
$PEXTMAX
 10
-1.000000E+020
 20
-1.000000E+020
 30
-1.000000E+020
  9
$PLIMMIN
 10
0.0
 20
0.0
  9
$PLIMMAX
 10
420.0
 20
297.0
  9
$UNITMODE
 70
     0
  9
$VISRETAIN
 70
     1
  9
$PLINEGEN
 70
     0
  9
$PSLTSCALE
 70
     1
  0
ENDSEC
  0
SECTION
  2
TABLES
  0
TABLE
  2
VPORT
 70
     2
  0
VPORT
  2
*ACTIVE
 70
     0
 10
0.0
 20
0.0
 11
1.0
 21
1.0
 12
146.401821
 22
124.971081
 13
0.0
 23
0.0
 14
0.25
 24
0.25
 15
1.0
 25
1.0
 16
0.0
 26
0.0
 36
1.0
 17
0.0
 27
0.0
 37
0.0
 40
249.951882
 41
1.171492
 42
50.0
 43
0.0
 44
0.0
 50
0.0
 51
0.0
 71
     0
 72
 20000
 73
     1
 74
     1
 75
     1
 76
     0
 77
     0
 78
     0
  0
ENDTAB
  0
TABLE
  2
LTYPE
 70
     7
  0
LTYPE
  2
CONTINUOUS
 70
     0
  3
Solid line
 72
    65
 73
     0
 40
0.0
  0
LTYPE
  2
CENTERX2
 70
     0
  3
Center (2x) ________  __  ________  __  _____
 72
    65
 73
     4
 40
101.6
 49
63.5
 49
-12.7
 49
12.7
 49
-12.7
  0
LTYPE
  2
DASHEDX2
 70
     0
  3
Dashed (2x) ____  ____  ____  ____  ____  ___
 72
    65
 73
     2
 40
38.1
 49
25.4
 49
-12.7
  0
LTYPE
  2
DASHED
 70
     0
  3
Dashed __ __ __ __ __ __ __ __ __ __ __ __ __ _
 72
    65
 73
     2
 40
19.05
 49
12.7
 49
-6.35
  0
LTYPE
  2
CENTER
 70
     0
  3
Center ____ _ ____ _ ____ _ ____ _ ____ _ ____
 72
    65
 73
     4
 40
50.8
 49
31.75
 49
-6.35
 49
6.35
 49
-6.35
  0
LTYPE
  2
CENTER2
 70
     0
  3
Center (.5x) ___ _ ___ _ ___ _ ___ _ ___ _ ___
 72
    65
 73
     4
 40
28.575
 49
19.05
 49
-3.175
 49
3.175
 49
-3.175
  0
LTYPE
  2
DASHED2
 70
     0
  3
Dashed (.5x) _ _ _ _ _ _ _ _ _ _ _ _ _ _ _ _ _
 72
    65
 73
     2
 40
9.525
 49
6.35
 49
-3.175
  0
ENDTAB
  0
TABLE
  2
LAYER
 70
     4
  0
LAYER
  2
0
 70
     0
 62
     7
  6
CONTINUOUS
  0
LAYER
  2
1
 70
     0
 62
     1
  6
CENTER2
  0
LAYER
  2
2
 70
     0
 62
     2
  6
DASHED2
  0
LAYER
  2
3
 70
     0
 62
     4
  6
CONTINUOUS
  0
ENDTAB
  0
TABLE
  2
STYLE
 70
     2
  0
STYLE
  2
STANDARD
 70
     0
 40
0.0
 41
1.0
 50
0.0
 71
     0
 42
2.5
  3
txt
  4

  0
STYLE
  2

 70
     1
 40
0.0
 41
1.0
 50
0.0
 71
     0
 42
2.5
  3
ltypeshp.shx
  4

  0
ENDTAB
  0
TABLE
  2
VIEW
 70
     0
  0
ENDTAB
  0
TABLE
  2
UCS
 70
     0
  0
ENDTAB
  0
TABLE
  2
APPID
 70
     1
  0
APPID
  2
ACAD
 70
     0
  0
ENDTAB
  0
TABLE
  2
DIMSTYLE
 70
     1
  0
DIMSTYLE
  2
STANDARD
 70
     0
  3

  4

  5

  6

  7

 40
1.0
 41
0.18
 42
0.0625
 43
0.38
 44
0.18
 45
0.0
 46
0.0
 47
0.0
 48
0.0
140
0.18
141
0.09
142
0.0
143
25.4
144
1.0
145
0.0
146
1.0
147
0.09
 71
     0
 72
     0
 73
     1
 74
     1
 75
     0
 76
     0
 77
     0
 78
     0
170
     0
171
     2
172
     0
173
     0
174
     0
175
     0
176
     0
177
     0
178
     0
  0
ENDTAB
  0
ENDSEC
  0
SECTION
  2
BLOCKS
  0
BLOCK
  8
0
  2
$MODEL_SPACE
 70
     0
 10
0.0
 20
0.0
 30
0.0
  3
$MODEL_SPACE
  1

  0
ENDBLK
  5
1A
  8
0
  0
BLOCK
 67
     1
  8
0
  2
$PAPER_SPACE
 70
     0
 10
0.0
 20
0.0
 30
0.0
  3
$PAPER_SPACE
  1

  0
ENDBLK
  5
17
 67
     1
  8
0
  0
ENDSEC
  0
SECTION
  2
ENTITIES
  0
CIRCLE
  5
80
  8
0
 10
172.0
 20
123.0
 30
0.0
 40
4.0
  0
CIRCLE
  5
81
  8
0
 10
152.0
 20
103.0
 30
0.0
 40
4.0
  0
CIRCLE
  5
82
  8
0
 10
192.0
 20
103.0
 30
0.0
 40
4.0
  0
CIRCLE
  5
83
  8
0
 10
172.0
 20
83.0
 30
0.0
 40
4.0
  0
LINE
  5
EA
  8
0
 10
116.0
 20
127.0
 30
0.0
 11
111.6
 21
127.0
 31
0.0
  0
LINE
  5
EB
  8
0
 10
111.6
 20
127.0
 30
0.0
 11
111.6
 21
119.0
 31
0.0
  0
LINE
  5
EC
  8
0
 10
111.6
 20
119.0
 30
0.0
 11
116.0
 21
119.0
 31
0.0
  0
LINE
  5
159
  8
1
 10
199.75
 20
103.0
 30
0.0
 11
143.25
 21
103.0
 31
0.0
  0
LINE
  5
15A
  8
1
 10
172.0
 20
132.25
 30
0.0
 11
172.0
 21
74.5
 31
0.0
  0
CIRCLE
  5
1BB
  8
0
 10
172.0
 20
123.0
 30
0.0
 40
2.5
  0
CIRCLE
  5
1BC
  8
0
 10
152.0
 20
103.0
 30
0.0
 40
2.5
  0
CIRCLE
  5
1BD
  8
0
 10
192.0
 20
103.0
 30
0.0
 40
2.5
  0
CIRCLE
  5
1BE
  8
0
 10
172.0
 20
83.0
 30
0.0
 40
2.5
  0
CIRCLE
  5
1C4
  8
0
 10
152.0
 20
103.0
 30
0.0
 40
2.15
  0
CIRCLE
  5
1C5
  8
0
 10
172.0
 20
83.0
 30
0.0
 40
2.15
  0
CIRCLE
  5
1C6
  8
0
 10
192.0
 20
103.0
 30
0.0
 40
2.15
  0
CIRCLE
  5
1C7
  8
0
 10
172.0
 20
123.0
 30
0.0
 40
2.15
  0
LINE
  5
201
  8
0
 10
108.0
 20
125.5
 30
0.0
 11
111.6
 21
125.5
 31
0.0
  0
LINE
  5
203
  8
0
 10
111.6
 20
125.15
 30
0.0
 11
108.0
 21
125.15
 31
0.0
  0
LINE
  5
204
  8
1
 10
118.0
 20
123.0
 30
0.0
 11
105.25
 21
123.0
 31
0.0
  0
LINE
  5
205
  8
0
 10
111.6
 20
120.85
 30
0.0
 11
108.0
 21
120.85
 31
0.0
  0
LINE
  5
206
  8
0
 10
108.0
 20
120.5
 30
0.0
 11
111.6
 21
120.5
 31
0.0
  0
CIRCLE
  5
228
  8
0
 10
172.0
 20
103.0
 30
0.0
 40
5.0
  0
LINE
  5
241
  8
1
 10
121.5
 20
103.0
 30
0.0
 11
101.25
 21
103.0
 31
0.0
  0
CIRCLE
  5
262
  8
0
 10
172.0
 20
103.0
 30
0.0
 40
25.0
  0
CIRCLE
  5
265
  8
1
 10
172.0
 20
103.0
 30
0.0
 40
20.0
  0
LINE
  5
268
  8
0
 10
116.0
 20
103.0
 30
0.0
 11
116.0
 21
128.0
 31
0.0
  0
LINE
  5
269
  8
0
 10
116.0
 20
128.0
 30
0.0
 11
103.0
 21
128.0
 31
0.0
  0
LINE
  5
26A
  8
0
 10
103.0
 20
128.0
 30
0.0
 11
103.0
 21
103.0
 31
0.0
  0
LINE
  5
26B
  8
0
 10
116.0
 20
103.0
 30
0.0
 11
116.0
 21
116.0
 31
0.0
  0
LINE
  5
26C
  8
0
 10
116.0
 20
116.0
 30
0.0
 11
114.15
 21
116.0
 31
0.0
  0
LINE
  5
26D
  8
0
 10
105.0
 20
116.0
 30
0.0
 11
105.0
 21
103.0
 31
0.0
  0
LINE
  5
26E
  8
0
 10
105.0
 20
103.0
 30
0.0
 11
105.0
 21
114.0
 31
0.0
  0
LINE
  5
26F
  8
0
 10
105.0
 20
114.0
 30
0.0
 11
103.0
 21
114.0
 31
0.0
  0
LINE
  5
270
  8
0
 10
116.0
 20
103.0
 30
0.0
 11
116.0
 21
108.0
 31
0.0
  0
LINE
  5
271
  8
0
 10
113.0
 20
108.0
 30
0.0
 11
105.0
 21
108.0
 31
0.0
  0
LINE
  5
272
  8
0
 10
108.0
 20
125.5
 30
0.0
 11
103.0
 21
125.5
 31
0.0
  0
LINE
  5
273
  8
0
 10
108.0
 20
125.15
 30
0.0
 11
103.0
 21
125.15
 31
0.0
  0
LINE
  5
274
  8
0
 10
108.0
 20
120.85
 30
0.0
 11
103.0
 21
120.85
 31
0.0
  0
LINE
  5
275
  8
0
 10
108.0
 20
120.5
 30
0.0
 11
103.0
 21
120.5
 31
0.0
  0
CIRCLE
  5
276
  8
0
 10
109.0
 20
112.0
 30
0.0
 40
2.75
  0
LINE
  5
277
  8
0
 10
105.0
 20
114.25
 30
0.0
 11
107.418861
 21
114.25
 31
0.0
  0
LINE
  5
278
  8
0
 10
105.0
 20
109.75
 30
0.0
 11
107.418861
 21
109.75
 31
0.0
  0
LINE
  5
279
  8
0
 10
111.75
 20
109.75
 30
0.0
 11
112.5
 21
110.5
 31
0.0
  0
LINE
  5
27A
  8
0
 10
112.5
 20
110.5
 30
0.0
 11
112.5
 21
113.5
 31
0.0
  0
LINE
  5
27B
  8
0
 10
112.5
 20
113.5
 30
0.0
 11
111.75
 21
114.25
 31
0.0
  0
LINE
  5
27C
  8
0
 10
105.5
 20
113.5
 30
0.0
 11
106.25
 21
114.25
 31
0.0
  0
LINE
  5
27D
  8
0
 10
106.25
 20
109.75
 30
0.0
 11
105.5
 21
110.5
 31
0.0
  0
LINE
  5
27E
  8
0
 10
105.5
 20
110.5
 30
0.0
 11
105.5
 21
113.5
 31
0.0
  0
LINE
  5
27F
  8
0
 10
110.581139
 20
109.75
 30
0.0
 11
113.0
 21
109.75
 31
0.0
  0
LINE
  5
280
  8
0
 10
110.581139
 20
114.25
 30
0.0
 11
113.0
 21
114.25
 31
0.0
  0
TEXT
  5
2AA
  8
0
 10
124.677699
 20
69.876212
 30
0.0
 40
2.5
  1
BCR-6000ZZ
  0
LINE
  5
2AB
  8
1
 10
105.25
 20
123.0
 30
0.0
 11
100.75
 21
123.0
 31
0.0
  0
LINE
  5
2AC
  8
1
 10
101.25
 20
103.0
 30
0.0
 11
98.0
 21
103.0
 31
0.0
  0
LINE
  5
2AD
  8
0
 10
113.0
 20
103.0
 30
0.0
 11
113.0
 21
116.6
 31
0.0
  0
LINE
  5
2AE
  8
0
 10
113.0
 20
116.6
 30
0.0
 11
114.15
 21
116.6
 31
0.0
  0
LINE
  5
2AF
  8
0
 10
114.15
 20
116.6
 30
0.0
 11
114.15
 21
103.0
 31
0.0
  0
LINE
  5
2B0
  8
0
 10
113.0
 20
116.0
 30
0.0
 11
105.0
 21
116.0
 31
0.0
  0
LINE
  5
2B1
  8
0
 10
113.0
 20
90.0
 30
0.0
 11
105.0
 21
90.0
 31
0.0
  0
LINE
  5
2B2
  8
0
 10
111.75
 20
96.25
 30
0.0
 11
112.5
 21
95.5
 31
0.0
  0
LINE
  5
2B3
  8
0
 10
112.5
 20
92.5
 30
0.0
 11
111.75
 21
91.75
 31
0.0
  0
LINE
  5
2B4
  8
0
 10
110.581139
 20
96.25
 30
0.0
 11
113.0
 21
96.25
 31
0.0
  0
LINE
  5
2B5
  8
0
 10
110.581139
 20
91.75
 30
0.0
 11
113.0
 21
91.75
 31
0.0
  0
LINE
  5
2B6
  8
0
 10
113.0
 20
98.0
 30
0.0
 11
105.0
 21
98.0
 31
0.0
  0
LINE
  5
2B7
  8
0
 10
116.0
 20
78.0
 30
0.0
 11
103.0
 21
78.0
 31
0.0
  0
LINE
  5
2B8
  8
1
 10
118.0
 20
83.0
 30
0.0
 11
105.25
 21
83.0
 31
0.0
  0
LINE
  5
2B9
  8
0
 10
111.6
 20
87.0
 30
0.0
 11
116.0
 21
87.0
 31
0.0
  0
LINE
  5
2BA
  8
0
 10
116.0
 20
79.0
 30
0.0
 11
111.6
 21
79.0
 31
0.0
  0
LINE
  5
2BB
  8
0
 10
105.0
 20
90.0
 30
0.0
 11
105.0
 21
103.0
 31
0.0
  0
LINE
  5
2BC
  8
0
 10
103.0
 20
78.0
 30
0.0
 11
103.0
 21
103.0
 31
0.0
  0
LINE
  5
2BD
  8
1
 10
101.25
 20
103.0
 30
0.0
 11
98.0
 21
103.0
 31
0.0
  0
LINE
  5
2BE
  8
0
 10
105.0
 20
103.0
 30
0.0
 11
105.0
 21
92.0
 31
0.0
  0
CIRCLE
  5
2BF
  8
0
 10
109.0
 20
94.0
 30
0.0
 40
2.75
  0
LINE
  5
2C0
  8
0
 10
105.0
 20
91.75
 30
0.0
 11
107.418861
 21
91.75
 31
0.0
  0
LINE
  5
2C1
  8
0
 10
105.0
 20
96.25
 30
0.0
 11
107.418861
 21
96.25
 31
0.0
  0
LINE
  5
2C2
  8
0
 10
105.5
 20
95.5
 30
0.0
 11
105.5
 21
92.5
 31
0.0
  0
LINE
  5
2C3
  8
0
 10
106.25
 20
96.25
 30
0.0
 11
105.5
 21
95.5
 31
0.0
  0
LINE
  5
2C4
  8
0
 10
105.0
 20
92.0
 30
0.0
 11
103.0
 21
92.0
 31
0.0
  0
LINE
  5
2C5
  8
0
 10
105.5
 20
92.5
 30
0.0
 11
106.25
 21
91.75
 31
0.0
  0
LINE
  5
2C6
  8
1
 10
105.25
 20
83.0
 30
0.0
 11
100.75
 21
83.0
 31
0.0
  0
LINE
  5
2C7
  8
0
 10
111.6
 20
79.0
 30
0.0
 11
111.6
 21
87.0
 31
0.0
  0
LINE
  5
2C8
  8
0
 10
108.0
 20
85.15
 30
0.0
 11
103.0
 21
85.15
 31
0.0
  0
LINE
  5
2C9
  8
0
 10
108.0
 20
85.5
 30
0.0
 11
103.0
 21
85.5
 31
0.0
  0
LINE
  5
2CA
  8
0
 10
108.0
 20
85.5
 30
0.0
 11
111.6
 21
85.5
 31
0.0
  0
LINE
  5
2CB
  8
0
 10
111.6
 20
85.15
 30
0.0
 11
108.0
 21
85.15
 31
0.0
  0
LINE
  5
2CC
  8
0
 10
108.0
 20
80.5
 30
0.0
 11
103.0
 21
80.5
 31
0.0
  0
LINE
  5
2CD
  8
0
 10
108.0
 20
80.85
 30
0.0
 11
103.0
 21
80.85
 31
0.0
  0
LINE
  5
2CE
  8
0
 10
111.6
 20
80.85
 30
0.0
 11
108.0
 21
80.85
 31
0.0
  0
LINE
  5
2CF
  8
0
 10
108.0
 20
80.5
 30
0.0
 11
111.6
 21
80.5
 31
0.0
  0
LINE
  5
2D0
  8
0
 10
114.15
 20
89.4
 30
0.0
 11
114.15
 21
103.0
 31
0.0
  0
LINE
  5
2D1
  8
0
 10
113.0
 20
103.0
 30
0.0
 11
113.0
 21
89.4
 31
0.0
  0
LINE
  5
2D2
  8
0
 10
116.0
 20
103.0
 30
0.0
 11
116.0
 21
90.0
 31
0.0
  0
LINE
  5
2D3
  8
0
 10
116.0
 20
103.0
 30
0.0
 11
116.0
 21
78.0
 31
0.0
  0
LINE
  5
2D4
  8
0
 10
116.0
 20
103.0
 30
0.0
 11
116.0
 21
98.0
 31
0.0
  0
LINE
  5
2D5
  8
0
 10
112.5
 20
95.5
 30
0.0
 11
112.5
 21
92.5
 31
0.0
  0
LINE
  5
2D6
  8
0
 10
116.0
 20
90.0
 30
0.0
 11
114.15
 21
90.0
 31
0.0
  0
LINE
  5
2D7
  8
0
 10
113.0
 20
89.4
 30
0.0
 11
114.15
 21
89.4
 31
0.0
  0
CIRCLE
  5
2D8
  8
0
 10
172.0
 20
103.0
 30
0.0
 40
13.0
  0
CIRCLE
  5
2D9
  8
2
 10
172.0
 20
103.0
 30
0.0
 40
13.5
  0
CIRCLE
  5
2DA
  8
2
 10
172.0
 20
103.0
 30
0.0
 40
11.0
  0
ENDSEC
  0
EOF
