  0
SECTION
  2
HEADER
  9
$ACADVER
  1
AC1014
  9
$ACADMAINTVER
 70
     0
  9
$DWGCODEPAGE
  3
ANSI_932
  9
$INSBASE
 10
0.0
 20
0.0
 30
0.0
  9
$EXTMIN
 10
48.5
 20
-3.5
 30
0.0
  9
$EXTMAX
 10
168.5
 20
103.5
 30
0.0
  9
$LIMMIN
 10
0.0
 20
0.0
  9
$LIMMAX
 10
420.0
 20
297.0
  9
$ORTHOMODE
 70
     1
  9
$REGENMODE
 70
     1
  9
$FILLMODE
 70
     1
  9
$QTEXTMODE
 70
     0
  9
$MIRRTEXT
 70
     1
  9
$DRAGMODE
 70
     2
  9
$LTSCALE
 40
0.25
  9
$OSMODE
 70
    37
  9
$ATTMODE
 70
     1
  9
$TEXTSIZE
 40
2.0
  9
$TRACEWID
 40
1.0
  9
$TEXTSTYLE
  7
STANDARD
  9
$CLAYER
  8
0
  9
$CELTYPE
  6
BYLAYER
  9
$CECOLOR
 62
   256
  9
$CELTSCALE
 40
1.0
  9
$DELOBJ
 70
     1
  9
$DISPSILH
 70
     0
  9
$DIMSCALE
 40
1.0
  9
$DIMASZ
 40
0.18
  9
$DIMEXO
 40
0.0625
  9
$DIMDLI
 40
0.38
  9
$DIMRND
 40
0.0
  9
$DIMDLE
 40
0.0
  9
$DIMEXE
 40
0.18
  9
$DIMTP
 40
0.0
  9
$DIMTM
 40
0.0
  9
$DIMTXT
 40
0.18
  9
$DIMCEN
 40
0.09
  9
$DIMTSZ
 40
0.0
  9
$DIMTOL
 70
     0
  9
$DIMLIM
 70
     0
  9
$DIMTIH
 70
     1
  9
$DIMTOH
 70
     1
  9
$DIMSE1
 70
     0
  9
$DIMSE2
 70
     0
  9
$DIMTAD
 70
     0
  9
$DIMZIN
 70
     0
  9
$DIMBLK
  1

  9
$DIMASO
 70
     1
  9
$DIMSHO
 70
     1
  9
$DIMPOST
  1

  9
$DIMAPOST
  1

  9
$DIMALT
 70
     0
  9
$DIMALTD
 70
     2
  9
$DIMALTF
 40
25.4
  9
$DIMLFAC
 40
1.0
  9
$DIMTOFL
 70
     0
  9
$DIMTVP
 40
0.0
  9
$DIMTIX
 70
     0
  9
$DIMSOXD
 70
     0
  9
$DIMSAH
 70
     0
  9
$DIMBLK1
  1

  9
$DIMBLK2
  1

  9
$DIMSTYLE
  2
STANDARD
  9
$DIMCLRD
 70
     0
  9
$DIMCLRE
 70
     0
  9
$DIMCLRT
 70
     0
  9
$DIMTFAC
 40
1.0
  9
$DIMGAP
 40
0.09
  9
$DIMJUST
 70
     0
  9
$DIMSD1
 70
     0
  9
$DIMSD2
 70
     0
  9
$DIMTOLJ
 70
     1
  9
$DIMTZIN
 70
     0
  9
$DIMALTZ
 70
     0
  9
$DIMALTTZ
 70
     0
  9
$DIMFIT
 70
     3
  9
$DIMUPT
 70
     0
  9
$DIMUNIT
 70
     2
  9
$DIMDEC
 70
     4
  9
$DIMTDEC
 70
     4
  9
$DIMALTU
 70
     2
  9
$DIMALTTD
 70
     2
  9
$DIMTXSTY
  7
STANDARD
  9
$DIMAUNIT
 70
     0
  9
$LUNITS
 70
     2
  9
$LUPREC
 70
     2
  9
$SKETCHINC
 40
1.0
  9
$FILLETRAD
 40
2.5
  9
$AUNITS
 70
     0
  9
$AUPREC
 70
     0
  9
$MENU
  1
.
  9
$ELEVATION
 40
0.0
  9
$PELEVATION
 40
0.0
  9
$THICKNESS
 40
0.0
  9
$LIMCHECK
 70
     0
  9
$BLIPMODE
 70
     0
  9
$CHAMFERA
 40
2.5
  9
$CHAMFERB
 40
2.5
  9
$CHAMFERC
 40
0.0
  9
$CHAMFERD
 40
0.0
  9
$SKPOLY
 70
     1
  9
$TDCREATE
 40
2452095.702004005
  9
$TDUPDATE
 40
2452821.749128356
  9
$TDINDWG
 40
0.0089642361
  9
$TDUSRTIMER
 40
0.0089642361
  9
$USRTIMER
 70
     1
  9
$ANGBASE
 50
0.0
  9
$ANGDIR
 70
     0
  9
$PDMODE
 70
     0
  9
$PDSIZE
 40
0.0
  9
$PLINEWID
 40
0.0
  9
$COORDS
 70
     1
  9
$SPLFRAME
 70
     0
  9
$SPLINETYPE
 70
     6
  9
$SPLINESEGS
 70
     8
  9
$ATTDIA
 70
     0
  9
$ATTREQ
 70
     1
  9
$HANDLING
 70
     1
  9
$HANDSEED
  5
55F
  9
$SURFTAB1
 70
     6
  9
$SURFTAB2
 70
     6
  9
$SURFTYPE
 70
     6
  9
$SURFU
 70
     6
  9
$SURFV
 70
     6
  9
$UCSNAME
  2

  9
$UCSORG
 10
0.0
 20
0.0
 30
0.0
  9
$UCSXDIR
 10
1.0
 20
0.0
 30
0.0
  9
$UCSYDIR
 10
0.0
 20
1.0
 30
0.0
  9
$PUCSNAME
  2

  9
$PUCSORG
 10
0.0
 20
0.0
 30
0.0
  9
$PUCSXDIR
 10
1.0
 20
0.0
 30
0.0
  9
$PUCSYDIR
 10
0.0
 20
1.0
 30
0.0
  9
$USERI1
 70
     0
  9
$USERI2
 70
     0
  9
$USERI3
 70
     0
  9
$USERI4
 70
     0
  9
$USERI5
 70
     0
  9
$USERR1
 40
0.0
  9
$USERR2
 40
0.0
  9
$USERR3
 40
0.0
  9
$USERR4
 40
0.0
  9
$USERR5
 40
0.0
  9
$WORLDVIEW
 70
     1
  9
$SHADEDGE
 70
     3
  9
$SHADEDIF
 70
    70
  9
$TILEMODE
 70
     1
  9
$MAXACTVP
 70
    48
  9
$PINSBASE
 10
0.0
 20
0.0
 30
0.0
  9
$PLIMCHECK
 70
     0
  9
$PEXTMIN
 10
1.000000E+20
 20
1.000000E+20
 30
1.000000E+20
  9
$PEXTMAX
 10
-1.000000E+20
 20
-1.000000E+20
 30
-1.000000E+20
  9
$PLIMMIN
 10
0.0
 20
0.0
  9
$PLIMMAX
 10
420.0
 20
297.0
  9
$UNITMODE
 70
     0
  9
$VISRETAIN
 70
     1
  9
$PLINEGEN
 70
     0
  9
$PSLTSCALE
 70
     1
  9
$TREEDEPTH
 70
  3020
  9
$PICKSTYLE
 70
     1
  9
$CMLSTYLE
  2
STANDARD
  9
$CMLJUST
 70
     0
  9
$CMLSCALE
 40
1.0
  9
$PROXYGRAPHICS
 70
     1
  9
$MEASUREMENT
 70
     0
  0
ENDSEC
  0
SECTION
  2
CLASSES
  0
CLASS
  1
ACDBDICTIONARYWDFLT
  2
AcDbDictionaryWithDefault
  3
AutoCAD 2000
 90
        0
280
     0
281
     0
  0
CLASS
  1
ACDBPLACEHOLDER
  2
AcDbPlaceHolder
  3
AutoCAD 2000
 90
        0
280
     0
281
     0
  0
CLASS
  1
LAYOUT
  2
AcDbLayout
  3
AutoCAD 2000
 90
        0
280
     0
281
     0
  0
CLASS
  1
DICTIONARYVAR
  2
AcDbDictionaryVar
  3
"AutoCAD"
 90
        0
280
     0
281
     0
  0
CLASS
  1
LONG_TRANSACTION
  2
AcDbLongTransaction
  3
AutoCAD 2000
 90
        0
280
     0
281
     0
  0
CLASS
  1
LWPOLYLINE
  2
AcDbPolyline
  3
"AutoCAD"
 90
        0
280
     0
281
     1
  0
CLASS
  1
HATCH
  2
AcDbHatch
  3
"ACAD_SEDONA"
 90
        0
280
     0
281
     1
  0
CLASS
  1
XRECORD
  2
AcDbXrecord
  3
"<Built In>"
 90
        0
280
     0
281
     0
  0
ENDSEC
  0
SECTION
  2
TABLES
  0
TABLE
  2
VPORT
  5
42C
100
AcDbSymbolTable
 70
     1
  0
VPORT
  5
527
102
{ACAD_XDICTIONARY
360
530
102
}
100
AcDbSymbolTableRecord
100
AcDbViewportTableRecord
  2
*ACTIVE
 70
     0
 10
0.0
 20
0.0
 11
1.0
 21
1.0
 12
96.066412
 22
50.000886
 13
0.0
 23
0.0
 14
1.0
 24
1.0
 15
10.0
 25
10.0
 16
0.0
 26
0.0
 36
1.0
 17
0.0
 27
0.0
 37
0.0
 40
113.62259
 41
1.530211
 42
50.0
 43
0.0
 44
0.0
 50
0.0
 51
0.0
 71
     0
 72
   100
 73
     1
 74
     1
 75
     0
 76
     0
 77
     0
 78
     0
  0
ENDTAB
  0
TABLE
  2
LTYPE
  5
429
100
AcDbSymbolTable
 70
     3
  0
LTYPE
  5
437
102
{ACAD_XDICTIONARY
360
52C
102
}
100
AcDbSymbolTableRecord
100
AcDbLinetypeTableRecord
  2
BYBLOCK
 70
     0
  3

 72
    65
 73
     0
 40
0.0
  0
LTYPE
  5
438
102
{ACAD_XDICTIONARY
360
52E
102
}
100
AcDbSymbolTableRecord
100
AcDbLinetypeTableRecord
  2
BYLAYER
 70
     0
  3

 72
    65
 73
     0
 40
0.0
  0
LTYPE
  5
439
100
AcDbSymbolTableRecord
100
AcDbLinetypeTableRecord
  2
CONTINUOUS
 70
     0
  3
Solid line
 72
    65
 73
     0
 40
0.0
  0
LTYPE
  5
447
100
AcDbSymbolTableRecord
100
AcDbLinetypeTableRecord
  2
CENTER
 70
     0
  3
Center ____ _ ____ _ ____ _ ____ _ ____ _ ____
 72
    65
 73
     4
 40
50.8
 49
31.75
 74
     0
 49
-6.35
 74
     0
 49
6.35
 74
     0
 49
-6.35
 74
     0
  0
LTYPE
  5
448
100
AcDbSymbolTableRecord
100
AcDbLinetypeTableRecord
  2
DASHED
 70
     0
  3
Dashed __ __ __ __ __ __ __ __ __ __ __ __ __ _
 72
    65
 73
     2
 40
19.05
 49
12.7
 74
     0
 49
-6.35
 74
     0
  0
ENDTAB
  0
TABLE
  2
LAYER
  5
426
100
AcDbSymbolTable
 70
     2
  0
LAYER
  5
434
100
AcDbSymbolTableRecord
100
AcDbLayerTableRecord
  2
0
 70
     0
 62
     7
  6
CONTINUOUS
  0
LAYER
  5
449
100
AcDbSymbolTableRecord
100
AcDbLayerTableRecord
  2
CENTER
 70
     0
 62
     1
  6
CENTER
  0
ENDTAB
  0
TABLE
  2
STYLE
  5
427
100
AcDbSymbolTable
 70
     1
  0
STYLE
  5
435
100
AcDbSymbolTableRecord
100
AcDbTextStyleTableRecord
  2
STANDARD
 70
     0
 40
0.0
 41
1.0
 50
0.0
 71
     0
 42
2.0
  3
txt.shx
  4

  0
ENDTAB
  0
TABLE
  2
VIEW
  5
42A
100
AcDbSymbolTable
 70
     0
  0
ENDTAB
  0
TABLE
  2
UCS
  5
42B
100
AcDbSymbolTable
 70
     0
  0
ENDTAB
  0
TABLE
  2
APPID
  5
42D
100
AcDbSymbolTable
 70
     1
  0
APPID
  5
436
100
AcDbSymbolTableRecord
100
AcDbRegAppTableRecord
  2
ACAD
 70
     0
  0
ENDTAB
  0
TABLE
  2
DIMSTYLE
  5
42E
100
AcDbSymbolTable
 70
     1
  0
DIMSTYLE
105
44A
102
{ACAD_XDICTIONARY
360
558
102
}
100
AcDbSymbolTableRecord
100
AcDbDimStyleTableRecord
  2
STANDARD
 70
     0
  3

  4

  5

  6

  7

 40
1.0
 41
0.18
 42
0.0625
 43
0.38
 44
0.18
 45
0.0
 46
0.0
 47
0.0
 48
0.0
140
0.18
141
0.09
142
0.0
143
25.4
144
1.0
145
0.0
146
1.0
147
0.09
 71
     0
 72
     0
 73
     1
 74
     1
 75
     0
 76
     0
 77
     0
 78
     0
170
     0
171
     2
172
     0
173
     0
174
     0
175
     0
176
     0
177
     0
178
     0
270
     2
271
     2
272
     2
273
     2
274
     2
340
435
275
     0
280
     0
281
     0
282
     0
283
     1
284
     0
285
     0
286
     0
287
     5
288
     0
  0
ENDTAB
  0
TABLE
  2
BLOCK_RECORD
  5
425
100
AcDbSymbolTable
 70
     2
  0
BLOCK_RECORD
  5
442
102
{ACAD_XDICTIONARY
360
528
102
}
100
AcDbSymbolTableRecord
100
AcDbBlockTableRecord
  2
*MODEL_SPACE
  0
BLOCK_RECORD
  5
43E
102
{ACAD_XDICTIONARY
360
52A
102
}
100
AcDbSymbolTableRecord
100
AcDbBlockTableRecord
  2
*PAPER_SPACE
  0
BLOCK_RECORD
  5
44C
100
AcDbSymbolTableRecord
100
AcDbBlockTableRecord
  2
$MODEL_SPACE
  0
BLOCK_RECORD
  5
44F
100
AcDbSymbolTableRecord
100
AcDbBlockTableRecord
  2
$PAPER_SPACE
  0
ENDTAB
  0
ENDSEC
  0
SECTION
  2
BLOCKS
  0
BLOCK
  5
443
100
AcDbEntity
  8
0
100
AcDbBlockBegin
  2
*MODEL_SPACE
 70
     0
 10
0.0
 20
0.0
 30
0.0
  3
*MODEL_SPACE
  1

  0
ENDBLK
  5
444
100
AcDbEntity
  8
0
100
AcDbBlockEnd
  0
BLOCK
  5
43F
100
AcDbEntity
 67
     1
  8
0
100
AcDbBlockBegin
  2
*PAPER_SPACE
 70
     0
 10
0.0
 20
0.0
 30
0.0
  3
*PAPER_SPACE
  1

  0
ENDBLK
  5
440
100
AcDbEntity
 67
     1
  8
0
100
AcDbBlockEnd
  0
BLOCK
  5
44D
100
AcDbEntity
  8
0
100
AcDbBlockBegin
  2
$MODEL_SPACE
 70
     0
 10
0.0
 20
0.0
 30
0.0
  3
$MODEL_SPACE
  1

  0
ENDBLK
  5
44E
100
AcDbEntity
  8
0
100
AcDbBlockEnd
  0
BLOCK
  5
450
100
AcDbEntity
  8
0
100
AcDbBlockBegin
  2
$PAPER_SPACE
 70
     0
 10
0.0
 20
0.0
 30
0.0
  3
$PAPER_SPACE
  1

  0
ENDBLK
  5
451
100
AcDbEntity
  8
0
100
AcDbBlockEnd
  0
ENDSEC
  0
SECTION
  2
ENTITIES
  0
LINE
  5
452
100
AcDbEntity
  8
0
100
AcDbLine
 10
50.0
 20
50.0
 30
0.0
 11
50.0
 21
85.0
 31
0.0
  0
LINE
  5
453
100
AcDbEntity
  8
0
100
AcDbLine
 10
71.0
 20
102.0
 30
0.0
 11
71.0
 21
50.0
 31
0.0
  0
LINE
  5
456
100
AcDbEntity
  8
0
  6
DASHED
100
AcDbLine
 10
62.4
 20
5.5
 30
0.0
 11
62.4
 21
12.5
 31
0.0
  0
LINE
  5
457
100
AcDbEntity
  8
0
100
AcDbLine
 10
52.0
 20
14.7
 30
0.0
 11
52.0
 21
-2.0
 31
0.0
  0
LINE
  5
458
100
AcDbEntity
  8
0
100
AcDbLine
 10
71.0
 20
-2.0
 30
0.0
 11
71.0
 21
50.0
 31
0.0
  0
LINE
  5
459
100
AcDbEntity
  8
0
100
AcDbLine
 10
52.0
 20
-2.0
 30
0.0
 11
71.0
 21
-2.0
 31
0.0
  0
LINE
  5
45A
100
AcDbEntity
  8
0
  6
DASHED
100
AcDbLine
 10
71.0
 20
5.5
 30
0.0
 11
62.4
 21
5.5
 31
0.0
  0
LINE
  5
45B
100
AcDbEntity
  8
0
100
AcDbLine
 10
50.0
 20
50.0
 30
0.0
 11
50.0
 21
15.0
 31
0.0
  0
LINE
  5
45C
100
AcDbEntity
  8
CENTER
  6
CENTER
 62
     1
100
AcDbLine
 10
72.5
 20
12.5
 30
0.0
 11
48.5
 21
12.5
 31
0.0
  0
LINE
  5
45D
100
AcDbEntity
  8
0
  6
DASHED
 62
     3
100
AcDbLine
 10
62.4
 20
7.5
 30
0.0
 11
52.0
 21
7.5
 31
0.0
  0
LINE
  5
45E
100
AcDbEntity
  8
0
  6
DASHED
100
AcDbLine
 10
62.4
 20
8.25
 30
0.0
 11
52.0
 21
8.25
 31
0.0
  0
LINE
  5
45F
100
AcDbEntity
  8
0
  6
DASHED
100
AcDbLine
 10
62.4
 20
16.75
 30
0.0
 11
52.0
 21
16.75
 31
0.0
  0
LINE
  5
460
100
AcDbEntity
  8
0
  6
DASHED
 62
     3
100
AcDbLine
 10
62.4
 20
17.5
 30
0.0
 11
52.0
 21
17.5
 31
0.0
  0
LINE
  5
461
100
AcDbEntity
  8
0
100
AcDbLine
 10
51.7
 20
15.0
 30
0.0
 11
50.0
 21
15.0
 31
0.0
  0
ARC
  5
462
100
AcDbEntity
  8
0
100
AcDbCircle
 10
51.7
 20
14.7
 30
0.0
 40
0.3
100
AcDbArc
 50
0.0
 51
90.0
  0
LINE
  5
463
100
AcDbEntity
  8
0
  6
DASHED
100
AcDbLine
 10
62.4
 20
19.5
 30
0.0
 11
62.4
 21
12.5
 31
0.0
  0
LINE
  5
464
100
AcDbEntity
  8
0
  6
DASHED
100
AcDbLine
 10
71.0
 20
19.5
 30
0.0
 11
62.4
 21
19.5
 31
0.0
  0
LINE
  5
465
100
AcDbEntity
  8
CENTER
  6
CENTER
 62
     1
100
AcDbLine
 10
48.5
 20
50.0
 30
0.0
 11
72.5
 21
50.0
 31
0.0
  0
LINE
  5
466
100
AcDbEntity
  8
0
100
AcDbLine
 10
52.0
 20
85.3
 30
0.0
 11
52.0
 21
102.0
 31
0.0
  0
LINE
  5
467
100
AcDbEntity
  8
CENTER
  6
CENTER
 62
     1
100
AcDbLine
 10
72.5
 20
87.5
 30
0.0
 11
48.5
 21
87.5
 31
0.0
  0
LINE
  5
468
100
AcDbEntity
  8
0
  6
DASHED
100
AcDbLine
 10
62.4
 20
91.75
 30
0.0
 11
52.0
 21
91.75
 31
0.0
  0
LINE
  5
469
100
AcDbEntity
  8
0
  6
DASHED
 62
     3
100
AcDbLine
 10
62.4
 20
92.5
 30
0.0
 11
52.0
 21
92.5
 31
0.0
  0
LINE
  5
46A
100
AcDbEntity
  8
0
  6
DASHED
 62
     3
100
AcDbLine
 10
62.4
 20
82.5
 30
0.0
 11
52.0
 21
82.5
 31
0.0
  0
LINE
  5
46B
100
AcDbEntity
  8
0
  6
DASHED
100
AcDbLine
 10
62.4
 20
83.25
 30
0.0
 11
52.0
 21
83.25
 31
0.0
  0
LINE
  5
46C
100
AcDbEntity
  8
0
100
AcDbLine
 10
51.7
 20
85.0
 30
0.0
 11
50.0
 21
85.0
 31
0.0
  0
ARC
  5
46D
100
AcDbEntity
  8
0
100
AcDbCircle
 10
51.7
 20
85.3
 30
0.0
 40
0.3
100
AcDbArc
 50
270.0
 51
0.0
  0
LINE
  5
46E
100
AcDbEntity
  8
0
  6
DASHED
100
AcDbLine
 10
62.4
 20
94.5
 30
0.0
 11
62.4
 21
87.5
 31
0.0
  0
LINE
  5
46F
100
AcDbEntity
  8
0
  6
DASHED
100
AcDbLine
 10
71.0
 20
80.5
 30
0.0
 11
62.4
 21
80.5
 31
0.0
  0
LINE
  5
470
100
AcDbEntity
  8
0
  6
DASHED
100
AcDbLine
 10
62.4
 20
80.5
 30
0.0
 11
62.4
 21
87.5
 31
0.0
  0
LINE
  5
471
100
AcDbEntity
  8
0
  6
DASHED
100
AcDbLine
 10
71.0
 20
94.5
 30
0.0
 11
62.4
 21
94.5
 31
0.0
  0
LINE
  5
472
100
AcDbEntity
  8
0
100
AcDbLine
 10
52.0
 20
102.0
 30
0.0
 11
71.0
 21
102.0
 31
0.0
  0
LINE
  5
473
100
AcDbEntity
  8
CENTER
  6
CENTER
 62
     1
100
AcDbLine
 10
130.0
 20
103.5
 30
0.0
 11
130.0
 21
-3.5
 31
0.0
  0
CIRCLE
  5
474
100
AcDbEntity
  8
0
  6
DASHED
 62
     3
100
AcDbCircle
 10
130.0
 20
50.0
 30
0.0
 40
35.0
  0
CIRCLE
  5
475
100
AcDbEntity
  8
0
  6
DASHED
 62
     3
100
AcDbCircle
 10
130.0
 20
50.0
 30
0.0
 40
27.5
  0
CIRCLE
  5
476
100
AcDbEntity
  8
0
100
AcDbCircle
 10
130.0
 20
50.0
 30
0.0
 40
17.5
  0
LINE
  5
477
100
AcDbEntity
  8
0
100
AcDbLine
 10
93.0
 20
86.537652
 30
0.0
 11
93.0
 21
13.462348
 31
0.0
  0
LINE
  5
478
100
AcDbEntity
  8
0
100
AcDbLine
 10
167.0
 20
86.537652
 30
0.0
 11
167.0
 21
13.462348
 31
0.0
  0
CIRCLE
  5
479
100
AcDbEntity
  8
0
100
AcDbCircle
 10
130.0
 20
50.0
 30
0.0
 40
31.0
  0
LINE
  5
47A
100
AcDbEntity
  8
CENTER
  6
CENTER
 62
     1
100
AcDbLine
 10
159.75
 20
12.5
 30
0.0
 11
144.25
 21
12.5
 31
0.0
  0
LINE
  5
47B
100
AcDbEntity
  8
CENTER
  6
CENTER
 62
     1
100
AcDbLine
 10
168.5
 20
50.0
 30
0.0
 11
91.5
 21
50.0
 31
0.0
  0
ARC
  5
47C
100
AcDbEntity
  8
0
100
AcDbCircle
 10
130.0
 20
50.0
 30
0.0
 40
52.0
100
AcDbArc
 50
224.639773
 51
315.360227
  0
LINE
  5
47D
100
AcDbEntity
  8
CENTER
  6
CENTER
 62
     1
100
AcDbLine
 10
108.0
 20
4.75
 30
0.0
 11
108.0
 21
20.25
 31
0.0
  0
CIRCLE
  5
47E
100
AcDbEntity
  8
0
100
AcDbCircle
 10
108.0
 20
12.5
 30
0.0
 40
7.0
  0
LINE
  5
47F
100
AcDbEntity
  8
CENTER
  6
CENTER
 62
     1
100
AcDbLine
 10
100.25
 20
12.5
 30
0.0
 11
115.75
 21
12.5
 31
0.0
  0
CIRCLE
  5
480
100
AcDbEntity
  8
0
100
AcDbCircle
 10
108.0
 20
12.5
 30
0.0
 40
4.25
  0
LINE
  5
481
100
AcDbEntity
  8
CENTER
  6
CENTER
 62
     1
100
AcDbLine
 10
152.0
 20
4.75
 30
0.0
 11
152.0
 21
20.25
 31
0.0
  0
CIRCLE
  5
482
100
AcDbEntity
  8
0
100
AcDbCircle
 10
152.0
 20
12.5
 30
0.0
 40
7.0
  0
CIRCLE
  5
483
100
AcDbEntity
  8
0
100
AcDbCircle
 10
152.0
 20
12.5
 30
0.0
 40
4.25
  0
LINE
  5
484
100
AcDbEntity
  8
CENTER
  6
CENTER
 62
     1
100
AcDbLine
 10
159.75
 20
87.5
 30
0.0
 11
144.25
 21
87.5
 31
0.0
  0
ARC
  5
485
100
AcDbEntity
  8
0
100
AcDbCircle
 10
130.0
 20
50.0
 30
0.0
 40
52.0
100
AcDbArc
 50
44.639773
 51
135.360227
  0
LINE
  5
486
100
AcDbEntity
  8
CENTER
  6
CENTER
 62
     1
100
AcDbLine
 10
100.25
 20
87.5
 30
0.0
 11
115.75
 21
87.5
 31
0.0
  0
CIRCLE
  5
487
100
AcDbEntity
  8
0
100
AcDbCircle
 10
108.0
 20
87.5
 30
0.0
 40
4.25
  0
CIRCLE
  5
488
100
AcDbEntity
  8
0
100
AcDbCircle
 10
108.0
 20
87.5
 30
0.0
 40
7.0
  0
LINE
  5
489
100
AcDbEntity
  8
CENTER
  6
CENTER
 62
     1
100
AcDbLine
 10
108.0
 20
95.25
 30
0.0
 11
108.0
 21
79.75
 31
0.0
  0
LINE
  5
48A
100
AcDbEntity
  8
CENTER
  6
CENTER
 62
     1
100
AcDbLine
 10
152.0
 20
95.25
 30
0.0
 11
152.0
 21
79.75
 31
0.0
  0
CIRCLE
  5
48B
100
AcDbEntity
  8
0
100
AcDbCircle
 10
152.0
 20
87.5
 30
0.0
 40
7.0
  0
CIRCLE
  5
48C
100
AcDbEntity
  8
0
100
AcDbCircle
 10
152.0
 20
87.5
 30
0.0
 40
4.25
  0
LINE
  5
48D
100
AcDbEntity
  8
0
100
AcDbLine
 10
52.0
 20
85.3
 30
0.0
 11
52.0
 21
14.7
 31
0.0
  0
LINE
  5
48E
100
AcDbEntity
  8
0
100
AcDbLine
 10
65.47
 20
75.90399
 30
0.0
 11
65.47
 21
72.09999
 31
0.0
  0
LINE
  5
48F
100
AcDbEntity
  8
0
100
AcDbLine
 10
65.17
 20
75.78003
 30
0.0
 11
65.17
 21
72.09999
 31
0.0
  0
LINE
  5
490
100
AcDbEntity
  8
0
100
AcDbLine
 10
52.83
 20
75.78003
 30
0.0
 11
52.83
 21
72.09999
 31
0.0
  0
LINE
  5
491
100
AcDbEntity
  8
0
100
AcDbLine
 10
52.53
 20
75.90399
 30
0.0
 11
52.53
 21
72.09999
 31
0.0
  0
CIRCLE
  5
492
100
AcDbEntity
  8
0
100
AcDbCircle
 10
59.0
 20
74.75
 30
0.0
 40
3.96875
  0
LINE
  5
493
100
AcDbEntity
  8
0
100
AcDbLine
 10
53.6
 20
67.5
 30
0.0
 11
64.4
 21
67.5
 31
0.0
  0
ARC
  5
494
100
AcDbEntity
  8
0
100
AcDbCircle
 10
53.6
 20
69.1
 30
0.0
 40
1.6
100
AcDbArc
 50
180.0
 51
270.0
  0
LINE
  5
495
100
AcDbEntity
  8
0
100
AcDbLine
 10
54.341043
 20
72.29999
 30
0.0
 11
55.877753
 21
72.29999
 31
0.0
  0
LINE
  5
496
100
AcDbEntity
  8
0
100
AcDbLine
 10
52.69998
 20
71.49998
 30
0.0
 11
53.07401
 21
71.12595
 31
0.0
  0
ARC
  5
497
100
AcDbEntity
  8
0
100
AcDbCircle
 10
52.83
 20
72.09999
 30
0.0
 40
0.3
100
AcDbArc
 50
180.0
 51
270.0
  0
ARC
  5
498
100
AcDbEntity
  8
0
100
AcDbCircle
 10
52.2
 20
71.29998
 30
0.0
 40
0.2
100
AcDbArc
 50
90.0
 51
180.0
  0
LINE
  5
499
100
AcDbEntity
  8
0
100
AcDbLine
 10
52.2
 20
71.49998
 30
0.0
 11
52.69998
 21
71.49998
 31
0.0
  0
ARC
  5
49A
100
AcDbEntity
  8
0
100
AcDbCircle
 10
53.498
 20
71.54999
 30
0.0
 40
0.599648
100
AcDbArc
 50
225.0
 51
272.804841
  0
ARC
  5
49B
100
AcDbEntity
  8
0
100
AcDbCircle
 10
53.5
 20
71.24998
 30
0.0
 40
0.300167
100
AcDbArc
 50
265.537395
 51
340.029872
  0
LINE
  5
49C
100
AcDbEntity
  8
0
100
AcDbLine
 10
53.45
 20
71.79999
 30
0.0
 11
53.45
 21
72.09999
 31
0.0
  0
LINE
  5
49D
100
AcDbEntity
  8
0
100
AcDbLine
 10
53.45
 20
72.09999
 30
0.0
 11
52.83
 21
72.09999
 31
0.0
  0
LINE
  5
49E
100
AcDbEntity
  8
0
100
AcDbLine
 10
52.83
 20
71.79999
 30
0.0
 11
53.45
 21
71.79999
 31
0.0
  0
LINE
  5
49F
100
AcDbEntity
  8
0
100
AcDbLine
 10
53.78199
 20
71.14711
 30
0.0
 11
54.153069
 21
72.168296
 31
0.0
  0
ARC
  5
4A0
100
AcDbEntity
  8
0
100
AcDbCircle
 10
54.341043
 20
72.09999
 30
0.0
 40
0.2
100
AcDbArc
 50
90.0
 51
160.029872
  0
ARC
  5
4A1
100
AcDbEntity
  8
0
100
AcDbCircle
 10
64.4
 20
69.1
 30
0.0
 40
1.6
100
AcDbArc
 50
270.0
 51
0.0
  0
LINE
  5
4A2
100
AcDbEntity
  8
0
100
AcDbLine
 10
63.658957
 20
72.29999
 30
0.0
 11
62.122247
 21
72.29999
 31
0.0
  0
LINE
  5
4A3
100
AcDbEntity
  8
0
100
AcDbLine
 10
65.30002
 20
71.49998
 30
0.0
 11
64.92599
 21
71.12595
 31
0.0
  0
LINE
  5
4A4
100
AcDbEntity
  8
0
100
AcDbLine
 10
65.17
 20
71.79999
 30
0.0
 11
64.55
 21
71.79999
 31
0.0
  0
LINE
  5
4A5
100
AcDbEntity
  8
0
100
AcDbLine
 10
64.55
 20
72.09999
 30
0.0
 11
65.17
 21
72.09999
 31
0.0
  0
ARC
  5
4A6
100
AcDbEntity
  8
0
100
AcDbCircle
 10
64.502
 20
71.54999
 30
0.0
 40
0.599648
100
AcDbArc
 50
267.195159
 51
315.0
  0
ARC
  5
4A7
100
AcDbEntity
  8
0
100
AcDbCircle
 10
64.5
 20
71.24998
 30
0.0
 40
0.300167
100
AcDbArc
 50
199.970128
 51
274.462605
  0
LINE
  5
4A8
100
AcDbEntity
  8
0
100
AcDbLine
 10
64.55
 20
71.79999
 30
0.0
 11
64.55
 21
72.09999
 31
0.0
  0
ARC
  5
4A9
100
AcDbEntity
  8
0
100
AcDbCircle
 10
63.658957
 20
72.09999
 30
0.0
 40
0.2
100
AcDbArc
 50
19.970128
 51
90.0
  0
LINE
  5
4AA
100
AcDbEntity
  8
0
100
AcDbLine
 10
64.21801
 20
71.14711
 30
0.0
 11
63.846931
 21
72.168296
 31
0.0
  0
LINE
  5
4AB
100
AcDbEntity
  8
0
100
AcDbLine
 10
65.8
 20
71.49998
 30
0.0
 11
65.30002
 21
71.49998
 31
0.0
  0
ARC
  5
4AC
100
AcDbEntity
  8
0
100
AcDbCircle
 10
65.17
 20
72.09999
 30
0.0
 40
0.3
100
AcDbArc
 50
270.0
 51
0.0
  0
ARC
  5
4AD
100
AcDbEntity
  8
0
100
AcDbCircle
 10
65.8
 20
71.29998
 30
0.0
 40
0.2
100
AcDbArc
 50
0.0
 51
90.0
  0
LINE
  5
4AE
100
AcDbEntity
  8
0
100
AcDbLine
 10
53.6
 20
81.0
 30
0.0
 11
66.0
 21
81.0
 31
0.0
  0
LINE
  5
4AF
100
AcDbEntity
  8
0
100
AcDbLine
 10
52.0
 20
77.5
 30
0.0
 11
50.0
 21
77.5
 31
0.0
  0
ARC
  5
4B0
100
AcDbEntity
  8
0
100
AcDbCircle
 10
53.6
 20
79.4
 30
0.0
 40
1.6
100
AcDbArc
 50
90.0
 51
180.0
  0
LINE
  5
4B1
100
AcDbEntity
  8
0
100
AcDbLine
 10
54.15926
 20
77.2
 30
0.0
 11
55.877745
 21
77.2
 31
0.0
  0
LINE
  5
4B2
100
AcDbEntity
  8
0
100
AcDbLine
 10
52.2
 20
78.29999
 30
0.0
 11
52.780027
 21
78.29999
 31
0.0
  0
ARC
  5
4B3
100
AcDbEntity
  8
0
100
AcDbCircle
 10
53.009257
 20
78.10646
 30
0.0
 40
0.3
100
AcDbArc
 50
139.909786
 51
229.996276
  0
ARC
  5
4B4
100
AcDbEntity
  8
0
100
AcDbCircle
 10
52.2
 20
78.49999
 30
0.0
 40
0.2
100
AcDbArc
 50
180.0
 51
270.0
  0
LINE
  5
4B5
100
AcDbEntity
  8
0
100
AcDbLine
 10
53.93
 20
77.72699
 30
0.0
 11
53.93
 21
76.88004
 31
0.0
  0
LINE
  5
4B6
100
AcDbEntity
  8
0
100
AcDbLine
 10
53.578552
 20
78.243428
 30
0.0
 11
53.629968
 21
77.003948
 31
0.0
  0
ARC
  5
4B7
100
AcDbEntity
  8
0
100
AcDbCircle
 10
53.383282
 20
78.240221
 30
0.0
 40
0.5
100
AcDbArc
 50
4.98705
 51
139.909786
  0
ARC
  5
4B8
100
AcDbEntity
  8
0
100
AcDbCircle
 10
53.378724
 20
78.235139
 30
0.0
 40
0.2
100
AcDbArc
 50
2.37537
 51
139.992225
  0
LINE
  5
4B9
100
AcDbEntity
  8
0
100
AcDbLine
 10
52.779748
 20
78.299658
 30
0.0
 11
53.000766
 21
78.562217
 31
0.0
  0
LINE
  5
4BA
100
AcDbEntity
  8
0
100
AcDbLine
 10
53.046001
 20
77.683981
 30
0.0
 11
53.238974
 21
77.913953
 31
0.0
  0
LINE
  5
4BB
100
AcDbEntity
  8
0
100
AcDbLine
 10
53.238974
 20
77.913953
 30
0.0
 11
53.010002
 21
78.106928
 31
0.0
  0
LINE
  5
4BC
100
AcDbEntity
  8
0
100
AcDbLine
 10
53.046001
 20
77.683981
 30
0.0
 11
52.816406
 21
77.87666
 31
0.0
  0
LINE
  5
4BD
100
AcDbEntity
  8
0
100
AcDbLine
 10
53.010002
 20
78.106928
 30
0.0
 11
53.225533
 21
78.363717
 31
0.0
  0
LINE
  5
4BE
100
AcDbEntity
  8
0
100
AcDbLine
 10
53.881389
 20
78.283686
 30
0.0
 11
53.960017
 21
77.382614
 31
0.0
  0
ARC
  5
4BF
100
AcDbEntity
  8
0
100
AcDbCircle
 10
54.15926
 20
77.4
 30
0.0
 40
0.2
100
AcDbArc
 50
184.98705
 51
270.0
  0
LINE
  5
4C0
100
AcDbEntity
  8
0
100
AcDbLine
 10
53.629968
 20
77.003948
 30
0.0
 11
52.53
 21
75.90399
 31
0.0
  0
LINE
  5
4C1
100
AcDbEntity
  8
0
100
AcDbLine
 10
53.93
 20
76.88004
 30
0.0
 11
52.83
 21
75.78003
 31
0.0
  0
LINE
  5
4C2
100
AcDbEntity
  8
0
100
AcDbLine
 10
68.2
 20
85.0
 30
0.0
 11
66.0
 21
85.0
 31
0.0
  0
LINE
  5
4C3
100
AcDbEntity
  8
0
100
AcDbLine
 10
68.2
 20
79.5
 30
0.0
 11
66.0
 21
79.5
 31
0.0
  0
ARC
  5
4C4
100
AcDbEntity
  8
0
100
AcDbCircle
 10
64.4
 20
79.4
 30
0.0
 40
1.6
100
AcDbArc
 50
0.0
 51
90.0
  0
LINE
  5
4C5
100
AcDbEntity
  8
0
100
AcDbLine
 10
63.84074
 20
77.2
 30
0.0
 11
62.122255
 21
77.2
 31
0.0
  0
LINE
  5
4C6
100
AcDbEntity
  8
0
100
AcDbLine
 10
65.220252
 20
78.299658
 30
0.0
 11
64.999234
 21
78.562217
 31
0.0
  0
LINE
  5
4C7
100
AcDbEntity
  8
0
100
AcDbLine
 10
64.953999
 20
77.683981
 30
0.0
 11
65.183594
 21
77.87666
 31
0.0
  0
LINE
  5
4C8
100
AcDbEntity
  8
0
100
AcDbLine
 10
64.421448
 20
78.243428
 30
0.0
 11
64.370032
 21
77.003948
 31
0.0
  0
ARC
  5
4C9
100
AcDbEntity
  8
0
100
AcDbCircle
 10
64.621276
 20
78.235139
 30
0.0
 40
0.2
100
AcDbArc
 50
40.007775
 51
177.62463
  0
LINE
  5
4CA
100
AcDbEntity
  8
0
100
AcDbLine
 10
64.761026
 20
77.913953
 30
0.0
 11
64.989998
 21
78.106928
 31
0.0
  0
LINE
  5
4CB
100
AcDbEntity
  8
0
100
AcDbLine
 10
64.953999
 20
77.683981
 30
0.0
 11
64.761026
 21
77.913953
 31
0.0
  0
LINE
  5
4CC
100
AcDbEntity
  8
0
100
AcDbLine
 10
64.989998
 20
78.106928
 30
0.0
 11
64.774467
 21
78.363717
 31
0.0
  0
LINE
  5
4CD
100
AcDbEntity
  8
0
100
AcDbLine
 10
64.07
 20
77.72699
 30
0.0
 11
64.07
 21
76.88004
 31
0.0
  0
ARC
  5
4CE
100
AcDbEntity
  8
0
100
AcDbCircle
 10
63.84074
 20
77.4
 30
0.0
 40
0.2
100
AcDbArc
 50
270.0
 51
355.01295
  0
ARC
  5
4CF
100
AcDbEntity
  8
0
100
AcDbCircle
 10
64.616718
 20
78.240221
 30
0.0
 40
0.5
100
AcDbArc
 50
40.090214
 51
175.01295
  0
LINE
  5
4D0
100
AcDbEntity
  8
0
100
AcDbLine
 10
64.118611
 20
78.283686
 30
0.0
 11
64.039983
 21
77.382614
 31
0.0
  0
LINE
  5
4D1
100
AcDbEntity
  8
0
100
AcDbLine
 10
65.8
 20
78.29999
 30
0.0
 11
65.219973
 21
78.29999
 31
0.0
  0
ARC
  5
4D2
100
AcDbEntity
  8
0
100
AcDbCircle
 10
64.990743
 20
78.10646
 30
0.0
 40
0.3
100
AcDbArc
 50
310.003724
 51
40.090214
  0
ARC
  5
4D3
100
AcDbEntity
  8
0
100
AcDbCircle
 10
65.8
 20
78.49999
 30
0.0
 40
0.2
100
AcDbArc
 50
270.0
 51
0.0
  0
LINE
  5
4D4
100
AcDbEntity
  8
0
100
AcDbLine
 10
64.370032
 20
77.003948
 30
0.0
 11
65.47
 21
75.90399
 31
0.0
  0
LINE
  5
4D5
100
AcDbEntity
  8
0
100
AcDbLine
 10
64.07
 20
76.88004
 30
0.0
 11
65.17
 21
75.78003
 31
0.0
  0
LINE
  5
4D6
100
AcDbEntity
  8
0
100
AcDbLine
 10
71.0
 20
81.0
 30
0.0
 11
68.2
 21
81.0
 31
0.0
  0
LINE
  5
4D7
100
AcDbEntity
  8
0
100
AcDbLine
 10
52.0
 20
20.6
 30
0.0
 11
52.0
 21
79.4
 31
0.0
  0
LINE
  5
4D8
100
AcDbEntity
  8
0
100
AcDbLine
 10
66.0
 20
15.0
 30
0.0
 11
66.0
 21
85.0
 31
0.0
  0
LINE
  5
4D9
100
AcDbEntity
  8
0
100
AcDbLine
 10
68.2
 20
15.0
 30
0.0
 11
68.2
 21
85.0
 31
0.0
  0
LINE
  5
4DA
100
AcDbEntity
  8
0
100
AcDbLine
 10
65.30002
 20
28.50002
 30
0.0
 11
64.92599
 21
28.87405
 31
0.0
  0
LINE
  5
4DB
100
AcDbEntity
  8
0
100
AcDbLine
 10
64.21801
 20
28.85289
 30
0.0
 11
63.846931
 21
27.831704
 31
0.0
  0
ARC
  5
4DC
100
AcDbEntity
  8
0
100
AcDbCircle
 10
65.8
 20
28.70002
 30
0.0
 40
0.2
100
AcDbArc
 50
270.0
 51
0.0
  0
LINE
  5
4DD
100
AcDbEntity
  8
0
100
AcDbLine
 10
52.69998
 20
28.50002
 30
0.0
 11
53.07401
 21
28.87405
 31
0.0
  0
ARC
  5
4DE
100
AcDbEntity
  8
0
100
AcDbCircle
 10
52.2
 20
28.70002
 30
0.0
 40
0.2
100
AcDbArc
 50
180.0
 51
270.0
  0
LINE
  5
4DF
100
AcDbEntity
  8
0
100
AcDbLine
 10
53.78199
 20
28.85289
 30
0.0
 11
54.153069
 21
27.831704
 31
0.0
  0
CIRCLE
  5
4E0
100
AcDbEntity
  8
0
100
AcDbCircle
 10
59.0
 20
25.25
 30
0.0
 40
3.96875
  0
LINE
  5
4E1
100
AcDbEntity
  8
0
100
AcDbLine
 10
53.6
 20
19.0
 30
0.0
 11
66.0
 21
19.0
 31
0.0
  0
LINE
  5
4E2
100
AcDbEntity
  8
0
100
AcDbLine
 10
52.0
 20
22.5
 30
0.0
 11
50.0
 21
22.5
 31
0.0
  0
LINE
  5
4E3
100
AcDbEntity
  8
0
100
AcDbLine
 10
53.578552
 20
21.756572
 30
0.0
 11
53.629968
 21
22.996052
 31
0.0
  0
LINE
  5
4E4
100
AcDbEntity
  8
0
100
AcDbLine
 10
53.93
 20
22.27301
 30
0.0
 11
53.93
 21
23.11996
 31
0.0
  0
ARC
  5
4E5
100
AcDbEntity
  8
0
100
AcDbCircle
 10
54.15926
 20
22.6
 30
0.0
 40
0.2
100
AcDbArc
 50
90.0
 51
175.01295
  0
ARC
  5
4E6
100
AcDbEntity
  8
0
100
AcDbCircle
 10
53.6
 20
20.6
 30
0.0
 40
1.6
100
AcDbArc
 50
180.0
 51
270.0
  0
ARC
  5
4E7
100
AcDbEntity
  8
0
100
AcDbCircle
 10
53.009257
 20
21.89354
 30
0.0
 40
0.3
100
AcDbArc
 50
130.003724
 51
220.090214
  0
LINE
  5
4E8
100
AcDbEntity
  8
0
100
AcDbLine
 10
52.2
 20
21.70001
 30
0.0
 11
52.780027
 21
21.70001
 31
0.0
  0
ARC
  5
4E9
100
AcDbEntity
  8
0
100
AcDbCircle
 10
52.2
 20
21.50001
 30
0.0
 40
0.2
100
AcDbArc
 50
90.0
 51
180.0
  0
LINE
  5
4EA
100
AcDbEntity
  8
0
100
AcDbLine
 10
53.881389
 20
21.716314
 30
0.0
 11
53.960017
 21
22.617386
 31
0.0
  0
LINE
  5
4EB
100
AcDbEntity
  8
0
100
AcDbLine
 10
53.010002
 20
21.893072
 30
0.0
 11
53.225533
 21
21.636283
 31
0.0
  0
LINE
  5
4EC
100
AcDbEntity
  8
0
100
AcDbLine
 10
53.046001
 20
22.316019
 30
0.0
 11
52.816406
 21
22.12334
 31
0.0
  0
LINE
  5
4ED
100
AcDbEntity
  8
0
100
AcDbLine
 10
53.238974
 20
22.086047
 30
0.0
 11
53.010002
 21
21.893072
 31
0.0
  0
LINE
  5
4EE
100
AcDbEntity
  8
0
100
AcDbLine
 10
53.046001
 20
22.316019
 30
0.0
 11
53.238974
 21
22.086047
 31
0.0
  0
LINE
  5
4EF
100
AcDbEntity
  8
0
100
AcDbLine
 10
52.779748
 20
21.700342
 30
0.0
 11
53.000766
 21
21.437783
 31
0.0
  0
ARC
  5
4F0
100
AcDbEntity
  8
0
100
AcDbCircle
 10
53.378724
 20
21.764861
 30
0.0
 40
0.2
100
AcDbArc
 50
220.007775
 51
357.62463
  0
ARC
  5
4F1
100
AcDbEntity
  8
0
100
AcDbCircle
 10
53.383282
 20
21.759779
 30
0.0
 40
0.5
100
AcDbArc
 50
220.090214
 51
355.01295
  0
LINE
  5
4F2
100
AcDbEntity
  8
0
100
AcDbLine
 10
54.341043
 20
27.70001
 30
0.0
 11
55.877753
 21
27.70001
 31
0.0
  0
LINE
  5
4F3
100
AcDbEntity
  8
0
100
AcDbLine
 10
54.15926
 20
22.8
 30
0.0
 11
55.877745
 21
22.8
 31
0.0
  0
LINE
  5
4F4
100
AcDbEntity
  8
0
100
AcDbLine
 10
52.53
 20
24.09601
 30
0.0
 11
52.53
 21
27.90001
 31
0.0
  0
LINE
  5
4F5
100
AcDbEntity
  8
0
100
AcDbLine
 10
52.83
 20
24.21997
 30
0.0
 11
52.83
 21
27.90001
 31
0.0
  0
ARC
  5
4F6
100
AcDbEntity
  8
0
100
AcDbCircle
 10
52.83
 20
27.90001
 30
0.0
 40
0.3
100
AcDbArc
 50
90.0
 51
180.0
  0
LINE
  5
4F7
100
AcDbEntity
  8
0
100
AcDbLine
 10
52.2
 20
28.50002
 30
0.0
 11
52.69998
 21
28.50002
 31
0.0
  0
LINE
  5
4F8
100
AcDbEntity
  8
0
100
AcDbLine
 10
52.83
 20
28.20001
 30
0.0
 11
53.45
 21
28.20001
 31
0.0
  0
LINE
  5
4F9
100
AcDbEntity
  8
0
100
AcDbLine
 10
53.45
 20
27.90001
 30
0.0
 11
52.83
 21
27.90001
 31
0.0
  0
LINE
  5
4FA
100
AcDbEntity
  8
0
100
AcDbLine
 10
53.45
 20
28.20001
 30
0.0
 11
53.45
 21
27.90001
 31
0.0
  0
LINE
  5
4FB
100
AcDbEntity
  8
0
100
AcDbLine
 10
53.629968
 20
22.996052
 30
0.0
 11
52.53
 21
24.09601
 31
0.0
  0
LINE
  5
4FC
100
AcDbEntity
  8
0
100
AcDbLine
 10
53.93
 20
23.11996
 30
0.0
 11
52.83
 21
24.21997
 31
0.0
  0
ARC
  5
4FD
100
AcDbEntity
  8
0
100
AcDbCircle
 10
54.341043
 20
27.90001
 30
0.0
 40
0.2
100
AcDbArc
 50
199.970128
 51
270.0
  0
LINE
  5
4FE
100
AcDbEntity
  8
0
100
AcDbLine
 10
68.2
 20
15.0
 30
0.0
 11
66.0
 21
15.0
 31
0.0
  0
LINE
  5
4FF
100
AcDbEntity
  8
0
100
AcDbLine
 10
68.2
 20
20.5
 30
0.0
 11
66.0
 21
20.5
 31
0.0
  0
ARC
  5
500
100
AcDbEntity
  8
0
100
AcDbCircle
 10
63.84074
 20
22.6
 30
0.0
 40
0.2
100
AcDbArc
 50
4.98705
 51
90.0
  0
LINE
  5
501
100
AcDbEntity
  8
0
100
AcDbLine
 10
64.07
 20
22.27301
 30
0.0
 11
64.07
 21
23.11996
 31
0.0
  0
LINE
  5
502
100
AcDbEntity
  8
0
100
AcDbLine
 10
64.421448
 20
21.756572
 30
0.0
 11
64.370032
 21
22.996052
 31
0.0
  0
ARC
  5
503
100
AcDbEntity
  8
0
100
AcDbCircle
 10
64.4
 20
20.6
 30
0.0
 40
1.6
100
AcDbArc
 50
270.0
 51
0.0
  0
LINE
  5
504
100
AcDbEntity
  8
0
100
AcDbLine
 10
64.953999
 20
22.316019
 30
0.0
 11
65.183594
 21
22.12334
 31
0.0
  0
LINE
  5
505
100
AcDbEntity
  8
0
100
AcDbLine
 10
65.220252
 20
21.700342
 30
0.0
 11
64.999234
 21
21.437783
 31
0.0
  0
LINE
  5
506
100
AcDbEntity
  8
0
100
AcDbLine
 10
64.118611
 20
21.716314
 30
0.0
 11
64.039983
 21
22.617386
 31
0.0
  0
ARC
  5
507
100
AcDbEntity
  8
0
100
AcDbCircle
 10
64.616718
 20
21.759779
 30
0.0
 40
0.5
100
AcDbArc
 50
184.98705
 51
319.909786
  0
LINE
  5
508
100
AcDbEntity
  8
0
100
AcDbLine
 10
64.989998
 20
21.893072
 30
0.0
 11
64.774467
 21
21.636283
 31
0.0
  0
LINE
  5
509
100
AcDbEntity
  8
0
100
AcDbLine
 10
64.953999
 20
22.316019
 30
0.0
 11
64.761026
 21
22.086047
 31
0.0
  0
LINE
  5
50A
100
AcDbEntity
  8
0
100
AcDbLine
 10
64.761026
 20
22.086047
 30
0.0
 11
64.989998
 21
21.893072
 31
0.0
  0
ARC
  5
50B
100
AcDbEntity
  8
0
100
AcDbCircle
 10
64.621276
 20
21.764861
 30
0.0
 40
0.2
100
AcDbArc
 50
182.37537
 51
319.992225
  0
ARC
  5
50C
100
AcDbEntity
  8
0
100
AcDbCircle
 10
65.8
 20
21.50001
 30
0.0
 40
0.2
100
AcDbArc
 50
0.0
 51
90.0
  0
ARC
  5
50D
100
AcDbEntity
  8
0
100
AcDbCircle
 10
64.990743
 20
21.89354
 30
0.0
 40
0.3
100
AcDbArc
 50
319.909786
 51
49.996276
  0
LINE
  5
50E
100
AcDbEntity
  8
0
100
AcDbLine
 10
65.8
 20
21.70001
 30
0.0
 11
65.219973
 21
21.70001
 31
0.0
  0
LINE
  5
50F
100
AcDbEntity
  8
0
100
AcDbLine
 10
63.84074
 20
22.8
 30
0.0
 11
62.122255
 21
22.8
 31
0.0
  0
LINE
  5
510
100
AcDbEntity
  8
0
100
AcDbLine
 10
63.658957
 20
27.70001
 30
0.0
 11
62.122247
 21
27.70001
 31
0.0
  0
LINE
  5
511
100
AcDbEntity
  8
0
100
AcDbLine
 10
64.55
 20
27.90001
 30
0.0
 11
65.17
 21
27.90001
 31
0.0
  0
LINE
  5
512
100
AcDbEntity
  8
0
100
AcDbLine
 10
65.17
 20
28.20001
 30
0.0
 11
64.55
 21
28.20001
 31
0.0
  0
ARC
  5
513
100
AcDbEntity
  8
0
100
AcDbCircle
 10
63.658957
 20
27.90001
 30
0.0
 40
0.2
100
AcDbArc
 50
270.0
 51
340.029872
  0
LINE
  5
514
100
AcDbEntity
  8
0
100
AcDbLine
 10
64.55
 20
28.20001
 30
0.0
 11
64.55
 21
27.90001
 31
0.0
  0
LINE
  5
515
100
AcDbEntity
  8
0
100
AcDbLine
 10
65.17
 20
24.21997
 30
0.0
 11
65.17
 21
27.90001
 31
0.0
  0
LINE
  5
516
100
AcDbEntity
  8
0
100
AcDbLine
 10
65.47
 20
24.09601
 30
0.0
 11
65.47
 21
27.90001
 31
0.0
  0
ARC
  5
517
100
AcDbEntity
  8
0
100
AcDbCircle
 10
65.17
 20
27.90001
 30
0.0
 40
0.3
100
AcDbArc
 50
0.0
 51
90.0
  0
LINE
  5
518
100
AcDbEntity
  8
0
100
AcDbLine
 10
65.8
 20
28.50002
 30
0.0
 11
65.30002
 21
28.50002
 31
0.0
  0
LINE
  5
519
100
AcDbEntity
  8
0
100
AcDbLine
 10
64.07
 20
23.11996
 30
0.0
 11
65.17
 21
24.21997
 31
0.0
  0
LINE
  5
51A
100
AcDbEntity
  8
0
100
AcDbLine
 10
64.370032
 20
22.996052
 30
0.0
 11
65.47
 21
24.09601
 31
0.0
  0
LINE
  5
51B
100
AcDbEntity
  8
0
100
AcDbLine
 10
53.6
 20
32.5
 30
0.0
 11
64.4
 21
32.5
 31
0.0
  0
ARC
  5
51C
100
AcDbEntity
  8
0
100
AcDbCircle
 10
53.6
 20
30.9
 30
0.0
 40
1.6
100
AcDbArc
 50
90.0
 51
180.0
  0
ARC
  5
51D
100
AcDbEntity
  8
0
100
AcDbCircle
 10
53.5
 20
28.75002
 30
0.0
 40
0.300167
100
AcDbArc
 50
19.970128
 51
94.462605
  0
ARC
  5
51E
100
AcDbEntity
  8
0
100
AcDbCircle
 10
53.498
 20
28.45001
 30
0.0
 40
0.599648
100
AcDbArc
 50
87.195159
 51
135.0
  0
ARC
  5
51F
100
AcDbEntity
  8
0
100
AcDbCircle
 10
64.4
 20
30.9
 30
0.0
 40
1.6
100
AcDbArc
 50
0.0
 51
90.0
  0
ARC
  5
520
100
AcDbEntity
  8
0
100
AcDbCircle
 10
64.5
 20
28.75002
 30
0.0
 40
0.300167
100
AcDbArc
 50
85.537395
 51
160.029872
  0
ARC
  5
521
100
AcDbEntity
  8
0
100
AcDbCircle
 10
64.502
 20
28.45001
 30
0.0
 40
0.599648
100
AcDbArc
 50
45.0
 51
92.804841
  0
CIRCLE
  5
522
100
AcDbEntity
  8
0
 62
     3
100
AcDbCircle
 10
108.0
 20
87.5
 30
0.0
 40
5.0
  0
CIRCLE
  5
523
100
AcDbEntity
  8
0
 62
     3
100
AcDbCircle
 10
152.0
 20
87.5
 30
0.0
 40
5.0
  0
CIRCLE
  5
524
100
AcDbEntity
  8
0
 62
     3
100
AcDbCircle
 10
108.0
 20
12.5
 30
0.0
 40
5.0
  0
CIRCLE
  5
525
100
AcDbEntity
  8
0
 62
     3
100
AcDbCircle
 10
152.0
 20
12.5
 30
0.0
 40
5.0
  0
ENDSEC
  0
SECTION
  2
OBJECTS
  0
DICTIONARY
  5
430
100
AcDbDictionary
  3
ACAD_GROUP
350
431
  3
ACAD_LAYOUT
350
43D
  3
ACAD_MLINESTYLE
350
43A
  3
ACAD_PLOTSETTINGS
350
43C
  3
ACAD_PLOTSTYLENAME
350
432
  3
ACDBHEADERROUNDTRIPXREC
350
532
  3
AcDbVariableDictionary
350
55A
  0
DICTIONARY
  5
530
100
AcDbDictionary
280
     1
  3
ACAD_XREC_ROUNDTRIP
360
531
  0
DICTIONARY
  5
52C
100
AcDbDictionary
280
     1
  3
ACAD_XREC_ROUNDTRIP
360
52D
  0
DICTIONARY
  5
52E
100
AcDbDictionary
280
     1
  3
ACAD_XREC_ROUNDTRIP
360
52F
  0
DICTIONARY
  5
558
100
AcDbDictionary
280
     1
  3
ACAD_XREC_ROUNDTRIP
360
559
  0
DICTIONARY
  5
528
100
AcDbDictionary
280
     1
  3
ACAD_LAYOUTSELFREF
360
557
  3
ACAD_XREC_ROUNDTRIP
360
529
  0
DICTIONARY
  5
52A
100
AcDbDictionary
280
     1
  3
ACAD_LAYOUTSELFREF
360
556
  3
ACAD_XREC_ROUNDTRIP
360
52B
  0
DICTIONARY
  5
431
102
{ACAD_REACTORS
330
430
102
}
100
AcDbDictionary
  0
DICTIONARY
  5
43D
102
{ACAD_XDICTIONARY
360
554
102
}
102
{ACAD_REACTORS
330
430
102
}
100
AcDbDictionary
  3
MODEL
350
445
  3
ﾚｲｱｳﾄ1
350
441
  0
DICTIONARY
  5
43A
102
{ACAD_XDICTIONARY
360
552
102
}
102
{ACAD_REACTORS
330
430
102
}
100
AcDbDictionary
  3
STANDARD
350
43B
  0
DICTIONARY
  5
43C
102
{ACAD_REACTORS
330
430
102
}
100
AcDbDictionary
  0
ACAD_PROXY_OBJECT
  5
432
102
{ACAD_REACTORS
330
430
102
}
100
AcDbProxyObject
 90
      499
 91
      500
 93
       86
310
405010041939BDC9B585B0
350
433
340
433
 94
        0
  0
DICTIONARY
  5
532
102
{ACAD_REACTORS
330
430
102
}
100
AcDbDictionary
  3
CEPSNTYPE
350
53C
  3
FINGERPRINTGUID
350
53D
  3
HYPERLINKBASE
350
535
  3
INSUNITS
350
53B
  3
LAYOUTDICT
350
537
  3
LWETCUNION
350
53A
  3
PLOTSETDICT
350
538
  3
PLOTSTYLNAMDICT
350
539
  3
PSVPSCALE
350
53F
  3
PUCSBASE
350
542
  3
PUCSORGBACK
350
548
  3
PUCSORGBOTTOM
350
544
  3
PUCSORGFRONT
350
547
  3
PUCSORGLEFT
350
545
  3
PUCSORGRIGHT
350
546
  3
PUCSORGTOP
350
543
  3
PUCSORTHOREF
350
540
  3
PUCSORTHOVIEW
350
541
  3
STYLESHEET
350
536
  3
TSTACKALIGN
350
533
  3
TSTACKSIZE
350
534
  3
UCSBASE
350
54B
  3
UCSORGBACK
350
551
  3
UCSORGBOTTOM
350
54D
  3
UCSORGFRONT
350
550
  3
UCSORGLEFT
350
54E
  3
UCSORGRIGHT
350
54F
  3
UCSORGTOP
350
54C
  3
UCSORTHOREF
350
549
  3
UCSORTHOVIEW
350
54A
  3
VERSIONGUID
350
53E
  0
DICTIONARY
  5
55A
102
{ACAD_REACTORS
330
430
102
}
100
AcDbDictionary
  3
DIMASSOC
350
55B
  0
XRECORD
  5
531
102
{ACAD_REACTORS
330
530
102
}
100
AcDbXrecord
102
EXTNAMES
  1
*ACTIVE
  2
*Active
102
UCS
 74
     0
 71
     0
 10
0.0
 20
0.0
 30
0.0
 10
1.0
 20
0.0
 30
0.0
 10
0.0
 20
1.0
 30
0.0
146
0.0
 79
     0
102
VIEW
281
     0
  0
XRECORD
  5
52D
102
{ACAD_REACTORS
330
52C
102
}
100
AcDbXrecord
102
EXTNAMES
  1
BYBLOCK
  2
ByBlock
  0
XRECORD
  5
52F
102
{ACAD_REACTORS
330
52E
102
}
100
AcDbXrecord
102
EXTNAMES
  1
BYLAYER
  2
ByLayer
  0
XRECORD
  5
559
102
{ACAD_REACTORS
330
558
102
}
100
AcDbXrecord
102
ACADR14ROUNDTRIP
1000
DSTYLE
1002
{
1070
   279
 70
     2
1002
}
  0
XRECORD
  5
557
102
{ACAD_REACTORS
330
528
102
}
100
AcDbXrecord
340
442
  0
XRECORD
  5
529
102
{ACAD_REACTORS
330
528
102
}
100
AcDbXrecord
102
EXTNAMES
  1
*MODEL_SPACE
  2
*Model_Space
  0
XRECORD
  5
556
102
{ACAD_REACTORS
330
52A
102
}
100
AcDbXrecord
340
43E
  0
XRECORD
  5
52B
102
{ACAD_REACTORS
330
52A
102
}
100
AcDbXrecord
102
EXTNAMES
  1
*PAPER_SPACE
  2
*Paper_Space
  0
DICTIONARY
  5
554
100
AcDbDictionary
280
     1
  3
ACAD_XREC_ROUNDTRIP
360
555
  0
ACAD_PROXY_OBJECT
  5
445
102
{ACAD_REACTORS
330
43D
102
}
100
AcDbProxyObject
 90
      499
 91
      502
 93
      836
310
932433A5C50524F4752414D2046494C45535C4D4454365C706C6F74746572735C526F6C616E64204458592D313235302E7063332C01AAAAAAAAA5A69054D6F64656C901A800000000000000000000000000000000000000000000A1000000000000008902A6A6AAAA0
330
442
330
0
340
0
340
0
 94
        0
  0
ACAD_PROXY_OBJECT
  5
441
102
{ACAD_REACTORS
330
43D
102
}
100
AcDbProxyObject
 90
      499
 91
      502
 93
     1252
310
932433A5C50524F4752414D2046494C45535C4D4454365C706C6F74746572735C526F6C616E64204458592D313235302E7063332C00AAAAAA416AA59106906DAB2B1B3C43140501A800000000000000000000000000000000000000000101E900000000000241C902A6A6A10232D5E076BC5510408CB5781DAF154410232D5
310
E076BC5510408CB5781DAF15C410232D5E076BC5710408CB5781DAF15C40
330
43E
330
0
340
0
340
0
 94
        0
  0
DICTIONARY
  5
552
100
AcDbDictionary
280
     1
  3
ACAD_XREC_ROUNDTRIP
360
553
  0
MLINESTYLE
  5
43B
102
{ACAD_REACTORS
330
43A
102
}
100
AcDbMlineStyle
  2
STANDARD
 70
     0
  3

 62
   256
 51
90.0
 52
90.0
 71
     2
 49
0.5
 62
   256
  6
BYLAYER
 49
-0.5
 62
   256
  6
BYLAYER
  0
ACAD_PROXY_OBJECT
  5
433
102
{ACAD_REACTORS
330
432
102
}
100
AcDbProxyObject
 90
      499
 91
      501
 93
        0
 94
        0
  0
XRECORD
  5
53C
102
{ACAD_REACTORS
330
532
102
}
100
AcDbXrecord
 90
        0
  0
XRECORD
  5
53D
102
{ACAD_REACTORS
330
532
102
}
100
AcDbXrecord
  1
{437F2E44-FE48-4E5B-B2B5-CEF3F49ACAC2}
  0
XRECORD
  5
535
102
{ACAD_REACTORS
330
532
102
}
100
AcDbXrecord
  1

  0
XRECORD
  5
53B
102
{ACAD_REACTORS
330
532
102
}
100
AcDbXrecord
 90
        0
  0
XRECORD
  5
537
102
{ACAD_REACTORS
330
532
102
}
100
AcDbXrecord
340
43D
  0
XRECORD
  5
53A
102
{ACAD_REACTORS
330
532
102
}
100
AcDbXrecord
 90
    10781
  0
XRECORD
  5
538
102
{ACAD_REACTORS
330
532
102
}
100
AcDbXrecord
340
43C
  0
XRECORD
  5
539
102
{ACAD_REACTORS
330
532
102
}
100
AcDbXrecord
340
432
  0
XRECORD
  5
53F
102
{ACAD_REACTORS
330
532
102
}
100
AcDbXrecord
 40
0.0
  0
XRECORD
  5
542
102
{ACAD_REACTORS
330
532
102
}
100
AcDbXrecord
340
0
  0
XRECORD
  5
548
102
{ACAD_REACTORS
330
532
102
}
100
AcDbXrecord
 10
0.0
 20
0.0
 30
0.0
  0
XRECORD
  5
544
102
{ACAD_REACTORS
330
532
102
}
100
AcDbXrecord
 10
0.0
 20
0.0
 30
0.0
  0
XRECORD
  5
547
102
{ACAD_REACTORS
330
532
102
}
100
AcDbXrecord
 10
0.0
 20
0.0
 30
0.0
  0
XRECORD
  5
545
102
{ACAD_REACTORS
330
532
102
}
100
AcDbXrecord
 10
0.0
 20
0.0
 30
0.0
  0
XRECORD
  5
546
102
{ACAD_REACTORS
330
532
102
}
100
AcDbXrecord
 10
0.0
 20
0.0
 30
0.0
  0
XRECORD
  5
543
102
{ACAD_REACTORS
330
532
102
}
100
AcDbXrecord
 10
0.0
 20
0.0
 30
0.0
  0
XRECORD
  5
540
102
{ACAD_REACTORS
330
532
102
}
100
AcDbXrecord
340
0
  0
XRECORD
  5
541
102
{ACAD_REACTORS
330
532
102
}
100
AcDbXrecord
 70
     0
  0
XRECORD
  5
536
102
{ACAD_REACTORS
330
532
102
}
100
AcDbXrecord
  1

  0
XRECORD
  5
533
102
{ACAD_REACTORS
330
532
102
}
100
AcDbXrecord
 90
        1
  0
XRECORD
  5
534
102
{ACAD_REACTORS
330
532
102
}
100
AcDbXrecord
 90
       70
  0
XRECORD
  5
54B
102
{ACAD_REACTORS
330
532
102
}
100
AcDbXrecord
340
0
  0
XRECORD
  5
551
102
{ACAD_REACTORS
330
532
102
}
100
AcDbXrecord
 10
0.0
 20
0.0
 30
0.0
  0
XRECORD
  5
54D
102
{ACAD_REACTORS
330
532
102
}
100
AcDbXrecord
 10
0.0
 20
0.0
 30
0.0
  0
XRECORD
  5
550
102
{ACAD_REACTORS
330
532
102
}
100
AcDbXrecord
 10
0.0
 20
0.0
 30
0.0
  0
XRECORD
  5
54E
102
{ACAD_REACTORS
330
532
102
}
100
AcDbXrecord
 10
0.0
 20
0.0
 30
0.0
  0
XRECORD
  5
54F
102
{ACAD_REACTORS
330
532
102
}
100
AcDbXrecord
 10
0.0
 20
0.0
 30
0.0
  0
XRECORD
  5
54C
102
{ACAD_REACTORS
330
532
102
}
100
AcDbXrecord
 10
0.0
 20
0.0
 30
0.0
  0
XRECORD
  5
549
102
{ACAD_REACTORS
330
532
102
}
100
AcDbXrecord
340
0
  0
XRECORD
  5
54A
102
{ACAD_REACTORS
330
532
102
}
100
AcDbXrecord
 70
     0
  0
XRECORD
  5
53E
102
{ACAD_REACTORS
330
532
102
}
100
AcDbXrecord
  1
{0C88F4E9-CF7F-4B37-B000-4D8A4AE1B840}
  0
DICTIONARYVAR
  5
55B
102
{ACAD_REACTORS
330
55A
102
}
100
DictionaryVariables
280
     0
  1
1
  0
XRECORD
  5
555
102
{ACAD_REACTORS
330
554
102
}
100
AcDbXrecord
102
EXTNAMES
  1
MODEL
  2
Model
  0
XRECORD
  5
553
102
{ACAD_REACTORS
330
552
102
}
100
AcDbXrecord
102
EXTNAMES
  1
STANDARD
  2
Standard
  0
ENDSEC
  0
EOF
