  0
SECTION
  2
HEADER
  9
$ACADVER
  1
AC1014
  9
$ACADMAINTVER
 70
     0
  9
$DWGCODEPAGE
  3
ANSI_932
  9
$INSBASE
 10
0.0
 20
0.0
 30
0.0
  9
$EXTMIN
 10
211.931632
 20
155.880645
 30
0.0
  9
$EXTMAX
 10
410.373551
 20
264.974367
 30
0.0
  9
$LIMMIN
 10
0.0
 20
0.0
  9
$LIMMAX
 10
594.0
 20
420.0
  9
$ORTHOMODE
 70
     1
  9
$REGENMODE
 70
     1
  9
$FILLMODE
 70
     1
  9
$QTEXTMODE
 70
     0
  9
$MIRRTEXT
 70
     1
  9
$DRAGMODE
 70
     2
  9
$LTSCALE
 40
0.25
  9
$OSMODE
 70
    37
  9
$ATTMODE
 70
     1
  9
$TEXTSIZE
 40
4.0
  9
$TRACEWID
 40
1.0
  9
$TEXTSTYLE
  7
STANDARD
  9
$CLAYER
  8
0
  9
$CELTYPE
  6
CENTER
  9
$CECOLOR
 62
     3
  9
$CELTSCALE
 40
1.0
  9
$DELOBJ
 70
     1
  9
$DISPSILH
 70
     0
  9
$DIMSCALE
 40
2.0
  9
$DIMASZ
 40
3.0
  9
$DIMEXO
 40
1.0
  9
$DIMDLI
 40
10.0
  9
$DIMRND
 40
0.0
  9
$DIMDLE
 40
0.0
  9
$DIMEXE
 40
1.0
  9
$DIMTP
 40
0.0
  9
$DIMTM
 40
0.0
  9
$DIMTXT
 40
3.2
  9
$DIMCEN
 40
0.0
  9
$DIMTSZ
 40
0.0
  9
$DIMTOL
 70
     0
  9
$DIMLIM
 70
     0
  9
$DIMTIH
 70
     0
  9
$DIMTOH
 70
     0
  9
$DIMSE1
 70
     0
  9
$DIMSE2
 70
     0
  9
$DIMTAD
 70
     3
  9
$DIMZIN
 70
     8
  9
$DIMBLK
  1
ARROW
  9
$DIMASO
 70
     1
  9
$DIMSHO
 70
     1
  9
$DIMPOST
  1

  9
$DIMAPOST
  1

  9
$DIMALT
 70
     0
  9
$DIMALTD
 70
     2
  9
$DIMALTF
 40
0.04
  9
$DIMLFAC
 40
1.0
  9
$DIMTOFL
 70
     1
  9
$DIMTVP
 40
1.0
  9
$DIMTIX
 70
     0
  9
$DIMSOXD
 70
     0
  9
$DIMSAH
 70
     1
  9
$DIMBLK1
  1
OPEN
  9
$DIMBLK2
  1
OPEN
  9
$DIMSTYLE
  2
AA1
  9
$DIMCLRD
 70
     0
  9
$DIMCLRE
 70
     0
  9
$DIMCLRT
 70
     0
  9
$DIMTFAC
 40
0.6
  9
$DIMGAP
 40
1.0
  9
$DIMJUST
 70
     0
  9
$DIMSD1
 70
     0
  9
$DIMSD2
 70
     0
  9
$DIMTOLJ
 70
     1
  9
$DIMTZIN
 70
     0
  9
$DIMALTZ
 70
     0
  9
$DIMALTTZ
 70
     0
  9
$DIMFIT
 70
     3
  9
$DIMUPT
 70
     0
  9
$DIMUNIT
 70
     2
  9
$DIMDEC
 70
     4
  9
$DIMTDEC
 70
     4
  9
$DIMALTU
 70
     2
  9
$DIMALTTD
 70
     2
  9
$DIMTXSTY
  7
STANDARD
  9
$DIMAUNIT
 70
     0
  9
$LUNITS
 70
     2
  9
$LUPREC
 70
     2
  9
$SKETCHINC
 40
1.0
  9
$FILLETRAD
 40
10.0
  9
$AUNITS
 70
     0
  9
$AUPREC
 70
     0
  9
$MENU
  1
acad
  9
$ELEVATION
 40
0.0
  9
$PELEVATION
 40
0.0
  9
$THICKNESS
 40
0.0
  9
$LIMCHECK
 70
     0
  9
$BLIPMODE
 70
     0
  9
$CHAMFERA
 40
0.0
  9
$CHAMFERB
 40
0.0
  9
$CHAMFERC
 40
0.0
  9
$CHAMFERD
 40
0.0
  9
$SKPOLY
 70
     0
  9
$TDCREATE
 40
2451466.478200694
  9
$TDUPDATE
 40
2452821.744844329
  9
$TDINDWG
 40
0.0002129630
  9
$TDUSRTIMER
 40
0.0002129630
  9
$USRTIMER
 70
     1
  9
$ANGBASE
 50
0.0
  9
$ANGDIR
 70
     0
  9
$PDMODE
 70
     1
  9
$PDSIZE
 40
0.0
  9
$PLINEWID
 40
0.0
  9
$COORDS
 70
     1
  9
$SPLFRAME
 70
     0
  9
$SPLINETYPE
 70
     6
  9
$SPLINESEGS
 70
     8
  9
$ATTDIA
 70
     0
  9
$ATTREQ
 70
     1
  9
$HANDLING
 70
     1
  9
$HANDSEED
  5
24B
  9
$SURFTAB1
 70
     6
  9
$SURFTAB2
 70
     6
  9
$SURFTYPE
 70
     6
  9
$SURFU
 70
     6
  9
$SURFV
 70
     6
  9
$UCSNAME
  2

  9
$UCSORG
 10
0.0
 20
0.0
 30
0.0
  9
$UCSXDIR
 10
1.0
 20
0.0
 30
0.0
  9
$UCSYDIR
 10
0.0
 20
1.0
 30
0.0
  9
$PUCSNAME
  2

  9
$PUCSORG
 10
0.0
 20
0.0
 30
0.0
  9
$PUCSXDIR
 10
1.0
 20
0.0
 30
0.0
  9
$PUCSYDIR
 10
0.0
 20
1.0
 30
0.0
  9
$USERI1
 70
     0
  9
$USERI2
 70
     0
  9
$USERI3
 70
     0
  9
$USERI4
 70
     0
  9
$USERI5
 70
     0
  9
$USERR1
 40
0.0
  9
$USERR2
 40
0.0
  9
$USERR3
 40
0.0
  9
$USERR4
 40
0.0
  9
$USERR5
 40
0.0
  9
$WORLDVIEW
 70
     1
  9
$SHADEDGE
 70
     3
  9
$SHADEDIF
 70
    70
  9
$TILEMODE
 70
     1
  9
$MAXACTVP
 70
    16
  9
$PINSBASE
 10
0.0
 20
0.0
 30
0.0
  9
$PLIMCHECK
 70
     0
  9
$PEXTMIN
 10
1.000000E+20
 20
1.000000E+20
 30
1.000000E+20
  9
$PEXTMAX
 10
-1.000000E+20
 20
-1.000000E+20
 30
-1.000000E+20
  9
$PLIMMIN
 10
0.0
 20
0.0
  9
$PLIMMAX
 10
420.0
 20
297.0
  9
$UNITMODE
 70
     0
  9
$VISRETAIN
 70
     0
  9
$PLINEGEN
 70
     0
  9
$PSLTSCALE
 70
     0
  9
$TREEDEPTH
 70
  3020
  9
$PICKSTYLE
 70
     1
  9
$CMLSTYLE
  2
STANDARD
  9
$CMLJUST
 70
     0
  9
$CMLSCALE
 40
1.0
  9
$PROXYGRAPHICS
 70
     1
  9
$MEASUREMENT
 70
     0
  0
ENDSEC
  0
SECTION
  2
CLASSES
  0
CLASS
  1
ACDBDICTIONARYWDFLT
  2
AcDbDictionaryWithDefault
  3
AutoCAD 2000
 90
        0
280
     0
281
     0
  0
CLASS
  1
ACDBPLACEHOLDER
  2
AcDbPlaceHolder
  3
AutoCAD 2000
 90
        0
280
     0
281
     0
  0
CLASS
  1
LAYOUT
  2
AcDbLayout
  3
AutoCAD 2000
 90
        0
280
     0
281
     0
  0
CLASS
  1
DICTIONARYVAR
  2
AcDbDictionaryVar
  3
"AutoCAD"
 90
        0
280
     0
281
     0
  0
CLASS
  1
LONG_TRANSACTION
  2
AcDbLongTransaction
  3
AutoCAD 2000
 90
        0
280
     0
281
     0
  0
CLASS
  1
LWPOLYLINE
  2
AcDbPolyline
  3
"AutoCAD"
 90
        0
280
     0
281
     1
  0
CLASS
  1
HATCH
  2
AcDbHatch
  3
"ACAD_SEDONA"
 90
        0
280
     0
281
     1
  0
CLASS
  1
XRECORD
  2
AcDbXrecord
  3
"<Built In>"
 90
        0
280
     0
281
     0
  0
ENDSEC
  0
SECTION
  2
TABLES
  0
TABLE
  2
VPORT
  5
10A
100
AcDbSymbolTable
 70
     1
  0
VPORT
  5
212
102
{ACAD_XDICTIONARY
360
21B
102
}
100
AcDbSymbolTableRecord
100
AcDbViewportTableRecord
  2
*ACTIVE
 70
     0
 10
0.0
 20
0.0
 11
1.0
 21
1.0
 12
297.000001
 22
315.433306
 13
0.0
 23
0.0
 14
10.0
 24
10.0
 15
0.0
 25
0.0
 16
0.0
 26
0.0
 36
1.0
 17
0.0
 27
0.0
 37
0.0
 40
692.616442
 41
1.530211
 42
50.0
 43
0.0
 44
0.0
 50
0.0
 51
0.0
 71
     0
 72
   100
 73
     1
 74
     0
 75
     0
 76
     0
 77
     0
 78
     1
  0
ENDTAB
  0
TABLE
  2
LTYPE
  5
107
100
AcDbSymbolTable
 70
     3
  0
LTYPE
  5
115
102
{ACAD_XDICTIONARY
360
217
102
}
100
AcDbSymbolTableRecord
100
AcDbLinetypeTableRecord
  2
BYBLOCK
 70
     0
  3

 72
    65
 73
     0
 40
0.0
  0
LTYPE
  5
116
102
{ACAD_XDICTIONARY
360
219
102
}
100
AcDbSymbolTableRecord
100
AcDbLinetypeTableRecord
  2
BYLAYER
 70
     0
  3

 72
    65
 73
     0
 40
0.0
  0
LTYPE
  5
117
100
AcDbSymbolTableRecord
100
AcDbLinetypeTableRecord
  2
CONTINUOUS
 70
     0
  3
Solid line
 72
    65
 73
     0
 40
0.0
  0
LTYPE
  5
124
100
AcDbSymbolTableRecord
100
AcDbLinetypeTableRecord
  2
CENTER
 70
     0
  3
____ _ ____ _ ____ _ ____ _ ____ _ ____ _ ____ 
 72
    65
 73
     4
 40
50.8
 49
31.75
 74
     0
 49
-6.35
 74
     0
 49
6.35
 74
     0
 49
-6.35
 74
     0
  0
LTYPE
  5
126
100
AcDbSymbolTableRecord
100
AcDbLinetypeTableRecord
  2
DASHED
 70
     0
  3
__ __ __ __ __ __ __ __ __ __ __ __ __ __ __ __
 72
    65
 73
     2
 40
0.75
 49
0.5
 74
     0
 49
-0.25
 74
     0
  0
ENDTAB
  0
TABLE
  2
LAYER
  5
104
100
AcDbSymbolTable
 70
     3
  0
LAYER
  5
112
100
AcDbSymbolTableRecord
100
AcDbLayerTableRecord
  2
0
 70
     0
 62
     7
  6
CONTINUOUS
  0
LAYER
  5
127
100
AcDbSymbolTableRecord
100
AcDbLayerTableRecord
  2
DIMENSION
 70
     0
 62
    -4
  6
CONTINUOUS
  0
LAYER
  5
128
100
AcDbSymbolTableRecord
100
AcDbLayerTableRecord
  2
CENTER
 70
     0
 62
     1
  6
CENTER
  0
ENDTAB
  0
TABLE
  2
STYLE
  5
105
100
AcDbSymbolTable
 70
     1
  0
STYLE
  5
113
100
AcDbSymbolTableRecord
100
AcDbTextStyleTableRecord
  2
STANDARD
 70
     0
 40
0.0
 41
1.0
 50
0.0
 71
     0
 42
0.2
  3
txt
  4

  0
ENDTAB
  0
TABLE
  2
VIEW
  5
108
100
AcDbSymbolTable
 70
     0
  0
ENDTAB
  0
TABLE
  2
UCS
  5
109
100
AcDbSymbolTable
 70
     0
  0
ENDTAB
  0
TABLE
  2
APPID
  5
10B
100
AcDbSymbolTable
 70
     1
  0
APPID
  5
114
100
AcDbSymbolTableRecord
100
AcDbRegAppTableRecord
  2
ACAD
 70
     0
  0
ENDTAB
  0
TABLE
  2
DIMSTYLE
  5
10C
100
AcDbSymbolTable
 70
     1
  0
DIMSTYLE
105
129
102
{ACAD_XDICTIONARY
360
244
102
}
100
AcDbSymbolTableRecord
100
AcDbDimStyleTableRecord
  2
AA1
 70
     0
  3

  4

  5

  6

  7

 40
2.0
 41
3.0
 42
1.0
 43
10.0
 44
1.0
 45
0.0
 46
0.0
 47
0.0
 48
0.0
140
3.2
141
0.0
142
0.0
143
0.04
144
1.0
145
1.0
146
0.6
147
0.0
 71
     0
 72
     0
 73
     0
 74
     0
 75
     0
 76
     0
 77
     0
 78
     8
170
     0
171
     2
172
     1
173
     0
174
     0
175
     0
176
     0
177
     0
178
     0
270
     2
271
     2
272
     2
273
     2
274
     2
340
113
275
     0
280
     0
281
     0
282
     0
283
     1
284
     8
285
     8
286
     8
287
     5
288
     0
  0
ENDTAB
  0
TABLE
  2
BLOCK_RECORD
  5
103
100
AcDbSymbolTable
 70
     4
  0
BLOCK_RECORD
  5
120
102
{ACAD_XDICTIONARY
360
213
102
}
100
AcDbSymbolTableRecord
100
AcDbBlockTableRecord
  2
*MODEL_SPACE
  0
BLOCK_RECORD
  5
11C
102
{ACAD_XDICTIONARY
360
215
102
}
100
AcDbSymbolTableRecord
100
AcDbBlockTableRecord
  2
*PAPER_SPACE
  0
BLOCK_RECORD
  5
12B
100
AcDbSymbolTableRecord
100
AcDbBlockTableRecord
  2
$MODEL_SPACE
  0
BLOCK_RECORD
  5
12E
100
AcDbSymbolTableRecord
100
AcDbBlockTableRecord
  2
$PAPER_SPACE
  0
BLOCK_RECORD
  5
131
100
AcDbSymbolTableRecord
100
AcDbBlockTableRecord
  2
ARROW
  0
BLOCK_RECORD
  5
137
100
AcDbSymbolTableRecord
100
AcDbBlockTableRecord
  2
_OPEN
  0
ENDTAB
  0
ENDSEC
  0
SECTION
  2
BLOCKS
  0
BLOCK
  5
121
100
AcDbEntity
  8
0
100
AcDbBlockBegin
  2
*MODEL_SPACE
 70
     0
 10
0.0
 20
0.0
 30
0.0
  3
*MODEL_SPACE
  1

  0
ENDBLK
  5
122
100
AcDbEntity
  8
0
100
AcDbBlockEnd
  0
BLOCK
  5
11D
100
AcDbEntity
 67
     1
  8
0
100
AcDbBlockBegin
  2
*PAPER_SPACE
 70
     0
 10
0.0
 20
0.0
 30
0.0
  3
*PAPER_SPACE
  1

  0
ENDBLK
  5
11E
100
AcDbEntity
 67
     1
  8
0
100
AcDbBlockEnd
  0
BLOCK
  5
12C
100
AcDbEntity
  8
0
100
AcDbBlockBegin
  2
$MODEL_SPACE
 70
     0
 10
0.0
 20
0.0
 30
0.0
  3
$MODEL_SPACE
  1

  0
ENDBLK
  5
12D
100
AcDbEntity
  8
0
100
AcDbBlockEnd
  0
BLOCK
  5
12F
100
AcDbEntity
  8
0
100
AcDbBlockBegin
  2
$PAPER_SPACE
 70
     0
 10
0.0
 20
0.0
 30
0.0
  3
$PAPER_SPACE
  1

  0
ENDBLK
  5
130
100
AcDbEntity
  8
0
100
AcDbBlockEnd
  0
BLOCK
  5
132
100
AcDbEntity
  8
0
100
AcDbBlockBegin
  2
ARROW
 70
     0
 10
0.0
 20
0.0
 30
0.0
  3
ARROW
  1

  0
LINE
  5
133
100
AcDbEntity
  8
DIMENSION
100
AcDbLine
 10
0.0
 20
0.0
 30
0.0
 11
-1.0
 21
0.176327
 31
0.0
  0
LINE
  5
134
100
AcDbEntity
  8
DIMENSION
100
AcDbLine
 10
0.0
 20
0.0
 30
0.0
 11
-1.0
 21
-0.176327
 31
0.0
  0
LINE
  5
135
100
AcDbEntity
  8
DIMENSION
100
AcDbLine
 10
-1.0
 20
0.0
 30
0.0
 11
0.0
 21
0.0
 31
0.0
  0
ENDBLK
  5
136
100
AcDbEntity
  8
0
100
AcDbBlockEnd
  0
BLOCK
  5
138
100
AcDbEntity
  8
0
100
AcDbBlockBegin
  2
_OPEN
 70
     0
 10
0.0
 20
0.0
 30
0.0
  3
_OPEN
  1

  0
LINE
  5
139
100
AcDbEntity
  8
0
  6
BYBLOCK
 62
     0
100
AcDbLine
 10
-1.0
 20
0.166667
 30
0.0
 11
0.0
 21
0.0
 31
0.0
  0
LINE
  5
13A
100
AcDbEntity
  8
0
  6
BYBLOCK
 62
     0
100
AcDbLine
 10
0.0
 20
0.0
 30
0.0
 11
-1.0
 21
-0.166667
 31
0.0
  0
LINE
  5
13B
100
AcDbEntity
  8
0
  6
BYBLOCK
 62
     0
100
AcDbLine
 10
0.0
 20
0.0
 30
0.0
 11
-1.0
 21
0.0
 31
0.0
  0
ENDBLK
  5
13C
100
AcDbEntity
  8
0
100
AcDbBlockEnd
  0
ENDSEC
  0
SECTION
  2
ENTITIES
  0
LINE
  5
13D
100
AcDbEntity
  8
0
  6
DASHED
 62
     3
100
AcDbLine
 10
214.931632
 20
241.427506
 30
0.0
 11
214.931632
 21
179.427506
 31
0.0
  0
LINE
  5
13E
100
AcDbEntity
  8
0
100
AcDbLine
 10
214.931632
 20
184.527506
 30
0.0
 11
214.931632
 21
236.327506
 31
0.0
  0
LINE
  5
13F
100
AcDbEntity
  8
0
100
AcDbLine
 10
229.931632
 20
181.427506
 30
0.0
 11
229.931632
 21
239.427506
 31
0.0
  0
LINE
  5
140
100
AcDbEntity
  8
0
100
AcDbLine
 10
227.931632
 20
181.427506
 30
0.0
 11
227.931632
 21
239.427506
 31
0.0
  0
LINE
  5
141
100
AcDbEntity
  8
0
100
AcDbLine
 10
232.931632
 20
258.427506
 30
0.0
 11
232.931632
 21
162.427506
 31
0.0
  0
LINE
  5
142
100
AcDbEntity
  8
0
100
AcDbLine
 10
212.931632
 20
241.427506
 30
0.0
 11
212.931632
 21
179.427506
 31
0.0
  0
LINE
  5
145
100
AcDbEntity
  8
0
100
AcDbLine
 10
214.931632
 20
162.427506
 30
0.0
 11
214.931632
 21
179.427506
 31
0.0
  0
LINE
  5
146
100
AcDbEntity
  8
0
  6
DASHED
 62
     3
100
AcDbLine
 10
224.331632
 20
168.427506
 30
0.0
 11
224.331632
 21
182.427506
 31
0.0
  0
LINE
  5
147
100
AcDbEntity
  8
CENTER
  6
CENTER
 62
     1
100
AcDbLine
 10
233.931632
 20
175.427506
 30
0.0
 11
211.931632
 21
175.427506
 31
0.0
  0
LINE
  5
148
100
AcDbEntity
  8
0
100
AcDbLine
 10
232.931632
 20
162.427506
 30
0.0
 11
214.931632
 21
162.427506
 31
0.0
  0
LINE
  5
149
100
AcDbEntity
  8
0
  6
DASHED
 62
     3
100
AcDbLine
 10
232.931632
 20
168.427506
 30
0.0
 11
224.331632
 21
168.427506
 31
0.0
  0
LINE
  5
14A
100
AcDbEntity
  8
0
  6
DASHED
 62
     3
100
AcDbLine
 10
224.331632
 20
171.177506
 30
0.0
 11
214.931632
 21
171.177506
 31
0.0
  0
LINE
  5
14B
100
AcDbEntity
  8
0
  6
DASHED
 62
     3
100
AcDbLine
 10
224.331632
 20
170.427506
 30
0.0
 11
214.931632
 21
170.427506
 31
0.0
  0
LINE
  5
14C
100
AcDbEntity
  8
0
  6
DASHED
 62
     3
100
AcDbLine
 10
232.931632
 20
182.427506
 30
0.0
 11
224.331632
 21
182.427506
 31
0.0
  0
ARC
  5
14D
100
AcDbEntity
  8
0
100
AcDbCircle
 10
227.18615
 20
185.900046
 30
0.0
 40
0.3
100
AcDbArc
 50
324.935553
 51
55.03769
  0
LINE
  5
14E
100
AcDbEntity
  8
0
100
AcDbLine
 10
227.431702
 20
185.727696
 30
0.0
 11
227.200166
 21
185.397818
 31
0.0
  0
LINE
  5
14F
100
AcDbEntity
  8
0
100
AcDbLine
 10
226.489644
 20
186.953429
 30
0.0
 11
227.589632
 21
188.053426
 31
0.0
  0
LINE
  5
150
100
AcDbEntity
  8
0
100
AcDbLine
 10
216.531632
 20
182.927506
 30
0.0
 11
227.931632
 21
182.927506
 31
0.0
  0
ARC
  5
151
100
AcDbEntity
  8
0
100
AcDbCircle
 10
226.331632
 20
193.827506
 30
0.0
 40
1.6
100
AcDbArc
 50
0.0
 51
90.0
  0
LINE
  5
152
100
AcDbEntity
  8
0
100
AcDbLine
 10
227.731632
 20
191.827516
 30
0.0
 11
227.331689
 21
191.827516
 31
0.0
  0
ARC
  5
153
100
AcDbEntity
  8
0
100
AcDbCircle
 10
227.289632
 20
191.227516
 30
0.0
 40
0.3
100
AcDbArc
 50
0.0
 51
90.0
  0
ARC
  5
154
100
AcDbEntity
  8
0
100
AcDbCircle
 10
226.331632
 20
184.527506
 30
0.0
 40
1.6
100
AcDbArc
 50
270.0
 51
0.0
  0
LINE
  5
155
100
AcDbEntity
  8
0
  6
DASHED
 62
     3
100
AcDbLine
 10
224.331632
 20
179.677506
 30
0.0
 11
214.931632
 21
179.677506
 31
0.0
  0
LINE
  5
156
100
AcDbEntity
  8
0
  6
DASHED
 62
     3
100
AcDbLine
 10
224.331632
 20
180.427506
 30
0.0
 11
214.931632
 21
180.427506
 31
0.0
  0
ARC
  5
157
100
AcDbEntity
  8
0
100
AcDbCircle
 10
216.096906
 20
185.702302
 30
0.0
 40
0.53
100
AcDbArc
 50
215.064447
 51
354.934862
  0
LINE
  5
158
100
AcDbEntity
  8
0
100
AcDbLine
 10
215.922632
 20
186.07254
 30
0.0
 11
215.677659
 21
185.899532
 31
0.0
  0
LINE
  5
159
100
AcDbEntity
  8
0
100
AcDbLine
 10
215.75065
 20
186.317529
 30
0.0
 11
215.922632
 21
186.07254
 31
0.0
  0
LINE
  5
15A
100
AcDbEntity
  8
0
100
AcDbLine
 10
215.677659
 20
185.899532
 30
0.0
 11
215.908656
 21
185.570423
 31
0.0
  0
LINE
  5
15B
100
AcDbEntity
  8
0
100
AcDbLine
 10
215.531574
 20
191.827516
 30
0.0
 11
215.84921
 21
192.206071
 31
0.0
  0
LINE
  5
15C
100
AcDbEntity
  8
0
100
AcDbLine
 10
215.573632
 20
191.527516
 30
0.0
 11
216.093632
 21
191.527516
 31
0.0
  0
LINE
  5
15D
100
AcDbEntity
  8
0
100
AcDbLine
 10
216.093632
 20
191.227506
 30
0.0
 11
215.573632
 21
191.227506
 31
0.0
  0
LINE
  5
15E
100
AcDbEntity
  8
0
100
AcDbLine
 10
216.673632
 20
187.077516
 30
0.0
 11
215.573632
 21
188.177506
 31
0.0
  0
ARC
  5
15F
100
AcDbEntity
  8
0
100
AcDbCircle
 10
216.531632
 20
184.527506
 30
0.0
 40
1.6
100
AcDbArc
 50
180.0
 51
270.0
  0
LINE
  5
160
100
AcDbEntity
  8
0
100
AcDbLine
 10
216.373619
 20
186.953429
 30
0.0
 11
215.273632
 21
188.053426
 31
0.0
  0
LINE
  5
161
100
AcDbEntity
  8
0
100
AcDbLine
 10
214.931632
 20
179.427506
 30
0.0
 11
212.931632
 21
179.427506
 31
0.0
  0
ARC
  5
162
100
AcDbEntity
  8
0
100
AcDbCircle
 10
215.677113
 20
185.900046
 30
0.0
 40
0.3
100
AcDbArc
 50
124.96231
 51
215.064447
  0
LINE
  5
163
100
AcDbEntity
  8
0
100
AcDbLine
 10
215.75065
 20
186.317529
 30
0.0
 11
215.505202
 21
186.145904
 31
0.0
  0
LINE
  5
164
100
AcDbEntity
  8
0
100
AcDbLine
 10
215.431561
 20
185.727696
 30
0.0
 11
215.663098
 21
185.397818
 31
0.0
  0
LINE
  5
165
100
AcDbEntity
  8
0
100
AcDbLine
 10
215.573632
 20
188.177506
 30
0.0
 11
215.573632
 21
191.227506
 31
0.0
  0
ARC
  5
166
100
AcDbEntity
  8
0
100
AcDbCircle
 10
215.131632
 20
185.527506
 30
0.0
 40
0.2
100
AcDbArc
 50
90.0
 51
180.0
  0
LINE
  5
167
100
AcDbEntity
  8
0
100
AcDbLine
 10
214.931632
 20
186.427506
 30
0.0
 11
212.931632
 21
186.427506
 31
0.0
  0
LINE
  5
168
100
AcDbEntity
  8
0
100
AcDbLine
 10
215.273632
 20
188.053426
 30
0.0
 11
215.273632
 21
191.227516
 31
0.0
  0
ARC
  5
169
100
AcDbEntity
  8
0
100
AcDbCircle
 10
215.131632
 20
192.027516
 30
0.0
 40
0.2
100
AcDbArc
 50
180.0
 51
270.0
  0
LINE
  5
16A
100
AcDbEntity
  8
0
100
AcDbLine
 10
215.131632
 20
191.827516
 30
0.0
 11
215.531574
 21
191.827516
 31
0.0
  0
ARC
  5
16B
100
AcDbEntity
  8
0
100
AcDbCircle
 10
215.573632
 20
191.227516
 30
0.0
 40
0.3
100
AcDbArc
 50
90.0
 51
180.0
  0
LINE
  5
16C
100
AcDbEntity
  8
0
100
AcDbLine
 10
215.131632
 20
185.727506
 30
0.0
 11
215.431695
 21
185.727506
 31
0.0
  0
ARC
  5
16D
100
AcDbEntity
  8
0
100
AcDbCircle
 10
226.766357
 20
185.702302
 30
0.0
 40
0.53
100
AcDbArc
 50
185.065138
 51
324.935553
  0
CIRCLE
  5
16E
100
AcDbEntity
  8
0
100
AcDbCircle
 10
221.431632
 20
188.927506
 30
0.0
 40
3.5719
  0
ARC
  5
16F
100
AcDbEntity
  8
0
100
AcDbCircle
 10
216.096913
 20
185.702557
 30
0.0
 40
0.23
100
AcDbArc
 50
215.064447
 51
357.868921
  0
LINE
  5
170
100
AcDbEntity
  8
0
100
AcDbLine
 10
216.326754
 20
185.694004
 30
0.0
 11
216.373619
 21
186.953429
 31
0.0
  0
LINE
  5
171
100
AcDbEntity
  8
0
100
AcDbLine
 10
216.624836
 20
185.655509
 30
0.0
 11
216.70369
 21
186.545163
 31
0.0
  0
LINE
  5
172
100
AcDbEntity
  8
0
100
AcDbLine
 10
216.673632
 20
186.206516
 30
0.0
 11
216.673632
 21
187.077516
 31
0.0
  0
ARC
  5
173
100
AcDbEntity
  8
0
100
AcDbCircle
 10
216.902909
 20
186.527506
 30
0.0
 40
0.2
100
AcDbArc
 50
90.0
 51
174.934862
  0
LINE
  5
174
100
AcDbEntity
  8
0
100
AcDbLine
 10
216.902909
 20
186.727506
 30
0.0
 11
218.617654
 21
186.727506
 31
0.0
  0
LINE
  5
175
100
AcDbEntity
  8
0
100
AcDbLine
 10
216.00242
 20
192.277516
 30
0.0
 11
216.177574
 21
192.277516
 31
0.0
  0
ARC
  5
176
100
AcDbEntity
  8
0
100
AcDbCircle
 10
216.00242
 20
192.077516
 30
0.0
 40
0.2
100
AcDbArc
 50
90.0
 51
140.00092
  0
LINE
  5
177
100
AcDbEntity
  8
0
100
AcDbLine
 10
216.093632
 20
191.527516
 30
0.0
 11
216.093632
 21
191.227506
 31
0.0
  0
LINE
  5
178
100
AcDbEntity
  8
0
100
AcDbLine
 10
216.365477
 20
192.146017
 30
0.0
 11
216.68884
 21
191.259014
 31
0.0
  0
ARC
  5
179
100
AcDbEntity
  8
0
100
AcDbCircle
 10
216.177574
 20
192.077516
 30
0.0
 40
0.2
100
AcDbArc
 50
20.029669
 51
90.0
  0
ARC
  5
17A
100
AcDbEntity
  8
0
100
AcDbCircle
 10
216.876743
 20
191.327516
 30
0.0
 40
0.2
100
AcDbArc
 50
200.029669
 51
270.0
  0
LINE
  5
17B
100
AcDbEntity
  8
0
100
AcDbLine
 10
216.876743
 20
191.127516
 30
0.0
 11
218.617662
 21
191.127516
 31
0.0
  0
LINE
  5
17C
100
AcDbEntity
  8
0
100
AcDbLine
 10
226.238427
 20
185.655509
 30
0.0
 11
226.159573
 21
186.545163
 31
0.0
  0
LINE
  5
17D
100
AcDbEntity
  8
0
100
AcDbLine
 10
226.189632
 20
186.206516
 30
0.0
 11
226.189632
 21
187.077516
 31
0.0
  0
ARC
  5
17E
100
AcDbEntity
  8
0
100
AcDbCircle
 10
225.960354
 20
186.527506
 30
0.0
 40
0.2
100
AcDbArc
 50
5.065138
 51
90.0
  0
LINE
  5
17F
100
AcDbEntity
  8
0
100
AcDbLine
 10
226.940631
 20
186.07254
 30
0.0
 11
227.185604
 21
185.899532
 31
0.0
  0
LINE
  5
180
100
AcDbEntity
  8
0
100
AcDbLine
 10
226.53651
 20
185.694004
 30
0.0
 11
226.489644
 21
186.953429
 31
0.0
  0
LINE
  5
181
100
AcDbEntity
  8
0
100
AcDbLine
 10
227.112613
 20
186.317529
 30
0.0
 11
226.940631
 21
186.07254
 31
0.0
  0
LINE
  5
182
100
AcDbEntity
  8
0
100
AcDbLine
 10
227.112613
 20
186.317529
 30
0.0
 11
227.358062
 21
186.145904
 31
0.0
  0
ARC
  5
183
100
AcDbEntity
  8
0
100
AcDbCircle
 10
226.76635
 20
185.702557
 30
0.0
 40
0.23
100
AcDbArc
 50
182.131079
 51
324.935553
  0
LINE
  5
184
100
AcDbEntity
  8
0
100
AcDbLine
 10
227.185604
 20
185.899532
 30
0.0
 11
226.954607
 21
185.570423
 31
0.0
  0
LINE
  5
185
100
AcDbEntity
  8
0
100
AcDbLine
 10
225.960354
 20
186.727506
 30
0.0
 11
224.245609
 21
186.727506
 31
0.0
  0
LINE
  5
186
100
AcDbEntity
  8
0
100
AcDbLine
 10
227.289632
 20
188.177506
 30
0.0
 11
227.289632
 21
191.227506
 31
0.0
  0
LINE
  5
187
100
AcDbEntity
  8
0
100
AcDbLine
 10
226.497786
 20
192.146017
 30
0.0
 11
226.174423
 21
191.259014
 31
0.0
  0
ARC
  5
188
100
AcDbEntity
  8
0
100
AcDbCircle
 10
225.98652
 20
191.327516
 30
0.0
 40
0.2
100
AcDbArc
 50
270.0
 51
339.970331
  0
LINE
  5
189
100
AcDbEntity
  8
0
100
AcDbLine
 10
227.331689
 20
191.827516
 30
0.0
 11
227.014054
 21
192.206071
 31
0.0
  0
ARC
  5
18A
100
AcDbEntity
  8
0
100
AcDbCircle
 10
226.860843
 20
192.077516
 30
0.0
 40
0.2
100
AcDbArc
 50
39.99908
 51
90.0
  0
LINE
  5
18B
100
AcDbEntity
  8
0
100
AcDbLine
 10
226.860843
 20
192.277516
 30
0.0
 11
226.685689
 21
192.277516
 31
0.0
  0
ARC
  5
18C
100
AcDbEntity
  8
0
100
AcDbCircle
 10
226.685689
 20
192.077516
 30
0.0
 40
0.2
100
AcDbArc
 50
90.0
 51
159.970331
  0
LINE
  5
18D
100
AcDbEntity
  8
0
100
AcDbLine
 10
226.769632
 20
191.227506
 30
0.0
 11
227.289632
 21
191.227506
 31
0.0
  0
LINE
  5
18E
100
AcDbEntity
  8
0
100
AcDbLine
 10
226.769632
 20
191.527516
 30
0.0
 11
226.769632
 21
191.227506
 31
0.0
  0
LINE
  5
18F
100
AcDbEntity
  8
0
100
AcDbLine
 10
227.289632
 20
191.527516
 30
0.0
 11
226.769632
 21
191.527516
 31
0.0
  0
LINE
  5
190
100
AcDbEntity
  8
0
100
AcDbLine
 10
225.98652
 20
191.127516
 30
0.0
 11
224.245601
 21
191.127516
 31
0.0
  0
LINE
  5
191
100
AcDbEntity
  8
0
100
AcDbLine
 10
226.189632
 20
187.077516
 30
0.0
 11
227.289632
 21
188.177506
 31
0.0
  0
ARC
  5
192
100
AcDbEntity
  8
0
100
AcDbCircle
 10
216.531632
 20
193.827506
 30
0.0
 40
1.6
100
AcDbArc
 50
90.0
 51
180.0
  0
LINE
  5
193
100
AcDbEntity
  8
0
100
AcDbLine
 10
216.531632
 20
195.427506
 30
0.0
 11
226.331632
 21
195.427506
 31
0.0
  0
LINE
  5
194
100
AcDbEntity
  8
0
100
AcDbLine
 10
229.931632
 20
181.427506
 30
0.0
 11
227.931632
 21
181.427506
 31
0.0
  0
LINE
  5
195
100
AcDbEntity
  8
0
100
AcDbLine
 10
232.931632
 20
182.927506
 30
0.0
 11
229.931632
 21
182.927506
 31
0.0
  0
ARC
  5
196
100
AcDbEntity
  8
0
100
AcDbCircle
 10
227.731632
 20
185.527506
 30
0.0
 40
0.2
100
AcDbArc
 50
0.0
 51
90.0
  0
LINE
  5
197
100
AcDbEntity
  8
0
100
AcDbLine
 10
229.931632
 20
186.527506
 30
0.0
 11
227.931632
 21
186.527506
 31
0.0
  0
ARC
  5
198
100
AcDbEntity
  8
0
100
AcDbCircle
 10
227.731632
 20
192.027516
 30
0.0
 40
0.2
100
AcDbArc
 50
270.0
 51
0.0
  0
LINE
  5
199
100
AcDbEntity
  8
0
100
AcDbLine
 10
227.589632
 20
188.053426
 30
0.0
 11
227.589632
 21
191.227516
 31
0.0
  0
LINE
  5
19A
100
AcDbEntity
  8
0
100
AcDbLine
 10
227.731632
 20
185.727506
 30
0.0
 11
227.431568
 21
185.727506
 31
0.0
  0
LINE
  5
19B
100
AcDbEntity
  8
0
  6
DASHED
 62
     3
100
AcDbLine
 10
224.331632
 20
252.427506
 30
0.0
 11
224.331632
 21
238.427506
 31
0.0
  0
LINE
  5
19C
100
AcDbEntity
  8
0
100
AcDbLine
 10
214.931632
 20
258.427506
 30
0.0
 11
214.931632
 21
241.427506
 31
0.0
  0
LINE
  5
19D
100
AcDbEntity
  8
CENTER
  6
CENTER
 62
     1
100
AcDbLine
 10
233.931632
 20
210.427506
 30
0.0
 11
211.931632
 21
210.427506
 31
0.0
  0
LINE
  5
19E
100
AcDbEntity
  8
0
  6
DASHED
 62
     3
100
AcDbLine
 10
232.931632
 20
238.427506
 30
0.0
 11
224.331632
 21
238.427506
 31
0.0
  0
LINE
  5
19F
100
AcDbEntity
  8
0
100
AcDbLine
 10
227.431702
 20
235.127315
 30
0.0
 11
227.200166
 21
235.457193
 31
0.0
  0
LINE
  5
1A0
100
AcDbEntity
  8
0
100
AcDbLine
 10
226.489644
 20
233.901583
 30
0.0
 11
227.589632
 21
232.801586
 31
0.0
  0
ARC
  5
1A1
100
AcDbEntity
  8
0
100
AcDbCircle
 10
227.18615
 20
234.954966
 30
0.0
 40
0.3
100
AcDbArc
 50
304.96231
 51
35.064447
  0
ARC
  5
1A2
100
AcDbEntity
  8
0
100
AcDbCircle
 10
226.331632
 20
236.327506
 30
0.0
 40
1.6
100
AcDbArc
 50
0.0
 51
90.0
  0
ARC
  5
1A3
100
AcDbEntity
  8
0
100
AcDbCircle
 10
227.289632
 20
229.627496
 30
0.0
 40
0.3
100
AcDbArc
 50
270.0
 51
0.0
  0
LINE
  5
1A4
100
AcDbEntity
  8
0
100
AcDbLine
 10
227.731632
 20
229.027496
 30
0.0
 11
227.331689
 21
229.027496
 31
0.0
  0
ARC
  5
1A5
100
AcDbEntity
  8
0
100
AcDbCircle
 10
226.331632
 20
227.027506
 30
0.0
 40
1.6
100
AcDbArc
 50
270.0
 51
0.0
  0
LINE
  5
1A6
100
AcDbEntity
  8
0
100
AcDbLine
 10
216.531632
 20
237.927506
 30
0.0
 11
227.931632
 21
237.927506
 31
0.0
  0
ARC
  5
1A7
100
AcDbEntity
  8
0
100
AcDbCircle
 10
216.531632
 20
227.027506
 30
0.0
 40
1.6
100
AcDbArc
 50
180.0
 51
270.0
  0
LINE
  5
1A8
100
AcDbEntity
  8
0
100
AcDbLine
 10
216.531632
 20
225.427506
 30
0.0
 11
226.331632
 21
225.427506
 31
0.0
  0
LINE
  5
1A9
100
AcDbEntity
  8
0
  6
DASHED
 62
     3
100
AcDbLine
 10
224.331632
 20
240.427506
 30
0.0
 11
214.931632
 21
240.427506
 31
0.0
  0
LINE
  5
1AA
100
AcDbEntity
  8
0
  6
DASHED
 62
     3
100
AcDbLine
 10
224.331632
 20
241.177506
 30
0.0
 11
214.931632
 21
241.177506
 31
0.0
  0
LINE
  5
1AB
100
AcDbEntity
  8
0
100
AcDbLine
 10
215.677659
 20
234.955479
 30
0.0
 11
215.908656
 21
235.284589
 31
0.0
  0
LINE
  5
1AC
100
AcDbEntity
  8
0
100
AcDbLine
 10
215.75065
 20
234.537483
 30
0.0
 11
215.922632
 21
234.782471
 31
0.0
  0
LINE
  5
1AD
100
AcDbEntity
  8
0
100
AcDbLine
 10
215.922632
 20
234.782471
 30
0.0
 11
215.677659
 21
234.955479
 31
0.0
  0
LINE
  5
1AE
100
AcDbEntity
  8
0
100
AcDbLine
 10
216.093632
 20
229.627506
 30
0.0
 11
215.573632
 21
229.627506
 31
0.0
  0
LINE
  5
1AF
100
AcDbEntity
  8
0
100
AcDbLine
 10
215.573632
 20
229.327496
 30
0.0
 11
216.093632
 21
229.327496
 31
0.0
  0
LINE
  5
1B0
100
AcDbEntity
  8
0
100
AcDbLine
 10
215.531574
 20
229.027496
 30
0.0
 11
215.84921
 21
228.648941
 31
0.0
  0
LINE
  5
1B1
100
AcDbEntity
  8
0
100
AcDbLine
 10
216.673632
 20
233.777496
 30
0.0
 11
215.573632
 21
232.677506
 31
0.0
  0
LINE
  5
1B2
100
AcDbEntity
  8
0
100
AcDbLine
 10
216.373619
 20
233.901583
 30
0.0
 11
215.273632
 21
232.801586
 31
0.0
  0
ARC
  5
1B3
100
AcDbEntity
  8
0
100
AcDbCircle
 10
216.531632
 20
236.327506
 30
0.0
 40
1.6
100
AcDbArc
 50
90.0
 51
180.0
  0
ARC
  5
1B4
100
AcDbEntity
  8
0
100
AcDbCircle
 10
216.096906
 20
235.15271
 30
0.0
 40
0.53
100
AcDbArc
 50
5.065138
 51
144.935553
  0
LINE
  5
1B5
100
AcDbEntity
  8
0
100
AcDbLine
 10
215.75065
 20
234.537483
 30
0.0
 11
215.505202
 21
234.709107
 31
0.0
  0
LINE
  5
1B6
100
AcDbEntity
  8
0
100
AcDbLine
 10
214.931632
 20
234.427506
 30
0.0
 11
212.931632
 21
234.427506
 31
0.0
  0
ARC
  5
1B7
100
AcDbEntity
  8
0
100
AcDbCircle
 10
215.573632
 20
229.627496
 30
0.0
 40
0.3
100
AcDbArc
 50
180.0
 51
270.0
  0
LINE
  5
1B8
100
AcDbEntity
  8
0
100
AcDbLine
 10
215.131632
 20
229.027496
 30
0.0
 11
215.531574
 21
229.027496
 31
0.0
  0
ARC
  5
1B9
100
AcDbEntity
  8
0
100
AcDbCircle
 10
215.131632
 20
228.827496
 30
0.0
 40
0.2
100
AcDbArc
 50
90.0
 51
180.0
  0
LINE
  5
1BA
100
AcDbEntity
  8
0
100
AcDbLine
 10
215.573632
 20
232.677506
 30
0.0
 11
215.573632
 21
229.627506
 31
0.0
  0
LINE
  5
1BB
100
AcDbEntity
  8
0
100
AcDbLine
 10
215.273632
 20
232.801586
 30
0.0
 11
215.273632
 21
229.627496
 31
0.0
  0
LINE
  5
1BC
100
AcDbEntity
  8
0
100
AcDbLine
 10
214.931632
 20
241.427506
 30
0.0
 11
212.931632
 21
241.427506
 31
0.0
  0
LINE
  5
1BD
100
AcDbEntity
  8
0
100
AcDbLine
 10
215.131632
 20
235.127506
 30
0.0
 11
215.431695
 21
235.127506
 31
0.0
  0
LINE
  5
1BE
100
AcDbEntity
  8
0
100
AcDbLine
 10
215.431561
 20
235.127315
 30
0.0
 11
215.663098
 21
235.457193
 31
0.0
  0
ARC
  5
1BF
100
AcDbEntity
  8
0
100
AcDbCircle
 10
215.131632
 20
235.327506
 30
0.0
 40
0.2
100
AcDbArc
 50
180.0
 51
270.0
  0
ARC
  5
1C0
100
AcDbEntity
  8
0
100
AcDbCircle
 10
215.677113
 20
234.954966
 30
0.0
 40
0.3
100
AcDbArc
 50
144.935553
 51
235.03769
  0
LINE
  5
1C1
100
AcDbEntity
  8
0
100
AcDbLine
 10
227.112613
 20
234.537483
 30
0.0
 11
227.358062
 21
234.709107
 31
0.0
  0
LINE
  5
1C2
100
AcDbEntity
  8
0
100
AcDbLine
 10
227.112613
 20
234.537483
 30
0.0
 11
226.940631
 21
234.782471
 31
0.0
  0
LINE
  5
1C3
100
AcDbEntity
  8
0
100
AcDbLine
 10
226.53651
 20
235.161007
 30
0.0
 11
226.489644
 21
233.901583
 31
0.0
  0
LINE
  5
1C4
100
AcDbEntity
  8
0
100
AcDbLine
 10
226.189632
 20
234.648496
 30
0.0
 11
226.189632
 21
233.777496
 31
0.0
  0
LINE
  5
1C5
100
AcDbEntity
  8
0
100
AcDbLine
 10
226.238427
 20
235.199502
 30
0.0
 11
226.159573
 21
234.309848
 31
0.0
  0
LINE
  5
1C6
100
AcDbEntity
  8
0
100
AcDbLine
 10
216.673632
 20
234.648496
 30
0.0
 11
216.673632
 21
233.777496
 31
0.0
  0
LINE
  5
1C7
100
AcDbEntity
  8
0
100
AcDbLine
 10
216.624836
 20
235.199502
 30
0.0
 11
216.70369
 21
234.309848
 31
0.0
  0
LINE
  5
1C8
100
AcDbEntity
  8
0
100
AcDbLine
 10
216.326754
 20
235.161007
 30
0.0
 11
216.373619
 21
233.901583
 31
0.0
  0
CIRCLE
  5
1C9
100
AcDbEntity
  8
0
100
AcDbCircle
 10
221.431632
 20
231.927506
 30
0.0
 40
3.5719
  0
ARC
  5
1CA
100
AcDbEntity
  8
0
100
AcDbCircle
 10
216.902909
 20
234.327506
 30
0.0
 40
0.2
100
AcDbArc
 50
185.065138
 51
270.0
  0
LINE
  5
1CB
100
AcDbEntity
  8
0
100
AcDbLine
 10
216.902909
 20
234.127506
 30
0.0
 11
218.617654
 21
234.127506
 31
0.0
  0
ARC
  5
1CC
100
AcDbEntity
  8
0
100
AcDbCircle
 10
216.876743
 20
229.527496
 30
0.0
 40
0.2
100
AcDbArc
 50
90.0
 51
159.970331
  0
ARC
  5
1CD
100
AcDbEntity
  8
0
100
AcDbCircle
 10
216.177574
 20
228.777496
 30
0.0
 40
0.2
100
AcDbArc
 50
270.0
 51
339.970331
  0
LINE
  5
1CE
100
AcDbEntity
  8
0
100
AcDbLine
 10
216.365477
 20
228.708994
 30
0.0
 11
216.68884
 21
229.595997
 31
0.0
  0
LINE
  5
1CF
100
AcDbEntity
  8
0
100
AcDbLine
 10
216.876743
 20
229.727496
 30
0.0
 11
218.617662
 21
229.727496
 31
0.0
  0
LINE
  5
1D0
100
AcDbEntity
  8
0
100
AcDbLine
 10
216.093632
 20
229.327496
 30
0.0
 11
216.093632
 21
229.627506
 31
0.0
  0
ARC
  5
1D1
100
AcDbEntity
  8
0
100
AcDbCircle
 10
216.00242
 20
228.777496
 30
0.0
 40
0.2
100
AcDbArc
 50
219.99908
 51
270.0
  0
LINE
  5
1D2
100
AcDbEntity
  8
0
100
AcDbLine
 10
216.00242
 20
228.577496
 30
0.0
 11
216.177574
 21
228.577496
 31
0.0
  0
ARC
  5
1D3
100
AcDbEntity
  8
0
100
AcDbCircle
 10
225.960354
 20
234.327506
 30
0.0
 40
0.2
100
AcDbArc
 50
270.0
 51
354.934862
  0
LINE
  5
1D4
100
AcDbEntity
  8
0
100
AcDbLine
 10
226.189632
 20
233.777496
 30
0.0
 11
227.289632
 21
232.677506
 31
0.0
  0
LINE
  5
1D5
100
AcDbEntity
  8
0
100
AcDbLine
 10
227.289632
 20
229.327496
 30
0.0
 11
226.769632
 21
229.327496
 31
0.0
  0
LINE
  5
1D6
100
AcDbEntity
  8
0
100
AcDbLine
 10
226.769632
 20
229.327496
 30
0.0
 11
226.769632
 21
229.627506
 31
0.0
  0
LINE
  5
1D7
100
AcDbEntity
  8
0
100
AcDbLine
 10
226.769632
 20
229.627506
 30
0.0
 11
227.289632
 21
229.627506
 31
0.0
  0
ARC
  5
1D8
100
AcDbEntity
  8
0
100
AcDbCircle
 10
226.685689
 20
228.777496
 30
0.0
 40
0.2
100
AcDbArc
 50
200.029669
 51
270.0
  0
LINE
  5
1D9
100
AcDbEntity
  8
0
100
AcDbLine
 10
226.860843
 20
228.577496
 30
0.0
 11
226.685689
 21
228.577496
 31
0.0
  0
ARC
  5
1DA
100
AcDbEntity
  8
0
100
AcDbCircle
 10
226.860843
 20
228.777496
 30
0.0
 40
0.2
100
AcDbArc
 50
270.0
 51
320.00092
  0
LINE
  5
1DB
100
AcDbEntity
  8
0
100
AcDbLine
 10
227.331689
 20
229.027496
 30
0.0
 11
227.014054
 21
228.648941
 31
0.0
  0
ARC
  5
1DC
100
AcDbEntity
  8
0
100
AcDbCircle
 10
225.98652
 20
229.527496
 30
0.0
 40
0.2
100
AcDbArc
 50
20.029669
 51
90.0
  0
LINE
  5
1DD
100
AcDbEntity
  8
0
100
AcDbLine
 10
226.497786
 20
228.708994
 30
0.0
 11
226.174423
 21
229.595997
 31
0.0
  0
LINE
  5
1DE
100
AcDbEntity
  8
0
100
AcDbLine
 10
227.289632
 20
232.677506
 30
0.0
 11
227.289632
 21
229.627506
 31
0.0
  0
LINE
  5
1DF
100
AcDbEntity
  8
0
100
AcDbLine
 10
225.98652
 20
229.727496
 30
0.0
 11
224.245601
 21
229.727496
 31
0.0
  0
LINE
  5
1E0
100
AcDbEntity
  8
0
100
AcDbLine
 10
225.960354
 20
234.127506
 30
0.0
 11
224.245609
 21
234.127506
 31
0.0
  0
ARC
  5
1E1
100
AcDbEntity
  8
0
100
AcDbCircle
 10
216.096913
 20
235.152454
 30
0.0
 40
0.23
100
AcDbArc
 50
2.131079
 51
144.935553
  0
LINE
  5
1E2
100
AcDbEntity
  8
0
100
AcDbLine
 10
227.185604
 20
234.955479
 30
0.0
 11
226.954607
 21
235.284589
 31
0.0
  0
ARC
  5
1E3
100
AcDbEntity
  8
0
100
AcDbCircle
 10
226.76635
 20
235.152454
 30
0.0
 40
0.23
100
AcDbArc
 50
35.064447
 51
177.868921
  0
LINE
  5
1E4
100
AcDbEntity
  8
0
100
AcDbLine
 10
226.940631
 20
234.782471
 30
0.0
 11
227.185604
 21
234.955479
 31
0.0
  0
ARC
  5
1E5
100
AcDbEntity
  8
0
100
AcDbCircle
 10
226.766357
 20
235.15271
 30
0.0
 40
0.53
100
AcDbArc
 50
35.064447
 51
174.934862
  0
LINE
  5
1E6
100
AcDbEntity
  8
0
100
AcDbLine
 10
229.931632
 20
234.327506
 30
0.0
 11
227.931632
 21
234.327506
 31
0.0
  0
ARC
  5
1E7
100
AcDbEntity
  8
0
100
AcDbCircle
 10
227.731632
 20
228.827496
 30
0.0
 40
0.2
100
AcDbArc
 50
0.0
 51
90.0
  0
LINE
  5
1E8
100
AcDbEntity
  8
0
100
AcDbLine
 10
227.589632
 20
232.801586
 30
0.0
 11
227.589632
 21
229.627496
 31
0.0
  0
LINE
  5
1E9
100
AcDbEntity
  8
0
100
AcDbLine
 10
229.931632
 20
239.427506
 30
0.0
 11
227.931632
 21
239.427506
 31
0.0
  0
LINE
  5
1EA
100
AcDbEntity
  8
0
100
AcDbLine
 10
232.931632
 20
237.927506
 30
0.0
 11
229.931632
 21
237.927506
 31
0.0
  0
ARC
  5
1EB
100
AcDbEntity
  8
0
100
AcDbCircle
 10
227.731632
 20
235.327506
 30
0.0
 40
0.2
100
AcDbArc
 50
270.0
 51
0.0
  0
LINE
  5
1EC
100
AcDbEntity
  8
0
100
AcDbLine
 10
227.731632
 20
235.127506
 30
0.0
 11
227.431568
 21
235.127506
 31
0.0
  0
LINE
  5
1ED
100
AcDbEntity
  8
CENTER
  6
CENTER
 62
     1
100
AcDbLine
 10
233.931632
 20
245.427506
 30
0.0
 11
211.931632
 21
245.427506
 31
0.0
  0
LINE
  5
1EE
100
AcDbEntity
  8
0
  6
DASHED
 62
     3
100
AcDbLine
 10
232.931632
 20
252.427506
 30
0.0
 11
224.331632
 21
252.427506
 31
0.0
  0
LINE
  5
1EF
100
AcDbEntity
  8
0
100
AcDbLine
 10
232.931632
 20
258.427506
 30
0.0
 11
214.931632
 21
258.427506
 31
0.0
  0
LINE
  5
1F0
100
AcDbEntity
  8
0
  6
DASHED
 62
     3
100
AcDbLine
 10
224.331632
 20
250.427506
 30
0.0
 11
214.931632
 21
250.427506
 31
0.0
  0
LINE
  5
1F1
100
AcDbEntity
  8
0
  6
DASHED
 62
     3
100
AcDbLine
 10
224.331632
 20
249.677506
 30
0.0
 11
214.931632
 21
249.677506
 31
0.0
  0
LINE
  5
1F2
100
AcDbEntity
  8
0
100
AcDbLine
 10
223.931632
 20
258.427506
 30
0.0
 11
223.931732
 21
258.427506
 31
0.0
  0
LINE
  5
1F3
100
AcDbEntity
  8
0
100
AcDbLine
 10
228.431632
 20
258.427506
 30
0.0
 11
228.431632
 21
258.427606
 31
0.0
  0
LINE
  5
1F4
100
AcDbEntity
  8
CENTER
  6
CENTER
 62
     1
100
AcDbLine
 10
368.173136
 20
264.974367
 30
0.0
 11
368.173136
 21
155.880645
 31
0.0
  0
CIRCLE
  5
1F5
100
AcDbEntity
  8
0
  6
DASHED
 62
     3
100
AcDbCircle
 10
368.173136
 20
210.427506
 30
0.0
 40
31.0
  0
CIRCLE
  5
1F6
100
AcDbEntity
  8
0
100
AcDbCircle
 10
368.173136
 20
210.427506
 30
0.0
 40
27.5
  0
LINE
  5
1F7
100
AcDbEntity
  8
0
100
AcDbLine
 10
401.173136
 20
245.284356
 30
0.0
 11
401.173136
 21
175.570656
 31
0.0
  0
LINE
  5
1F8
100
AcDbEntity
  8
0
100
AcDbLine
 10
335.173136
 20
245.284356
 30
0.0
 11
335.173136
 21
175.570656
 31
0.0
  0
CIRCLE
  5
1F9
100
AcDbEntity
  8
0
100
AcDbCircle
 10
368.173136
 20
210.427506
 30
0.0
 40
15.0
  0
LINE
  5
1FA
100
AcDbEntity
  8
CENTER
  6
CENTER
 62
     1
100
AcDbLine
 10
377.597496
 20
175.427506
 30
0.0
 11
398.748775
 21
175.427506
 31
0.0
  0
ARC
  5
1FB
100
AcDbEntity
  8
0
100
AcDbCircle
 10
368.173136
 20
210.427506
 30
0.0
 40
48.0
100
AcDbArc
 50
226.567463
 51
313.432537
  0
CIRCLE
  5
1FC
100
AcDbEntity
  8
0
 62
     3
100
AcDbCircle
 10
388.173136
 20
175.427506
 30
0.0
 40
5.0
  0
CIRCLE
  5
1FD
100
AcDbEntity
  8
0
100
AcDbCircle
 10
388.173136
 20
175.427506
 30
0.0
 40
4.25
  0
CIRCLE
  5
1FE
100
AcDbEntity
  8
0
100
AcDbCircle
 10
388.173136
 20
175.427506
 30
0.0
 40
7.0
  0
LINE
  5
1FF
100
AcDbEntity
  8
CENTER
  6
CENTER
 62
     1
100
AcDbLine
 10
358.748775
 20
175.427506
 30
0.0
 11
337.597496
 21
175.427506
 31
0.0
  0
CIRCLE
  5
200
100
AcDbEntity
  8
0
100
AcDbCircle
 10
348.173136
 20
175.427506
 30
0.0
 40
7.0
  0
CIRCLE
  5
201
100
AcDbEntity
  8
0
 62
     3
100
AcDbCircle
 10
348.173136
 20
175.427506
 30
0.0
 40
5.0
  0
LINE
  5
202
100
AcDbEntity
  8
CENTER
  6
CENTER
 62
     1
100
AcDbLine
 10
388.173136
 20
164.851866
 30
0.0
 11
388.173136
 21
186.003145
 31
0.0
  0
LINE
  5
203
100
AcDbEntity
  8
CENTER
  6
CENTER
 62
     1
100
AcDbLine
 10
348.173136
 20
164.851866
 30
0.0
 11
348.173136
 21
186.003145
 31
0.0
  0
CIRCLE
  5
204
100
AcDbEntity
  8
0
100
AcDbCircle
 10
348.173136
 20
175.427506
 30
0.0
 40
4.25
  0
LINE
  5
205
100
AcDbEntity
  8
CENTER
  6
CENTER
 62
     1
100
AcDbLine
 10
377.597496
 20
245.427506
 30
0.0
 11
398.748775
 21
245.427506
 31
0.0
  0
LINE
  5
206
100
AcDbEntity
  8
CENTER
  6
CENTER
 62
     1
100
AcDbLine
 10
328.500167
 20
210.427506
 30
0.0
 11
410.373551
 21
210.427506
 31
0.0
  0
CIRCLE
  5
207
100
AcDbEntity
  8
0
 62
     3
100
AcDbCircle
 10
388.173136
 20
245.427506
 30
0.0
 40
5.0
  0
CIRCLE
  5
208
100
AcDbEntity
  8
0
100
AcDbCircle
 10
388.173136
 20
245.427506
 30
0.0
 40
4.25
  0
CIRCLE
  5
209
100
AcDbEntity
  8
0
100
AcDbCircle
 10
388.173136
 20
245.427506
 30
0.0
 40
7.0
  0
ARC
  5
20A
100
AcDbEntity
  8
0
100
AcDbCircle
 10
368.173136
 20
210.427506
 30
0.0
 40
48.0
100
AcDbArc
 50
46.567463
 51
133.432537
  0
LINE
  5
20B
100
AcDbEntity
  8
CENTER
  6
CENTER
 62
     1
100
AcDbLine
 10
358.748775
 20
245.427506
 30
0.0
 11
337.597496
 21
245.427506
 31
0.0
  0
CIRCLE
  5
20C
100
AcDbEntity
  8
0
 62
     3
100
AcDbCircle
 10
348.173136
 20
245.427506
 30
0.0
 40
5.0
  0
CIRCLE
  5
20D
100
AcDbEntity
  8
0
100
AcDbCircle
 10
348.173136
 20
245.427506
 30
0.0
 40
7.0
  0
LINE
  5
20E
100
AcDbEntity
  8
CENTER
  6
CENTER
 62
     1
100
AcDbLine
 10
348.173136
 20
256.003145
 30
0.0
 11
348.173136
 21
234.851866
 31
0.0
  0
LINE
  5
20F
100
AcDbEntity
  8
CENTER
  6
CENTER
 62
     1
100
AcDbLine
 10
388.173136
 20
256.003145
 30
0.0
 11
388.173136
 21
234.851866
 31
0.0
  0
CIRCLE
  5
210
100
AcDbEntity
  8
0
100
AcDbCircle
 10
348.173136
 20
245.427506
 30
0.0
 40
4.25
  0
ENDSEC
  0
SECTION
  2
OBJECTS
  0
DICTIONARY
  5
10E
100
AcDbDictionary
  3
ACAD_GROUP
350
10F
  3
ACAD_LAYOUT
350
11B
  3
ACAD_MLINESTYLE
350
118
  3
ACAD_PLOTSETTINGS
350
11A
  3
ACAD_PLOTSTYLENAME
350
110
  3
ACDBHEADERROUNDTRIPXREC
350
21D
  3
AcDbVariableDictionary
350
246
  0
DICTIONARY
  5
21B
100
AcDbDictionary
280
     1
  3
ACAD_XREC_ROUNDTRIP
360
21C
  0
DICTIONARY
  5
217
100
AcDbDictionary
280
     1
  3
ACAD_XREC_ROUNDTRIP
360
218
  0
DICTIONARY
  5
219
100
AcDbDictionary
280
     1
  3
ACAD_XREC_ROUNDTRIP
360
21A
  0
DICTIONARY
  5
244
100
AcDbDictionary
280
     1
  3
ACAD_XREC_ROUNDTRIP
360
245
  0
DICTIONARY
  5
213
100
AcDbDictionary
280
     1
  3
ACAD_LAYOUTSELFREF
360
243
  3
ACAD_XREC_ROUNDTRIP
360
214
  0
DICTIONARY
  5
215
100
AcDbDictionary
280
     1
  3
ACAD_LAYOUTSELFREF
360
242
  3
ACAD_XREC_ROUNDTRIP
360
216
  0
DICTIONARY
  5
10F
102
{ACAD_REACTORS
330
10E
102
}
100
AcDbDictionary
  0
DICTIONARY
  5
11B
102
{ACAD_XDICTIONARY
360
240
102
}
102
{ACAD_REACTORS
330
10E
102
}
100
AcDbDictionary
  3
MODEL
350
123
  3
ﾚｲｱｳﾄ1
350
11F
  0
DICTIONARY
  5
118
102
{ACAD_XDICTIONARY
360
23E
102
}
102
{ACAD_REACTORS
330
10E
102
}
100
AcDbDictionary
  3
STANDARD
350
119
  0
DICTIONARY
  5
11A
102
{ACAD_REACTORS
330
10E
102
}
100
AcDbDictionary
  0
ACAD_PROXY_OBJECT
  5
110
102
{ACAD_REACTORS
330
10E
102
}
100
AcDbProxyObject
 90
      499
 91
      500
 93
       86
310
405010041939BDC9B585B0
350
111
340
111
 94
        0
  0
DICTIONARY
  5
21D
102
{ACAD_REACTORS
330
10E
102
}
100
AcDbDictionary
  3
CEPSNTYPE
350
227
  3
DIMSTYLEDATA
350
22B
  3
FINGERPRINTGUID
350
228
  3
HYPERLINKBASE
350
220
  3
INSUNITS
350
226
  3
LAYOUTDICT
350
222
  3
LWETCUNION
350
225
  3
PLOTSETDICT
350
223
  3
PLOTSTYLNAMDICT
350
224
  3
PSVPSCALE
350
22A
  3
PUCSBASE
350
22E
  3
PUCSORGBACK
350
234
  3
PUCSORGBOTTOM
350
230
  3
PUCSORGFRONT
350
233
  3
PUCSORGLEFT
350
231
  3
PUCSORGRIGHT
350
232
  3
PUCSORGTOP
350
22F
  3
PUCSORTHOREF
350
22C
  3
PUCSORTHOVIEW
350
22D
  3
STYLESHEET
350
221
  3
TSTACKALIGN
350
21E
  3
TSTACKSIZE
350
21F
  3
UCSBASE
350
237
  3
UCSORGBACK
350
23D
  3
UCSORGBOTTOM
350
239
  3
UCSORGFRONT
350
23C
  3
UCSORGLEFT
350
23A
  3
UCSORGRIGHT
350
23B
  3
UCSORGTOP
350
238
  3
UCSORTHOREF
350
235
  3
UCSORTHOVIEW
350
236
  3
VERSIONGUID
350
229
  0
DICTIONARY
  5
246
102
{ACAD_REACTORS
330
10E
102
}
100
AcDbDictionary
  3
DIMASSOC
350
247
  0
XRECORD
  5
21C
102
{ACAD_REACTORS
330
21B
102
}
100
AcDbXrecord
102
EXTNAMES
  1
*ACTIVE
  2
*Active
102
UCS
 74
     0
 71
     0
 10
0.0
 20
0.0
 30
0.0
 10
1.0
 20
0.0
 30
0.0
 10
0.0
 20
1.0
 30
0.0
146
0.0
 79
     0
102
VIEW
281
     0
  0
XRECORD
  5
218
102
{ACAD_REACTORS
330
217
102
}
100
AcDbXrecord
102
EXTNAMES
  1
BYBLOCK
  2
ByBlock
  0
XRECORD
  5
21A
102
{ACAD_REACTORS
330
219
102
}
100
AcDbXrecord
102
EXTNAMES
  1
BYLAYER
  2
ByLayer
  0
XRECORD
  5
245
102
{ACAD_REACTORS
330
244
102
}
100
AcDbXrecord
102
ACADR14ROUNDTRIP
1000
DSTYLE
1002
{
1070
   279
 70
     2
1002
}
  0
XRECORD
  5
243
102
{ACAD_REACTORS
330
213
102
}
100
AcDbXrecord
340
120
  0
XRECORD
  5
214
102
{ACAD_REACTORS
330
213
102
}
100
AcDbXrecord
102
EXTNAMES
  1
*MODEL_SPACE
  2
*Model_Space
  0
XRECORD
  5
242
102
{ACAD_REACTORS
330
215
102
}
100
AcDbXrecord
340
11C
  0
XRECORD
  5
216
102
{ACAD_REACTORS
330
215
102
}
100
AcDbXrecord
102
EXTNAMES
  1
*PAPER_SPACE
  2
*Paper_Space
  0
DICTIONARY
  5
240
100
AcDbDictionary
280
     1
  3
ACAD_XREC_ROUNDTRIP
360
241
  0
ACAD_PROXY_OBJECT
  5
123
102
{ACAD_REACTORS
330
11B
102
}
100
AcDbProxyObject
 90
      499
 91
      502
 93
      836
310
932433A5C50524F4752414D2046494C45535C4D4454365C706C6F74746572735C526F6C616E64204458592D313235302E7063332C01AAAAAAAAA5A69054D6F64656C901A800000000000000000000000000000000000000000000A1000000000000008902A6A6AAAA4
330
120
330
0
340
0
340
0
 94
        0
  0
ACAD_PROXY_OBJECT
  5
11F
102
{ACAD_REACTORS
330
11B
102
}
100
AcDbProxyObject
 90
      499
 91
      502
 93
     1244
310
932433A5C50524F4752414D2046494C45535C4D4454365C706C6F74746572735C526F6C616E64204458592D313235302E7063332C00AAAAAA416AA59106906DAB2B1B3C431406A800000000000000000000000000000000000000000101E900000000000241C902A6A6A10232D5E076BC5510408CB5781DAF154410232D5E0
310
76BC5510408CB5781DAF15C410232D5E076BC5710408CB5781DAF15C40
330
11C
330
0
340
0
340
0
 94
        0
  0
DICTIONARY
  5
23E
100
AcDbDictionary
280
     1
  3
ACAD_XREC_ROUNDTRIP
360
23F
  0
MLINESTYLE
  5
119
102
{ACAD_REACTORS
330
118
102
}
100
AcDbMlineStyle
  2
STANDARD
 70
     0
  3

 62
   256
 51
90.0
 52
90.0
 71
     2
 49
0.5
 62
   256
  6
BYLAYER
 49
-0.5
 62
   256
  6
BYLAYER
  0
ACAD_PROXY_OBJECT
  5
111
102
{ACAD_REACTORS
330
110
102
}
100
AcDbProxyObject
 90
      499
 91
      501
 93
        0
 94
        0
  0
XRECORD
  5
227
102
{ACAD_REACTORS
330
21D
102
}
100
AcDbXrecord
 90
        0
  0
XRECORD
  5
22B
102
{ACAD_REACTORS
330
21D
102
}
100
AcDbXrecord
1000
DSTYLE
1002
{
1070
   341
340
137
1070
   342
340
131
1070
   343
340
137
1070
   344
340
137
1002
}
  0
XRECORD
  5
228
102
{ACAD_REACTORS
330
21D
102
}
100
AcDbXrecord
  1
{90785C61-703A-475D-92BF-A87215218E67}
  0
XRECORD
  5
220
102
{ACAD_REACTORS
330
21D
102
}
100
AcDbXrecord
  1

  0
XRECORD
  5
226
102
{ACAD_REACTORS
330
21D
102
}
100
AcDbXrecord
 90
        0
  0
XRECORD
  5
222
102
{ACAD_REACTORS
330
21D
102
}
100
AcDbXrecord
340
11B
  0
XRECORD
  5
225
102
{ACAD_REACTORS
330
21D
102
}
100
AcDbXrecord
 90
    10781
  0
XRECORD
  5
223
102
{ACAD_REACTORS
330
21D
102
}
100
AcDbXrecord
340
11A
  0
XRECORD
  5
224
102
{ACAD_REACTORS
330
21D
102
}
100
AcDbXrecord
340
110
  0
XRECORD
  5
22A
102
{ACAD_REACTORS
330
21D
102
}
100
AcDbXrecord
 40
0.0
  0
XRECORD
  5
22E
102
{ACAD_REACTORS
330
21D
102
}
100
AcDbXrecord
340
0
  0
XRECORD
  5
234
102
{ACAD_REACTORS
330
21D
102
}
100
AcDbXrecord
 10
0.0
 20
0.0
 30
0.0
  0
XRECORD
  5
230
102
{ACAD_REACTORS
330
21D
102
}
100
AcDbXrecord
 10
0.0
 20
0.0
 30
0.0
  0
XRECORD
  5
233
102
{ACAD_REACTORS
330
21D
102
}
100
AcDbXrecord
 10
0.0
 20
0.0
 30
0.0
  0
XRECORD
  5
231
102
{ACAD_REACTORS
330
21D
102
}
100
AcDbXrecord
 10
0.0
 20
0.0
 30
0.0
  0
XRECORD
  5
232
102
{ACAD_REACTORS
330
21D
102
}
100
AcDbXrecord
 10
0.0
 20
0.0
 30
0.0
  0
XRECORD
  5
22F
102
{ACAD_REACTORS
330
21D
102
}
100
AcDbXrecord
 10
0.0
 20
0.0
 30
0.0
  0
XRECORD
  5
22C
102
{ACAD_REACTORS
330
21D
102
}
100
AcDbXrecord
340
0
  0
XRECORD
  5
22D
102
{ACAD_REACTORS
330
21D
102
}
100
AcDbXrecord
 70
     0
  0
XRECORD
  5
221
102
{ACAD_REACTORS
330
21D
102
}
100
AcDbXrecord
  1

  0
XRECORD
  5
21E
102
{ACAD_REACTORS
330
21D
102
}
100
AcDbXrecord
 90
        1
  0
XRECORD
  5
21F
102
{ACAD_REACTORS
330
21D
102
}
100
AcDbXrecord
 90
       70
  0
XRECORD
  5
237
102
{ACAD_REACTORS
330
21D
102
}
100
AcDbXrecord
340
0
  0
XRECORD
  5
23D
102
{ACAD_REACTORS
330
21D
102
}
100
AcDbXrecord
 10
0.0
 20
0.0
 30
0.0
  0
XRECORD
  5
239
102
{ACAD_REACTORS
330
21D
102
}
100
AcDbXrecord
 10
0.0
 20
0.0
 30
0.0
  0
XRECORD
  5
23C
102
{ACAD_REACTORS
330
21D
102
}
100
AcDbXrecord
 10
0.0
 20
0.0
 30
0.0
  0
XRECORD
  5
23A
102
{ACAD_REACTORS
330
21D
102
}
100
AcDbXrecord
 10
0.0
 20
0.0
 30
0.0
  0
XRECORD
  5
23B
102
{ACAD_REACTORS
330
21D
102
}
100
AcDbXrecord
 10
0.0
 20
0.0
 30
0.0
  0
XRECORD
  5
238
102
{ACAD_REACTORS
330
21D
102
}
100
AcDbXrecord
 10
0.0
 20
0.0
 30
0.0
  0
XRECORD
  5
235
102
{ACAD_REACTORS
330
21D
102
}
100
AcDbXrecord
340
0
  0
XRECORD
  5
236
102
{ACAD_REACTORS
330
21D
102
}
100
AcDbXrecord
 70
     0
  0
XRECORD
  5
229
102
{ACAD_REACTORS
330
21D
102
}
100
AcDbXrecord
  1
{DE88ED36-B6D8-4657-9F6D-3FAF0628654C}
  0
DICTIONARYVAR
  5
247
102
{ACAD_REACTORS
330
246
102
}
100
DictionaryVariables
280
     0
  1
1
  0
XRECORD
  5
241
102
{ACAD_REACTORS
330
240
102
}
100
AcDbXrecord
102
EXTNAMES
  1
MODEL
  2
Model
  0
XRECORD
  5
23F
102
{ACAD_REACTORS
330
23E
102
}
100
AcDbXrecord
102
EXTNAMES
  1
STANDARD
  2
Standard
  0
ENDSEC
  0
EOF
