  0
SECTION
  2
HEADER
  9
$ACADVER
  1
AC1014
  9
$ACADMAINTVER
 70
     0
  9
$DWGCODEPAGE
  3
ANSI_932
  9
$INSBASE
 10
0.0
 20
0.0
 30
0.0
  9
$EXTMIN
 10
192.078535
 20
147.839057
 30
0.0
  9
$EXTMAX
 10
378.17971
 20
249.76742
 30
0.0
  9
$LIMMIN
 10
0.0
 20
0.0
  9
$LIMMAX
 10
594.0
 20
420.0
  9
$ORTHOMODE
 70
     1
  9
$REGENMODE
 70
     1
  9
$FILLMODE
 70
     1
  9
$QTEXTMODE
 70
     0
  9
$MIRRTEXT
 70
     1
  9
$DRAGMODE
 70
     2
  9
$LTSCALE
 40
0.25
  9
$OSMODE
 70
    37
  9
$ATTMODE
 70
     1
  9
$TEXTSIZE
 40
4.0
  9
$TRACEWID
 40
1.0
  9
$TEXTSTYLE
  7
STANDARD
  9
$CLAYER
  8
0
  9
$CELTYPE
  6
CENTER
  9
$CECOLOR
 62
     3
  9
$CELTSCALE
 40
1.0
  9
$DELOBJ
 70
     1
  9
$DISPSILH
 70
     0
  9
$DIMSCALE
 40
2.0
  9
$DIMASZ
 40
3.0
  9
$DIMEXO
 40
1.0
  9
$DIMDLI
 40
10.0
  9
$DIMRND
 40
0.0
  9
$DIMDLE
 40
0.0
  9
$DIMEXE
 40
1.0
  9
$DIMTP
 40
0.0
  9
$DIMTM
 40
0.0
  9
$DIMTXT
 40
3.2
  9
$DIMCEN
 40
0.0
  9
$DIMTSZ
 40
0.0
  9
$DIMTOL
 70
     0
  9
$DIMLIM
 70
     0
  9
$DIMTIH
 70
     0
  9
$DIMTOH
 70
     0
  9
$DIMSE1
 70
     0
  9
$DIMSE2
 70
     0
  9
$DIMTAD
 70
     3
  9
$DIMZIN
 70
     8
  9
$DIMBLK
  1
ARROW
  9
$DIMASO
 70
     1
  9
$DIMSHO
 70
     1
  9
$DIMPOST
  1

  9
$DIMAPOST
  1

  9
$DIMALT
 70
     0
  9
$DIMALTD
 70
     2
  9
$DIMALTF
 40
0.04
  9
$DIMLFAC
 40
1.0
  9
$DIMTOFL
 70
     1
  9
$DIMTVP
 40
1.0
  9
$DIMTIX
 70
     0
  9
$DIMSOXD
 70
     0
  9
$DIMSAH
 70
     1
  9
$DIMBLK1
  1
OPEN
  9
$DIMBLK2
  1
OPEN
  9
$DIMSTYLE
  2
AA1
  9
$DIMCLRD
 70
     0
  9
$DIMCLRE
 70
     0
  9
$DIMCLRT
 70
     0
  9
$DIMTFAC
 40
0.6
  9
$DIMGAP
 40
1.0
  9
$DIMJUST
 70
     0
  9
$DIMSD1
 70
     0
  9
$DIMSD2
 70
     0
  9
$DIMTOLJ
 70
     1
  9
$DIMTZIN
 70
     0
  9
$DIMALTZ
 70
     0
  9
$DIMALTTZ
 70
     0
  9
$DIMFIT
 70
     3
  9
$DIMUPT
 70
     0
  9
$DIMUNIT
 70
     2
  9
$DIMDEC
 70
     4
  9
$DIMTDEC
 70
     4
  9
$DIMALTU
 70
     2
  9
$DIMALTTD
 70
     2
  9
$DIMTXSTY
  7
STANDARD
  9
$DIMAUNIT
 70
     0
  9
$LUNITS
 70
     2
  9
$LUPREC
 70
     2
  9
$SKETCHINC
 40
1.0
  9
$FILLETRAD
 40
10.0
  9
$AUNITS
 70
     0
  9
$AUPREC
 70
     0
  9
$MENU
  1
acad
  9
$ELEVATION
 40
0.0
  9
$PELEVATION
 40
0.0
  9
$THICKNESS
 40
0.0
  9
$LIMCHECK
 70
     0
  9
$BLIPMODE
 70
     0
  9
$CHAMFERA
 40
0.0
  9
$CHAMFERB
 40
0.0
  9
$CHAMFERC
 40
0.0
  9
$CHAMFERD
 40
0.0
  9
$SKPOLY
 70
     0
  9
$TDCREATE
 40
2451466.478100926
  9
$TDUPDATE
 40
2452821.744493981
  9
$TDINDWG
 40
0.0002128472
  9
$TDUSRTIMER
 40
0.0002128472
  9
$USRTIMER
 70
     1
  9
$ANGBASE
 50
0.0
  9
$ANGDIR
 70
     0
  9
$PDMODE
 70
     1
  9
$PDSIZE
 40
0.0
  9
$PLINEWID
 40
0.0
  9
$COORDS
 70
     1
  9
$SPLFRAME
 70
     0
  9
$SPLINETYPE
 70
     6
  9
$SPLINESEGS
 70
     8
  9
$ATTDIA
 70
     0
  9
$ATTREQ
 70
     1
  9
$HANDLING
 70
     1
  9
$HANDSEED
  5
24B
  9
$SURFTAB1
 70
     6
  9
$SURFTAB2
 70
     6
  9
$SURFTYPE
 70
     6
  9
$SURFU
 70
     6
  9
$SURFV
 70
     6
  9
$UCSNAME
  2

  9
$UCSORG
 10
0.0
 20
0.0
 30
0.0
  9
$UCSXDIR
 10
1.0
 20
0.0
 30
0.0
  9
$UCSYDIR
 10
0.0
 20
1.0
 30
0.0
  9
$PUCSNAME
  2

  9
$PUCSORG
 10
0.0
 20
0.0
 30
0.0
  9
$PUCSXDIR
 10
1.0
 20
0.0
 30
0.0
  9
$PUCSYDIR
 10
0.0
 20
1.0
 30
0.0
  9
$USERI1
 70
     0
  9
$USERI2
 70
     0
  9
$USERI3
 70
     0
  9
$USERI4
 70
     0
  9
$USERI5
 70
     0
  9
$USERR1
 40
0.0
  9
$USERR2
 40
0.0
  9
$USERR3
 40
0.0
  9
$USERR4
 40
0.0
  9
$USERR5
 40
0.0
  9
$WORLDVIEW
 70
     1
  9
$SHADEDGE
 70
     3
  9
$SHADEDIF
 70
    70
  9
$TILEMODE
 70
     1
  9
$MAXACTVP
 70
    16
  9
$PINSBASE
 10
0.0
 20
0.0
 30
0.0
  9
$PLIMCHECK
 70
     0
  9
$PEXTMIN
 10
1.000000E+20
 20
1.000000E+20
 30
1.000000E+20
  9
$PEXTMAX
 10
-1.000000E+20
 20
-1.000000E+20
 30
-1.000000E+20
  9
$PLIMMIN
 10
0.0
 20
0.0
  9
$PLIMMAX
 10
420.0
 20
297.0
  9
$UNITMODE
 70
     0
  9
$VISRETAIN
 70
     0
  9
$PLINEGEN
 70
     0
  9
$PSLTSCALE
 70
     0
  9
$TREEDEPTH
 70
  3020
  9
$PICKSTYLE
 70
     1
  9
$CMLSTYLE
  2
STANDARD
  9
$CMLJUST
 70
     0
  9
$CMLSCALE
 40
1.0
  9
$PROXYGRAPHICS
 70
     1
  9
$MEASUREMENT
 70
     0
  0
ENDSEC
  0
SECTION
  2
CLASSES
  0
CLASS
  1
ACDBDICTIONARYWDFLT
  2
AcDbDictionaryWithDefault
  3
AutoCAD 2000
 90
        0
280
     0
281
     0
  0
CLASS
  1
ACDBPLACEHOLDER
  2
AcDbPlaceHolder
  3
AutoCAD 2000
 90
        0
280
     0
281
     0
  0
CLASS
  1
LAYOUT
  2
AcDbLayout
  3
AutoCAD 2000
 90
        0
280
     0
281
     0
  0
CLASS
  1
DICTIONARYVAR
  2
AcDbDictionaryVar
  3
"AutoCAD"
 90
        0
280
     0
281
     0
  0
CLASS
  1
LONG_TRANSACTION
  2
AcDbLongTransaction
  3
AutoCAD 2000
 90
        0
280
     0
281
     0
  0
CLASS
  1
LWPOLYLINE
  2
AcDbPolyline
  3
"AutoCAD"
 90
        0
280
     0
281
     1
  0
CLASS
  1
HATCH
  2
AcDbHatch
  3
"ACAD_SEDONA"
 90
        0
280
     0
281
     1
  0
CLASS
  1
XRECORD
  2
AcDbXrecord
  3
"<Built In>"
 90
        0
280
     0
281
     0
  0
ENDSEC
  0
SECTION
  2
TABLES
  0
TABLE
  2
VPORT
  5
10A
100
AcDbSymbolTable
 70
     1
  0
VPORT
  5
212
102
{ACAD_XDICTIONARY
360
21B
102
}
100
AcDbSymbolTableRecord
100
AcDbViewportTableRecord
  2
*ACTIVE
 70
     0
 10
0.0
 20
0.0
 11
1.0
 21
1.0
 12
297.000001
 22
315.433306
 13
0.0
 23
0.0
 14
10.0
 24
10.0
 15
0.0
 25
0.0
 16
0.0
 26
0.0
 36
1.0
 17
0.0
 27
0.0
 37
0.0
 40
692.616442
 41
1.530211
 42
50.0
 43
0.0
 44
0.0
 50
0.0
 51
0.0
 71
     0
 72
   100
 73
     1
 74
     0
 75
     0
 76
     0
 77
     0
 78
     1
  0
ENDTAB
  0
TABLE
  2
LTYPE
  5
107
100
AcDbSymbolTable
 70
     3
  0
LTYPE
  5
115
102
{ACAD_XDICTIONARY
360
217
102
}
100
AcDbSymbolTableRecord
100
AcDbLinetypeTableRecord
  2
BYBLOCK
 70
     0
  3

 72
    65
 73
     0
 40
0.0
  0
LTYPE
  5
116
102
{ACAD_XDICTIONARY
360
219
102
}
100
AcDbSymbolTableRecord
100
AcDbLinetypeTableRecord
  2
BYLAYER
 70
     0
  3

 72
    65
 73
     0
 40
0.0
  0
LTYPE
  5
117
100
AcDbSymbolTableRecord
100
AcDbLinetypeTableRecord
  2
CONTINUOUS
 70
     0
  3
Solid line
 72
    65
 73
     0
 40
0.0
  0
LTYPE
  5
124
100
AcDbSymbolTableRecord
100
AcDbLinetypeTableRecord
  2
CENTER
 70
     0
  3
____ _ ____ _ ____ _ ____ _ ____ _ ____ _ ____ 
 72
    65
 73
     4
 40
50.8
 49
31.75
 74
     0
 49
-6.35
 74
     0
 49
6.35
 74
     0
 49
-6.35
 74
     0
  0
LTYPE
  5
126
100
AcDbSymbolTableRecord
100
AcDbLinetypeTableRecord
  2
DASHED
 70
     0
  3
__ __ __ __ __ __ __ __ __ __ __ __ __ __ __ __
 72
    65
 73
     2
 40
0.75
 49
0.5
 74
     0
 49
-0.25
 74
     0
  0
ENDTAB
  0
TABLE
  2
LAYER
  5
104
100
AcDbSymbolTable
 70
     3
  0
LAYER
  5
112
100
AcDbSymbolTableRecord
100
AcDbLayerTableRecord
  2
0
 70
     0
 62
     7
  6
CONTINUOUS
  0
LAYER
  5
127
100
AcDbSymbolTableRecord
100
AcDbLayerTableRecord
  2
DIMENSION
 70
     0
 62
    -4
  6
CONTINUOUS
  0
LAYER
  5
128
100
AcDbSymbolTableRecord
100
AcDbLayerTableRecord
  2
CENTER
 70
     0
 62
     1
  6
CENTER
  0
ENDTAB
  0
TABLE
  2
STYLE
  5
105
100
AcDbSymbolTable
 70
     1
  0
STYLE
  5
113
100
AcDbSymbolTableRecord
100
AcDbTextStyleTableRecord
  2
STANDARD
 70
     0
 40
0.0
 41
1.0
 50
0.0
 71
     0
 42
0.2
  3
txt
  4

  0
ENDTAB
  0
TABLE
  2
VIEW
  5
108
100
AcDbSymbolTable
 70
     0
  0
ENDTAB
  0
TABLE
  2
UCS
  5
109
100
AcDbSymbolTable
 70
     0
  0
ENDTAB
  0
TABLE
  2
APPID
  5
10B
100
AcDbSymbolTable
 70
     1
  0
APPID
  5
114
100
AcDbSymbolTableRecord
100
AcDbRegAppTableRecord
  2
ACAD
 70
     0
  0
ENDTAB
  0
TABLE
  2
DIMSTYLE
  5
10C
100
AcDbSymbolTable
 70
     1
  0
DIMSTYLE
105
129
102
{ACAD_XDICTIONARY
360
244
102
}
100
AcDbSymbolTableRecord
100
AcDbDimStyleTableRecord
  2
AA1
 70
     0
  3

  4

  5

  6

  7

 40
2.0
 41
3.0
 42
1.0
 43
10.0
 44
1.0
 45
0.0
 46
0.0
 47
0.0
 48
0.0
140
3.2
141
0.0
142
0.0
143
0.04
144
1.0
145
1.0
146
0.6
147
0.0
 71
     0
 72
     0
 73
     0
 74
     0
 75
     0
 76
     0
 77
     0
 78
     8
170
     0
171
     2
172
     1
173
     0
174
     0
175
     0
176
     0
177
     0
178
     0
270
     2
271
     2
272
     2
273
     2
274
     2
340
113
275
     0
280
     0
281
     0
282
     0
283
     1
284
     8
285
     8
286
     8
287
     5
288
     0
  0
ENDTAB
  0
TABLE
  2
BLOCK_RECORD
  5
103
100
AcDbSymbolTable
 70
     4
  0
BLOCK_RECORD
  5
120
102
{ACAD_XDICTIONARY
360
213
102
}
100
AcDbSymbolTableRecord
100
AcDbBlockTableRecord
  2
*MODEL_SPACE
  0
BLOCK_RECORD
  5
11C
102
{ACAD_XDICTIONARY
360
215
102
}
100
AcDbSymbolTableRecord
100
AcDbBlockTableRecord
  2
*PAPER_SPACE
  0
BLOCK_RECORD
  5
12B
100
AcDbSymbolTableRecord
100
AcDbBlockTableRecord
  2
$MODEL_SPACE
  0
BLOCK_RECORD
  5
12E
100
AcDbSymbolTableRecord
100
AcDbBlockTableRecord
  2
$PAPER_SPACE
  0
BLOCK_RECORD
  5
131
100
AcDbSymbolTableRecord
100
AcDbBlockTableRecord
  2
ARROW
  0
BLOCK_RECORD
  5
137
100
AcDbSymbolTableRecord
100
AcDbBlockTableRecord
  2
_OPEN
  0
ENDTAB
  0
ENDSEC
  0
SECTION
  2
BLOCKS
  0
BLOCK
  5
121
100
AcDbEntity
  8
0
100
AcDbBlockBegin
  2
*MODEL_SPACE
 70
     0
 10
0.0
 20
0.0
 30
0.0
  3
*MODEL_SPACE
  1

  0
ENDBLK
  5
122
100
AcDbEntity
  8
0
100
AcDbBlockEnd
  0
BLOCK
  5
11D
100
AcDbEntity
 67
     1
  8
0
100
AcDbBlockBegin
  2
*PAPER_SPACE
 70
     0
 10
0.0
 20
0.0
 30
0.0
  3
*PAPER_SPACE
  1

  0
ENDBLK
  5
11E
100
AcDbEntity
 67
     1
  8
0
100
AcDbBlockEnd
  0
BLOCK
  5
12C
100
AcDbEntity
  8
0
100
AcDbBlockBegin
  2
$MODEL_SPACE
 70
     0
 10
0.0
 20
0.0
 30
0.0
  3
$MODEL_SPACE
  1

  0
ENDBLK
  5
12D
100
AcDbEntity
  8
0
100
AcDbBlockEnd
  0
BLOCK
  5
12F
100
AcDbEntity
  8
0
100
AcDbBlockBegin
  2
$PAPER_SPACE
 70
     0
 10
0.0
 20
0.0
 30
0.0
  3
$PAPER_SPACE
  1

  0
ENDBLK
  5
130
100
AcDbEntity
  8
0
100
AcDbBlockEnd
  0
BLOCK
  5
132
100
AcDbEntity
  8
0
100
AcDbBlockBegin
  2
ARROW
 70
     0
 10
0.0
 20
0.0
 30
0.0
  3
ARROW
  1

  0
LINE
  5
133
100
AcDbEntity
  8
DIMENSION
100
AcDbLine
 10
0.0
 20
0.0
 30
0.0
 11
-1.0
 21
0.176327
 31
0.0
  0
LINE
  5
134
100
AcDbEntity
  8
DIMENSION
100
AcDbLine
 10
0.0
 20
0.0
 30
0.0
 11
-1.0
 21
-0.176327
 31
0.0
  0
LINE
  5
135
100
AcDbEntity
  8
DIMENSION
100
AcDbLine
 10
-1.0
 20
0.0
 30
0.0
 11
0.0
 21
0.0
 31
0.0
  0
ENDBLK
  5
136
100
AcDbEntity
  8
0
100
AcDbBlockEnd
  0
BLOCK
  5
138
100
AcDbEntity
  8
0
100
AcDbBlockBegin
  2
_OPEN
 70
     0
 10
0.0
 20
0.0
 30
0.0
  3
_OPEN
  1

  0
LINE
  5
139
100
AcDbEntity
  8
0
  6
BYBLOCK
 62
     0
100
AcDbLine
 10
-1.0
 20
0.166667
 30
0.0
 11
0.0
 21
0.0
 31
0.0
  0
LINE
  5
13A
100
AcDbEntity
  8
0
  6
BYBLOCK
 62
     0
100
AcDbLine
 10
0.0
 20
0.0
 30
0.0
 11
-1.0
 21
-0.166667
 31
0.0
  0
LINE
  5
13B
100
AcDbEntity
  8
0
  6
BYBLOCK
 62
     0
100
AcDbLine
 10
0.0
 20
0.0
 30
0.0
 11
-1.0
 21
0.0
 31
0.0
  0
ENDBLK
  5
13C
100
AcDbEntity
  8
0
100
AcDbBlockEnd
  0
ENDSEC
  0
SECTION
  2
ENTITIES
  0
LINE
  5
13D
100
AcDbEntity
  8
0
  6
DASHED
 62
     3
100
AcDbLine
 10
195.078535
 20
225.803238
 30
0.0
 11
195.078535
 21
171.803238
 31
0.0
  0
LINE
  5
13E
100
AcDbEntity
  8
0
100
AcDbLine
 10
209.028535
 20
174.053238
 30
0.0
 11
209.028535
 21
223.553238
 31
0.0
  0
LINE
  5
13F
100
AcDbEntity
  8
0
100
AcDbLine
 10
195.078535
 20
176.303238
 30
0.0
 11
195.078535
 21
221.303238
 31
0.0
  0
LINE
  5
140
100
AcDbEntity
  8
0
100
AcDbLine
 10
207.078535
 20
174.053238
 30
0.0
 11
207.078535
 21
223.553238
 31
0.0
  0
LINE
  5
141
100
AcDbEntity
  8
0
100
AcDbLine
 10
211.078535
 20
242.803238
 30
0.0
 11
211.078535
 21
154.803238
 31
0.0
  0
LINE
  5
142
100
AcDbEntity
  8
0
100
AcDbLine
 10
193.078535
 20
225.803238
 30
0.0
 11
193.078535
 21
171.803238
 31
0.0
  0
LINE
  5
145
100
AcDbEntity
  8
CENTER
  6
CENTER
 62
     1
100
AcDbLine
 10
212.078535
 20
198.803238
 30
0.0
 11
192.078535
 21
198.803238
 31
0.0
  0
LINE
  5
146
100
AcDbEntity
  8
CENTER
  6
CENTER
 62
     1
100
AcDbLine
 10
212.078535
 20
167.303238
 30
0.0
 11
192.078535
 21
167.303238
 31
0.0
  0
LINE
  5
147
100
AcDbEntity
  8
0
100
AcDbLine
 10
211.078535
 20
154.803238
 30
0.0
 11
195.078535
 21
154.803238
 31
0.0
  0
LINE
  5
148
100
AcDbEntity
  8
0
  6
DASHED
 62
     3
100
AcDbLine
 10
211.078535
 20
174.303238
 30
0.0
 11
202.478535
 21
174.303238
 31
0.0
  0
LINE
  5
149
100
AcDbEntity
  8
0
  6
DASHED
 62
     3
100
AcDbLine
 10
211.078535
 20
160.303238
 30
0.0
 11
202.478535
 21
160.303238
 31
0.0
  0
LINE
  5
14A
100
AcDbEntity
  8
0
100
AcDbLine
 10
205.575938
 20
178.853238
 30
0.0
 11
203.584154
 21
178.853238
 31
0.0
  0
LINE
  5
14B
100
AcDbEntity
  8
0
100
AcDbLine
 10
196.078535
 20
175.303238
 30
0.0
 11
207.078535
 21
175.303238
 31
0.0
  0
LINE
  5
14C
100
AcDbEntity
  8
0
100
AcDbLine
 10
205.440432
 20
182.753248
 30
0.0
 11
203.584146
 21
182.753248
 31
0.0
  0
LINE
  5
14D
100
AcDbEntity
  8
0
100
AcDbLine
 10
196.078535
 20
186.303238
 30
0.0
 11
206.078535
 21
186.303238
 31
0.0
  0
CIRCLE
  5
14E
100
AcDbEntity
  8
0
100
AcDbCircle
 10
201.078535
 20
180.803238
 30
0.0
 40
3.175
  0
LINE
  5
14F
100
AcDbEntity
  8
0
100
AcDbLine
 10
195.078535
 20
154.803238
 30
0.0
 11
195.078535
 21
171.803238
 31
0.0
  0
LINE
  5
150
100
AcDbEntity
  8
0
  6
DASHED
 62
     3
100
AcDbLine
 10
202.478535
 20
160.303238
 30
0.0
 11
202.478535
 21
174.303238
 31
0.0
  0
LINE
  5
151
100
AcDbEntity
  8
0
  6
DASHED
 62
     3
100
AcDbLine
 10
202.478535
 20
163.053238
 30
0.0
 11
195.078535
 21
163.053238
 31
0.0
  0
LINE
  5
152
100
AcDbEntity
  8
0
  6
DASHED
 62
     3
100
AcDbLine
 10
202.478535
 20
162.303238
 30
0.0
 11
195.078535
 21
162.303238
 31
0.0
  0
LINE
  5
153
100
AcDbEntity
  8
0
  6
DASHED
 62
     3
100
AcDbLine
 10
202.478535
 20
172.303238
 30
0.0
 11
195.078535
 21
172.303238
 31
0.0
  0
LINE
  5
154
100
AcDbEntity
  8
0
  6
DASHED
 62
     3
100
AcDbLine
 10
202.478535
 20
171.553238
 30
0.0
 11
195.078535
 21
171.553238
 31
0.0
  0
LINE
  5
155
100
AcDbEntity
  8
0
100
AcDbLine
 10
195.078535
 20
171.803238
 30
0.0
 11
193.078535
 21
171.803238
 31
0.0
  0
ARC
  5
156
100
AcDbEntity
  8
0
100
AcDbCircle
 10
196.078535
 20
176.303238
 30
0.0
 40
1.0
100
AcDbArc
 50
180.0
 51
270.0
  0
ARC
  5
157
100
AcDbEntity
  8
0
100
AcDbCircle
 10
196.078535
 20
185.303238
 30
0.0
 40
1.0
100
AcDbArc
 50
90.0
 51
180.0
  0
LINE
  5
158
100
AcDbEntity
  8
0
100
AcDbLine
 10
196.581133
 20
178.853238
 30
0.0
 11
198.572917
 21
178.853238
 31
0.0
  0
LINE
  5
159
100
AcDbEntity
  8
0
100
AcDbLine
 10
196.716638
 20
182.753248
 30
0.0
 11
198.572924
 21
182.753248
 31
0.0
  0
LINE
  5
15A
100
AcDbEntity
  8
0
100
AcDbLine
 10
196.461535
 20
178.533248
 30
0.0
 11
196.461535
 21
179.003098
 31
0.0
  0
LINE
  5
15B
100
AcDbEntity
  8
0
100
AcDbLine
 10
196.416861
 20
178.022482
 30
0.0
 11
196.481513
 21
178.761948
 31
0.0
  0
ARC
  5
15C
100
AcDbEntity
  8
0
100
AcDbCircle
 10
196.581133
 20
178.753238
 30
0.0
 40
0.1
100
AcDbArc
 50
90.0
 51
175.003307
  0
LINE
  5
15D
100
AcDbEntity
  8
0
100
AcDbLine
 10
195.178535
 20
178.153248
 30
0.0
 11
195.638589
 21
178.153248
 31
0.0
  0
LINE
  5
15E
100
AcDbEntity
  8
0
100
AcDbLine
 10
195.078535
 20
178.303238
 30
0.0
 11
193.078535
 21
178.303238
 31
0.0
  0
ARC
  5
15F
100
AcDbEntity
  8
0
100
AcDbCircle
 10
195.178535
 20
178.053248
 30
0.0
 40
0.1
100
AcDbArc
 50
90.0
 51
180.0
  0
LINE
  5
160
100
AcDbEntity
  8
0
100
AcDbLine
 10
195.791545
 20
178.282307
 30
0.0
 11
196.041862
 21
177.983965
 31
0.0
  0
ARC
  5
161
100
AcDbEntity
  8
0
100
AcDbCircle
 10
196.11847
 20
178.048241
 30
0.0
 40
0.1
100
AcDbArc
 50
219.997661
 51
357.180247
  0
LINE
  5
162
100
AcDbEntity
  8
0
100
AcDbLine
 10
195.816525
 20
178.563291
 30
0.0
 11
195.944515
 21
178.410291
 31
0.0
  0
LINE
  5
163
100
AcDbEntity
  8
0
100
AcDbLine
 10
195.944515
 20
178.410291
 30
0.0
 11
195.791545
 21
178.282307
 31
0.0
  0
LINE
  5
164
100
AcDbEntity
  8
0
100
AcDbLine
 10
196.218348
 20
178.043322
 30
0.0
 11
196.261537
 21
178.920186
 31
0.0
  0
ARC
  5
165
100
AcDbEntity
  8
0
100
AcDbCircle
 10
195.791774
 20
178.281834
 30
0.0
 40
0.2
100
AcDbArc
 50
129.913694
 51
219.998813
  0
LINE
  5
166
100
AcDbEntity
  8
0
100
AcDbLine
 10
195.638563
 20
178.15328
 30
0.0
 11
195.888184
 21
177.85578
 31
0.0
  0
LINE
  5
167
100
AcDbEntity
  8
0
100
AcDbLine
 10
195.816525
 20
178.563291
 30
0.0
 11
195.663447
 21
178.435236
 31
0.0
  0
LINE
  5
168
100
AcDbEntity
  8
0
100
AcDbLine
 10
196.261537
 20
178.920186
 30
0.0
 11
195.511535
 21
179.670228
 31
0.0
  0
ARC
  5
169
100
AcDbEntity
  8
0
100
AcDbCircle
 10
196.118001
 20
178.048612
 30
0.0
 40
0.3
100
AcDbArc
 50
219.998813
 51
355.003307
  0
LINE
  5
16A
100
AcDbEntity
  8
0
100
AcDbLine
 10
196.461535
 20
179.003098
 30
0.0
 11
195.711535
 21
179.753078
 31
0.0
  0
ARC
  5
16B
100
AcDbEntity
  8
0
100
AcDbCircle
 10
196.716638
 20
182.953248
 30
0.0
 40
0.2
100
AcDbArc
 50
200.007854
 51
270.0
  0
LINE
  5
16C
100
AcDbEntity
  8
0
100
AcDbLine
 10
195.278535
 20
183.353258
 30
0.0
 11
195.578527
 21
183.353258
 31
0.0
  0
ARC
  5
16D
100
AcDbEntity
  8
0
100
AcDbCircle
 10
195.278535
 20
183.553258
 30
0.0
 40
0.2
100
AcDbArc
 50
180.0
 51
270.0
  0
ARC
  5
16E
100
AcDbEntity
  8
0
100
AcDbCircle
 10
196.007366
 20
183.553248
 30
0.0
 40
0.2
100
AcDbArc
 50
90.0
 51
140.005496
  0
LINE
  5
16F
100
AcDbEntity
  8
0
100
AcDbLine
 10
196.007366
 20
183.753248
 30
0.0
 11
196.072471
 21
183.753248
 31
0.0
  0
ARC
  5
170
100
AcDbEntity
  8
0
100
AcDbCircle
 10
196.072471
 20
183.553248
 30
0.0
 40
0.2
100
AcDbArc
 50
20.007854
 51
90.0
  0
LINE
  5
171
100
AcDbEntity
  8
0
100
AcDbLine
 10
196.161535
 20
183.153258
 30
0.0
 11
196.161535
 21
182.953248
 31
0.0
  0
ARC
  5
172
100
AcDbEntity
  8
0
100
AcDbCircle
 10
195.711535
 20
182.953258
 30
0.0
 40
0.2
100
AcDbArc
 50
90.0
 51
180.0
  0
LINE
  5
173
100
AcDbEntity
  8
0
100
AcDbLine
 10
196.161535
 20
182.953248
 30
0.0
 11
195.711535
 21
182.953248
 31
0.0
  0
LINE
  5
174
100
AcDbEntity
  8
0
100
AcDbLine
 10
195.711535
 20
183.153258
 30
0.0
 11
196.161535
 21
183.153258
 31
0.0
  0
LINE
  5
175
100
AcDbEntity
  8
0
100
AcDbLine
 10
195.578527
 20
183.353258
 30
0.0
 11
195.854145
 21
183.681791
 31
0.0
  0
LINE
  5
176
100
AcDbEntity
  8
0
100
AcDbLine
 10
196.2604
 20
183.621678
 30
0.0
 11
196.528709
 21
182.884819
 31
0.0
  0
LINE
  5
177
100
AcDbEntity
  8
0
100
AcDbLine
 10
195.711535
 20
179.753078
 30
0.0
 11
195.711535
 21
182.953248
 31
0.0
  0
LINE
  5
178
100
AcDbEntity
  8
0
100
AcDbLine
 10
195.511535
 20
179.670228
 30
0.0
 11
195.511535
 21
182.953258
 31
0.0
  0
LINE
  5
179
100
AcDbEntity
  8
0
100
AcDbLine
 10
211.078535
 20
175.303238
 30
0.0
 11
209.028535
 21
175.303238
 31
0.0
  0
ARC
  5
17A
100
AcDbEntity
  8
0
100
AcDbCircle
 10
206.078535
 20
176.303238
 30
0.0
 40
1.0
100
AcDbArc
 50
270.0
 51
0.0
  0
LINE
  5
17B
100
AcDbEntity
  8
0
100
AcDbLine
 10
209.028535
 20
174.053238
 30
0.0
 11
207.078535
 21
174.053238
 31
0.0
  0
ARC
  5
17C
100
AcDbEntity
  8
0
100
AcDbCircle
 10
206.078535
 20
185.303238
 30
0.0
 40
1.0
100
AcDbArc
 50
0.0
 51
90.0
  0
LINE
  5
17D
100
AcDbEntity
  8
0
100
AcDbLine
 10
209.028535
 20
178.553238
 30
0.0
 11
207.078535
 21
178.553238
 31
0.0
  0
LINE
  5
17E
100
AcDbEntity
  8
0
100
AcDbLine
 10
206.978535
 20
178.153248
 30
0.0
 11
206.518482
 21
178.153248
 31
0.0
  0
LINE
  5
17F
100
AcDbEntity
  8
0
100
AcDbLine
 10
206.365525
 20
178.282307
 30
0.0
 11
206.115208
 21
177.983965
 31
0.0
  0
LINE
  5
180
100
AcDbEntity
  8
0
100
AcDbLine
 10
206.518508
 20
178.15328
 30
0.0
 11
206.268887
 21
177.85578
 31
0.0
  0
ARC
  5
181
100
AcDbEntity
  8
0
100
AcDbCircle
 10
206.365297
 20
178.281834
 30
0.0
 40
0.2
100
AcDbArc
 50
320.001187
 51
50.086306
  0
LINE
  5
182
100
AcDbEntity
  8
0
100
AcDbLine
 10
206.340546
 20
178.563291
 30
0.0
 11
206.493623
 21
178.435236
 31
0.0
  0
LINE
  5
183
100
AcDbEntity
  8
0
100
AcDbLine
 10
206.212556
 20
178.410291
 30
0.0
 11
206.365525
 21
178.282307
 31
0.0
  0
LINE
  5
184
100
AcDbEntity
  8
0
100
AcDbLine
 10
206.340546
 20
178.563291
 30
0.0
 11
206.212556
 21
178.410291
 31
0.0
  0
ARC
  5
185
100
AcDbEntity
  8
0
100
AcDbCircle
 10
205.575938
 20
178.753238
 30
0.0
 40
0.1
100
AcDbArc
 50
4.996693
 51
90.0
  0
LINE
  5
186
100
AcDbEntity
  8
0
100
AcDbLine
 10
205.74021
 20
178.022482
 30
0.0
 11
205.675558
 21
178.761948
 31
0.0
  0
LINE
  5
187
100
AcDbEntity
  8
0
100
AcDbLine
 10
205.938722
 20
178.043322
 30
0.0
 11
205.895533
 21
178.920186
 31
0.0
  0
LINE
  5
188
100
AcDbEntity
  8
0
100
AcDbLine
 10
205.695535
 20
178.533248
 30
0.0
 11
205.695535
 21
179.003098
 31
0.0
  0
ARC
  5
189
100
AcDbEntity
  8
0
100
AcDbCircle
 10
206.038601
 20
178.048241
 30
0.0
 40
0.1
100
AcDbArc
 50
182.819753
 51
320.002339
  0
ARC
  5
18A
100
AcDbEntity
  8
0
100
AcDbCircle
 10
206.039069
 20
178.048612
 30
0.0
 40
0.3
100
AcDbArc
 50
184.996693
 51
320.001187
  0
LINE
  5
18B
100
AcDbEntity
  8
0
100
AcDbLine
 10
205.895533
 20
178.920186
 30
0.0
 11
206.645535
 21
179.670228
 31
0.0
  0
LINE
  5
18C
100
AcDbEntity
  8
0
100
AcDbLine
 10
205.695535
 20
179.003098
 30
0.0
 11
206.445535
 21
179.753078
 31
0.0
  0
ARC
  5
18D
100
AcDbEntity
  8
0
100
AcDbCircle
 10
206.978535
 20
178.053248
 30
0.0
 40
0.1
100
AcDbArc
 50
0.0
 51
90.0
  0
ARC
  5
18E
100
AcDbEntity
  8
0
100
AcDbCircle
 10
206.878535
 20
183.553258
 30
0.0
 40
0.2
100
AcDbArc
 50
270.0
 51
0.0
  0
ARC
  5
18F
100
AcDbEntity
  8
0
100
AcDbCircle
 10
205.440432
 20
182.953248
 30
0.0
 40
0.2
100
AcDbArc
 50
270.0
 51
339.992146
  0
LINE
  5
190
100
AcDbEntity
  8
0
100
AcDbLine
 10
205.995535
 20
182.953248
 30
0.0
 11
206.445535
 21
182.953248
 31
0.0
  0
LINE
  5
191
100
AcDbEntity
  8
0
100
AcDbLine
 10
206.149704
 20
183.753248
 30
0.0
 11
206.0846
 21
183.753248
 31
0.0
  0
ARC
  5
192
100
AcDbEntity
  8
0
100
AcDbCircle
 10
206.149704
 20
183.553248
 30
0.0
 40
0.2
100
AcDbArc
 50
39.994504
 51
90.0
  0
LINE
  5
193
100
AcDbEntity
  8
0
100
AcDbLine
 10
206.578544
 20
183.353258
 30
0.0
 11
206.302926
 21
183.681791
 31
0.0
  0
LINE
  5
194
100
AcDbEntity
  8
0
100
AcDbLine
 10
206.878535
 20
183.353258
 30
0.0
 11
206.578544
 21
183.353258
 31
0.0
  0
ARC
  5
195
100
AcDbEntity
  8
0
100
AcDbCircle
 10
206.0846
 20
183.553248
 30
0.0
 40
0.2
100
AcDbArc
 50
90.0
 51
159.992146
  0
LINE
  5
196
100
AcDbEntity
  8
0
100
AcDbLine
 10
206.445535
 20
183.153258
 30
0.0
 11
205.995535
 21
183.153258
 31
0.0
  0
LINE
  5
197
100
AcDbEntity
  8
0
100
AcDbLine
 10
205.896671
 20
183.621678
 30
0.0
 11
205.628362
 21
182.884819
 31
0.0
  0
ARC
  5
198
100
AcDbEntity
  8
0
100
AcDbCircle
 10
206.445535
 20
182.953258
 30
0.0
 40
0.2
100
AcDbArc
 50
0.0
 51
90.0
  0
LINE
  5
199
100
AcDbEntity
  8
0
100
AcDbLine
 10
205.995535
 20
183.153258
 30
0.0
 11
205.995535
 21
182.953248
 31
0.0
  0
LINE
  5
19A
100
AcDbEntity
  8
0
100
AcDbLine
 10
206.645535
 20
179.670228
 30
0.0
 11
206.645535
 21
182.953258
 31
0.0
  0
LINE
  5
19B
100
AcDbEntity
  8
0
100
AcDbLine
 10
206.445535
 20
179.753078
 30
0.0
 11
206.445535
 21
182.953248
 31
0.0
  0
LINE
  5
19C
100
AcDbEntity
  8
CENTER
  6
CENTER
 62
     1
100
AcDbLine
 10
212.078535
 20
230.303238
 30
0.0
 11
192.078535
 21
230.303238
 31
0.0
  0
LINE
  5
19D
100
AcDbEntity
  8
0
  6
DASHED
 62
     3
100
AcDbLine
 10
211.078535
 20
237.303238
 30
0.0
 11
202.478535
 21
237.303238
 31
0.0
  0
LINE
  5
19E
100
AcDbEntity
  8
0
  6
DASHED
 62
     3
100
AcDbLine
 10
211.078535
 20
223.303238
 30
0.0
 11
202.478535
 21
223.303238
 31
0.0
  0
LINE
  5
19F
100
AcDbEntity
  8
0
100
AcDbLine
 10
196.078535
 20
211.303238
 30
0.0
 11
206.078535
 21
211.303238
 31
0.0
  0
CIRCLE
  5
1A0
100
AcDbEntity
  8
0
100
AcDbCircle
 10
201.078535
 20
216.803238
 30
0.0
 40
3.175
  0
LINE
  5
1A1
100
AcDbEntity
  8
0
100
AcDbLine
 10
196.078535
 20
222.303238
 30
0.0
 11
207.078535
 21
222.303238
 31
0.0
  0
LINE
  5
1A2
100
AcDbEntity
  8
0
100
AcDbLine
 10
205.440432
 20
214.853228
 30
0.0
 11
203.584146
 21
214.853228
 31
0.0
  0
LINE
  5
1A3
100
AcDbEntity
  8
0
100
AcDbLine
 10
205.575938
 20
218.753238
 30
0.0
 11
203.584154
 21
218.753238
 31
0.0
  0
LINE
  5
1A4
100
AcDbEntity
  8
0
100
AcDbLine
 10
211.078535
 20
242.803238
 30
0.0
 11
195.078535
 21
242.803238
 31
0.0
  0
LINE
  5
1A5
100
AcDbEntity
  8
0
  6
DASHED
 62
     3
100
AcDbLine
 10
202.478535
 20
237.303238
 30
0.0
 11
202.478535
 21
223.303238
 31
0.0
  0
LINE
  5
1A6
100
AcDbEntity
  8
0
100
AcDbLine
 10
195.078535
 20
242.803238
 30
0.0
 11
195.078535
 21
225.803238
 31
0.0
  0
LINE
  5
1A7
100
AcDbEntity
  8
0
100
AcDbLine
 10
196.461535
 20
218.603378
 30
0.0
 11
195.711535
 21
217.853398
 31
0.0
  0
LINE
  5
1A8
100
AcDbEntity
  8
0
100
AcDbLine
 10
196.261537
 20
218.68629
 30
0.0
 11
195.511535
 21
217.936248
 31
0.0
  0
LINE
  5
1A9
100
AcDbEntity
  8
0
100
AcDbLine
 10
196.716638
 20
214.853228
 30
0.0
 11
198.572924
 21
214.853228
 31
0.0
  0
ARC
  5
1AA
100
AcDbEntity
  8
0
100
AcDbCircle
 10
196.716638
 20
214.653228
 30
0.0
 40
0.2
100
AcDbArc
 50
90.0
 51
159.992146
  0
ARC
  5
1AB
100
AcDbEntity
  8
0
100
AcDbCircle
 10
196.007366
 20
214.053228
 30
0.0
 40
0.2
100
AcDbArc
 50
219.994504
 51
270.0
  0
LINE
  5
1AC
100
AcDbEntity
  8
0
100
AcDbLine
 10
196.007366
 20
213.853228
 30
0.0
 11
196.072471
 21
213.853228
 31
0.0
  0
ARC
  5
1AD
100
AcDbEntity
  8
0
100
AcDbCircle
 10
196.072471
 20
214.053228
 30
0.0
 40
0.2
100
AcDbArc
 50
270.0
 51
339.992146
  0
LINE
  5
1AE
100
AcDbEntity
  8
0
100
AcDbLine
 10
196.161535
 20
214.453218
 30
0.0
 11
196.161535
 21
214.653228
 31
0.0
  0
LINE
  5
1AF
100
AcDbEntity
  8
0
100
AcDbLine
 10
196.2604
 20
213.984799
 30
0.0
 11
196.528709
 21
214.721658
 31
0.0
  0
LINE
  5
1B0
100
AcDbEntity
  8
0
100
AcDbLine
 10
195.711535
 20
217.853398
 30
0.0
 11
195.711535
 21
214.653228
 31
0.0
  0
LINE
  5
1B1
100
AcDbEntity
  8
0
100
AcDbLine
 10
195.511535
 20
217.936248
 30
0.0
 11
195.511535
 21
214.653218
 31
0.0
  0
LINE
  5
1B2
100
AcDbEntity
  8
0
100
AcDbLine
 10
195.278535
 20
214.253218
 30
0.0
 11
195.578527
 21
214.253218
 31
0.0
  0
ARC
  5
1B3
100
AcDbEntity
  8
0
100
AcDbCircle
 10
195.278535
 20
214.053218
 30
0.0
 40
0.2
100
AcDbArc
 50
90.0
 51
180.0
  0
ARC
  5
1B4
100
AcDbEntity
  8
0
100
AcDbCircle
 10
195.711535
 20
214.653218
 30
0.0
 40
0.2
100
AcDbArc
 50
180.0
 51
270.0
  0
ARC
  5
1B5
100
AcDbEntity
  8
0
100
AcDbCircle
 10
196.078535
 20
212.303238
 30
0.0
 40
1.0
100
AcDbArc
 50
180.0
 51
270.0
  0
LINE
  5
1B6
100
AcDbEntity
  8
0
100
AcDbLine
 10
196.161535
 20
214.653228
 30
0.0
 11
195.711535
 21
214.653228
 31
0.0
  0
LINE
  5
1B7
100
AcDbEntity
  8
0
100
AcDbLine
 10
195.711535
 20
214.453218
 30
0.0
 11
196.161535
 21
214.453218
 31
0.0
  0
LINE
  5
1B8
100
AcDbEntity
  8
0
100
AcDbLine
 10
195.578527
 20
214.253218
 30
0.0
 11
195.854145
 21
213.924686
 31
0.0
  0
LINE
  5
1B9
100
AcDbEntity
  8
0
  6
DASHED
 62
     3
100
AcDbLine
 10
202.478535
 20
226.053238
 30
0.0
 11
195.078535
 21
226.053238
 31
0.0
  0
LINE
  5
1BA
100
AcDbEntity
  8
0
  6
DASHED
 62
     3
100
AcDbLine
 10
202.478535
 20
225.303238
 30
0.0
 11
195.078535
 21
225.303238
 31
0.0
  0
LINE
  5
1BB
100
AcDbEntity
  8
0
100
AcDbLine
 10
196.581133
 20
218.753238
 30
0.0
 11
198.572917
 21
218.753238
 31
0.0
  0
LINE
  5
1BC
100
AcDbEntity
  8
0
100
AcDbLine
 10
195.078535
 20
225.803238
 30
0.0
 11
193.078535
 21
225.803238
 31
0.0
  0
LINE
  5
1BD
100
AcDbEntity
  8
0
100
AcDbLine
 10
195.078535
 20
219.303238
 30
0.0
 11
193.078535
 21
219.303238
 31
0.0
  0
ARC
  5
1BE
100
AcDbEntity
  8
0
100
AcDbCircle
 10
196.118001
 20
219.557865
 30
0.0
 40
0.3
100
AcDbArc
 50
4.996693
 51
140.001187
  0
LINE
  5
1BF
100
AcDbEntity
  8
0
100
AcDbLine
 10
195.791545
 20
219.32417
 30
0.0
 11
196.041862
 21
219.622511
 31
0.0
  0
ARC
  5
1C0
100
AcDbEntity
  8
0
100
AcDbCircle
 10
196.11847
 20
219.558236
 30
0.0
 40
0.1
100
AcDbArc
 50
2.819753
 51
140.002339
  0
LINE
  5
1C1
100
AcDbEntity
  8
0
100
AcDbLine
 10
195.816525
 20
219.043186
 30
0.0
 11
195.944515
 21
219.196186
 31
0.0
  0
LINE
  5
1C2
100
AcDbEntity
  8
0
100
AcDbLine
 10
195.944515
 20
219.196186
 30
0.0
 11
195.791545
 21
219.32417
 31
0.0
  0
LINE
  5
1C3
100
AcDbEntity
  8
0
100
AcDbLine
 10
196.461535
 20
219.073228
 30
0.0
 11
196.461535
 21
218.603378
 31
0.0
  0
LINE
  5
1C4
100
AcDbEntity
  8
0
100
AcDbLine
 10
196.218348
 20
219.563155
 30
0.0
 11
196.261537
 21
218.68629
 31
0.0
  0
LINE
  5
1C5
100
AcDbEntity
  8
0
100
AcDbLine
 10
196.416861
 20
219.583994
 30
0.0
 11
196.481513
 21
218.844529
 31
0.0
  0
ARC
  5
1C6
100
AcDbEntity
  8
0
100
AcDbCircle
 10
196.581133
 20
218.853238
 30
0.0
 40
0.1
100
AcDbArc
 50
184.996693
 51
270.0
  0
LINE
  5
1C7
100
AcDbEntity
  8
0
100
AcDbLine
 10
195.178535
 20
219.453228
 30
0.0
 11
195.638589
 21
219.453228
 31
0.0
  0
ARC
  5
1C8
100
AcDbEntity
  8
0
100
AcDbCircle
 10
195.791774
 20
219.324643
 30
0.0
 40
0.2
100
AcDbArc
 50
140.001187
 51
230.086306
  0
ARC
  5
1C9
100
AcDbEntity
  8
0
100
AcDbCircle
 10
195.178535
 20
219.553228
 30
0.0
 40
0.1
100
AcDbArc
 50
180.0
 51
270.0
  0
LINE
  5
1CA
100
AcDbEntity
  8
0
100
AcDbLine
 10
195.638563
 20
219.453197
 30
0.0
 11
195.888184
 21
219.750697
 31
0.0
  0
LINE
  5
1CB
100
AcDbEntity
  8
0
100
AcDbLine
 10
195.816525
 20
219.043186
 30
0.0
 11
195.663447
 21
219.17124
 31
0.0
  0
ARC
  5
1CC
100
AcDbEntity
  8
0
100
AcDbCircle
 10
196.078535
 20
221.303238
 30
0.0
 40
1.0
100
AcDbArc
 50
90.0
 51
180.0
  0
LINE
  5
1CD
100
AcDbEntity
  8
0
  6
DASHED
 62
     3
100
AcDbLine
 10
202.478535
 20
234.553238
 30
0.0
 11
195.078535
 21
234.553238
 31
0.0
  0
LINE
  5
1CE
100
AcDbEntity
  8
0
  6
DASHED
 62
     3
100
AcDbLine
 10
202.478535
 20
235.303238
 30
0.0
 11
195.078535
 21
235.303238
 31
0.0
  0
LINE
  5
1CF
100
AcDbEntity
  8
0
100
AcDbLine
 10
203.078535
 20
242.803238
 30
0.0
 11
203.078635
 21
242.803238
 31
0.0
  0
LINE
  5
1D0
100
AcDbEntity
  8
0
100
AcDbLine
 10
205.895533
 20
218.68629
 30
0.0
 11
206.645535
 21
217.936248
 31
0.0
  0
LINE
  5
1D1
100
AcDbEntity
  8
0
100
AcDbLine
 10
205.695535
 20
218.603378
 30
0.0
 11
206.445535
 21
217.853398
 31
0.0
  0
LINE
  5
1D2
100
AcDbEntity
  8
0
100
AcDbLine
 10
206.645535
 20
217.936248
 30
0.0
 11
206.645535
 21
214.653218
 31
0.0
  0
LINE
  5
1D3
100
AcDbEntity
  8
0
100
AcDbLine
 10
206.445535
 20
217.853398
 30
0.0
 11
206.445535
 21
214.653228
 31
0.0
  0
ARC
  5
1D4
100
AcDbEntity
  8
0
100
AcDbCircle
 10
205.440432
 20
214.653228
 30
0.0
 40
0.2
100
AcDbArc
 50
20.007854
 51
90.0
  0
LINE
  5
1D5
100
AcDbEntity
  8
0
100
AcDbLine
 10
205.995535
 20
214.653228
 30
0.0
 11
206.445535
 21
214.653228
 31
0.0
  0
LINE
  5
1D6
100
AcDbEntity
  8
0
100
AcDbLine
 10
206.149704
 20
213.853228
 30
0.0
 11
206.0846
 21
213.853228
 31
0.0
  0
ARC
  5
1D7
100
AcDbEntity
  8
0
100
AcDbCircle
 10
206.149704
 20
214.053228
 30
0.0
 40
0.2
100
AcDbArc
 50
270.0
 51
320.005496
  0
LINE
  5
1D8
100
AcDbEntity
  8
0
100
AcDbLine
 10
206.578544
 20
214.253218
 30
0.0
 11
206.302926
 21
213.924686
 31
0.0
  0
LINE
  5
1D9
100
AcDbEntity
  8
0
100
AcDbLine
 10
206.878535
 20
214.253218
 30
0.0
 11
206.578544
 21
214.253218
 31
0.0
  0
ARC
  5
1DA
100
AcDbEntity
  8
0
100
AcDbCircle
 10
206.878535
 20
214.053218
 30
0.0
 40
0.2
100
AcDbArc
 50
360.0
 51
90.0
  0
ARC
  5
1DB
100
AcDbEntity
  8
0
100
AcDbCircle
 10
206.078535
 20
212.303238
 30
0.0
 40
1.0
100
AcDbArc
 50
270.0
 51
360.0
  0
ARC
  5
1DC
100
AcDbEntity
  8
0
100
AcDbCircle
 10
206.0846
 20
214.053228
 30
0.0
 40
0.2
100
AcDbArc
 50
200.007854
 51
270.0
  0
LINE
  5
1DD
100
AcDbEntity
  8
0
100
AcDbLine
 10
206.445535
 20
214.453218
 30
0.0
 11
205.995535
 21
214.453218
 31
0.0
  0
LINE
  5
1DE
100
AcDbEntity
  8
0
100
AcDbLine
 10
205.896671
 20
213.984799
 30
0.0
 11
205.628362
 21
214.721658
 31
0.0
  0
ARC
  5
1DF
100
AcDbEntity
  8
0
100
AcDbCircle
 10
206.445535
 20
214.653218
 30
0.0
 40
0.2
100
AcDbArc
 50
270.0
 51
360.0
  0
LINE
  5
1E0
100
AcDbEntity
  8
0
100
AcDbLine
 10
205.995535
 20
214.453218
 30
0.0
 11
205.995535
 21
214.653228
 31
0.0
  0
LINE
  5
1E1
100
AcDbEntity
  8
0
100
AcDbLine
 10
211.078535
 20
222.303238
 30
0.0
 11
209.028535
 21
222.303238
 31
0.0
  0
LINE
  5
1E2
100
AcDbEntity
  8
0
100
AcDbLine
 10
209.028535
 20
219.053238
 30
0.0
 11
207.078535
 21
219.053238
 31
0.0
  0
LINE
  5
1E3
100
AcDbEntity
  8
0
100
AcDbLine
 10
209.028535
 20
223.553238
 30
0.0
 11
207.078535
 21
223.553238
 31
0.0
  0
ARC
  5
1E4
100
AcDbEntity
  8
0
100
AcDbCircle
 10
206.078535
 20
221.303238
 30
0.0
 40
1.0
100
AcDbArc
 50
360.0
 51
90.0
  0
LINE
  5
1E5
100
AcDbEntity
  8
0
100
AcDbLine
 10
206.365525
 20
219.32417
 30
0.0
 11
206.115208
 21
219.622511
 31
0.0
  0
LINE
  5
1E6
100
AcDbEntity
  8
0
100
AcDbLine
 10
206.518508
 20
219.453197
 30
0.0
 11
206.268887
 21
219.750697
 31
0.0
  0
ARC
  5
1E7
100
AcDbEntity
  8
0
100
AcDbCircle
 10
206.365297
 20
219.324643
 30
0.0
 40
0.2
100
AcDbArc
 50
309.913694
 51
39.998813
  0
LINE
  5
1E8
100
AcDbEntity
  8
0
100
AcDbLine
 10
206.340546
 20
219.043186
 30
0.0
 11
206.493623
 21
219.17124
 31
0.0
  0
LINE
  5
1E9
100
AcDbEntity
  8
0
100
AcDbLine
 10
206.978535
 20
219.453228
 30
0.0
 11
206.518482
 21
219.453228
 31
0.0
  0
LINE
  5
1EA
100
AcDbEntity
  8
0
100
AcDbLine
 10
206.212556
 20
219.196186
 30
0.0
 11
206.365525
 21
219.32417
 31
0.0
  0
LINE
  5
1EB
100
AcDbEntity
  8
0
100
AcDbLine
 10
206.340546
 20
219.043186
 30
0.0
 11
206.212556
 21
219.196186
 31
0.0
  0
ARC
  5
1EC
100
AcDbEntity
  8
0
100
AcDbCircle
 10
206.978535
 20
219.553228
 30
0.0
 40
0.1
100
AcDbArc
 50
270.0
 51
360.0
  0
ARC
  5
1ED
100
AcDbEntity
  8
0
100
AcDbCircle
 10
205.575938
 20
218.853238
 30
0.0
 40
0.1
100
AcDbArc
 50
270.0
 51
355.003307
  0
LINE
  5
1EE
100
AcDbEntity
  8
0
100
AcDbLine
 10
205.74021
 20
219.583994
 30
0.0
 11
205.675558
 21
218.844529
 31
0.0
  0
LINE
  5
1EF
100
AcDbEntity
  8
0
100
AcDbLine
 10
205.938722
 20
219.563155
 30
0.0
 11
205.895533
 21
218.68629
 31
0.0
  0
LINE
  5
1F0
100
AcDbEntity
  8
0
100
AcDbLine
 10
205.695535
 20
219.073228
 30
0.0
 11
205.695535
 21
218.603378
 31
0.0
  0
ARC
  5
1F1
100
AcDbEntity
  8
0
100
AcDbCircle
 10
206.038601
 20
219.558236
 30
0.0
 40
0.1
100
AcDbArc
 50
39.997661
 51
177.180247
  0
ARC
  5
1F2
100
AcDbEntity
  8
0
100
AcDbCircle
 10
206.039069
 20
219.557865
 30
0.0
 40
0.3
100
AcDbArc
 50
39.998813
 51
175.003307
  0
LINE
  5
1F3
100
AcDbEntity
  8
0
100
AcDbLine
 10
207.078535
 20
242.803238
 30
0.0
 11
207.078535
 21
242.803338
 31
0.0
  0
LINE
  5
1F4
100
AcDbEntity
  8
CENTER
  6
CENTER
 62
     1
100
AcDbLine
 10
341.768586
 20
249.76742
 30
0.0
 11
341.768586
 21
147.839057
 31
0.0
  0
CIRCLE
  5
1F5
100
AcDbEntity
  8
0
  6
DASHED
 62
     3
100
AcDbCircle
 10
341.768586
 20
198.803238
 30
0.0
 40
27.0
  0
CIRCLE
  5
1F6
100
AcDbEntity
  8
0
100
AcDbCircle
 10
341.768586
 20
198.803238
 30
0.0
 40
12.5
  0
CIRCLE
  5
1F7
100
AcDbEntity
  8
0
100
AcDbCircle
 10
341.768586
 20
198.803238
 30
0.0
 40
23.5
  0
LINE
  5
1F8
100
AcDbEntity
  8
0
100
AcDbLine
 10
370.768586
 20
231.894023
 30
0.0
 11
370.768586
 21
165.712454
 31
0.0
  0
LINE
  5
1F9
100
AcDbEntity
  8
0
100
AcDbLine
 10
312.768586
 20
231.894023
 30
0.0
 11
312.768586
 21
165.712454
 31
0.0
  0
LINE
  5
1FA
100
AcDbEntity
  8
CENTER
  6
CENTER
 62
     1
100
AcDbLine
 10
303.847279
 20
198.803238
 30
0.0
 11
378.17971
 21
198.803238
 31
0.0
  0
ARC
  5
1FB
100
AcDbEntity
  8
0
100
AcDbCircle
 10
341.768586
 20
198.803238
 30
0.0
 40
44.0
100
AcDbArc
 50
228.769423
 51
311.230577
  0
LINE
  5
1FC
100
AcDbEntity
  8
CENTER
  6
CENTER
 62
     1
100
AcDbLine
 10
323.768586
 20
156.142998
 30
0.0
 11
323.768586
 21
178.463478
 31
0.0
  0
LINE
  5
1FD
100
AcDbEntity
  8
CENTER
  6
CENTER
 62
     1
100
AcDbLine
 10
334.928826
 20
167.303238
 30
0.0
 11
312.608346
 21
167.303238
 31
0.0
  0
CIRCLE
  5
1FE
100
AcDbEntity
  8
0
100
AcDbCircle
 10
323.768586
 20
167.303238
 30
0.0
 40
4.25
  0
CIRCLE
  5
1FF
100
AcDbEntity
  8
0
 62
     3
100
AcDbCircle
 10
323.768586
 20
167.303238
 30
0.0
 40
5.0
  0
CIRCLE
  5
200
100
AcDbEntity
  8
0
100
AcDbCircle
 10
323.768586
 20
167.303238
 30
0.0
 40
7.0
  0
LINE
  5
201
100
AcDbEntity
  8
CENTER
  6
CENTER
 62
     1
100
AcDbLine
 10
359.768586
 20
156.142998
 30
0.0
 11
359.768586
 21
178.463478
 31
0.0
  0
LINE
  5
202
100
AcDbEntity
  8
CENTER
  6
CENTER
 62
     1
100
AcDbLine
 10
348.608346
 20
167.303238
 30
0.0
 11
370.928826
 21
167.303238
 31
0.0
  0
CIRCLE
  5
203
100
AcDbEntity
  8
0
100
AcDbCircle
 10
359.768586
 20
167.303238
 30
0.0
 40
7.0
  0
CIRCLE
  5
204
100
AcDbEntity
  8
0
 62
     3
100
AcDbCircle
 10
359.768586
 20
167.303238
 30
0.0
 40
5.0
  0
CIRCLE
  5
205
100
AcDbEntity
  8
0
100
AcDbCircle
 10
359.768586
 20
167.303238
 30
0.0
 40
4.25
  0
ARC
  5
206
100
AcDbEntity
  8
0
100
AcDbCircle
 10
341.768586
 20
198.803238
 30
0.0
 40
44.0
100
AcDbArc
 50
48.769423
 51
131.230577
  0
LINE
  5
207
100
AcDbEntity
  8
CENTER
  6
CENTER
 62
     1
100
AcDbLine
 10
334.928826
 20
230.303238
 30
0.0
 11
312.608346
 21
230.303238
 31
0.0
  0
CIRCLE
  5
208
100
AcDbEntity
  8
0
100
AcDbCircle
 10
323.768586
 20
230.303238
 30
0.0
 40
7.0
  0
CIRCLE
  5
209
100
AcDbEntity
  8
0
 62
     3
100
AcDbCircle
 10
323.768586
 20
230.303238
 30
0.0
 40
5.0
  0
CIRCLE
  5
20A
100
AcDbEntity
  8
0
100
AcDbCircle
 10
323.768586
 20
230.303238
 30
0.0
 40
4.25
  0
LINE
  5
20B
100
AcDbEntity
  8
CENTER
  6
CENTER
 62
     1
100
AcDbLine
 10
323.768586
 20
241.463478
 30
0.0
 11
323.768586
 21
219.142998
 31
0.0
  0
LINE
  5
20C
100
AcDbEntity
  8
CENTER
  6
CENTER
 62
     1
100
AcDbLine
 10
348.608346
 20
230.303238
 30
0.0
 11
370.928826
 21
230.303238
 31
0.0
  0
CIRCLE
  5
20D
100
AcDbEntity
  8
0
100
AcDbCircle
 10
359.768586
 20
230.303238
 30
0.0
 40
7.0
  0
LINE
  5
20E
100
AcDbEntity
  8
CENTER
  6
CENTER
 62
     1
100
AcDbLine
 10
359.768586
 20
241.463478
 30
0.0
 11
359.768586
 21
219.142998
 31
0.0
  0
CIRCLE
  5
20F
100
AcDbEntity
  8
0
100
AcDbCircle
 10
359.768586
 20
230.303238
 30
0.0
 40
4.25
  0
CIRCLE
  5
210
100
AcDbEntity
  8
0
 62
     3
100
AcDbCircle
 10
359.768586
 20
230.303238
 30
0.0
 40
5.0
  0
ENDSEC
  0
SECTION
  2
OBJECTS
  0
DICTIONARY
  5
10E
100
AcDbDictionary
  3
ACAD_GROUP
350
10F
  3
ACAD_LAYOUT
350
11B
  3
ACAD_MLINESTYLE
350
118
  3
ACAD_PLOTSETTINGS
350
11A
  3
ACAD_PLOTSTYLENAME
350
110
  3
ACDBHEADERROUNDTRIPXREC
350
21D
  3
AcDbVariableDictionary
350
246
  0
DICTIONARY
  5
21B
100
AcDbDictionary
280
     1
  3
ACAD_XREC_ROUNDTRIP
360
21C
  0
DICTIONARY
  5
217
100
AcDbDictionary
280
     1
  3
ACAD_XREC_ROUNDTRIP
360
218
  0
DICTIONARY
  5
219
100
AcDbDictionary
280
     1
  3
ACAD_XREC_ROUNDTRIP
360
21A
  0
DICTIONARY
  5
244
100
AcDbDictionary
280
     1
  3
ACAD_XREC_ROUNDTRIP
360
245
  0
DICTIONARY
  5
213
100
AcDbDictionary
280
     1
  3
ACAD_LAYOUTSELFREF
360
243
  3
ACAD_XREC_ROUNDTRIP
360
214
  0
DICTIONARY
  5
215
100
AcDbDictionary
280
     1
  3
ACAD_LAYOUTSELFREF
360
242
  3
ACAD_XREC_ROUNDTRIP
360
216
  0
DICTIONARY
  5
10F
102
{ACAD_REACTORS
330
10E
102
}
100
AcDbDictionary
  0
DICTIONARY
  5
11B
102
{ACAD_XDICTIONARY
360
240
102
}
102
{ACAD_REACTORS
330
10E
102
}
100
AcDbDictionary
  3
MODEL
350
123
  3
ﾚｲｱｳﾄ1
350
11F
  0
DICTIONARY
  5
118
102
{ACAD_XDICTIONARY
360
23E
102
}
102
{ACAD_REACTORS
330
10E
102
}
100
AcDbDictionary
  3
STANDARD
350
119
  0
DICTIONARY
  5
11A
102
{ACAD_REACTORS
330
10E
102
}
100
AcDbDictionary
  0
ACAD_PROXY_OBJECT
  5
110
102
{ACAD_REACTORS
330
10E
102
}
100
AcDbProxyObject
 90
      499
 91
      500
 93
       86
310
405010041939BDC9B585B1
350
111
340
111
 94
        0
  0
DICTIONARY
  5
21D
102
{ACAD_REACTORS
330
10E
102
}
100
AcDbDictionary
  3
CEPSNTYPE
350
227
  3
DIMSTYLEDATA
350
22B
  3
FINGERPRINTGUID
350
228
  3
HYPERLINKBASE
350
220
  3
INSUNITS
350
226
  3
LAYOUTDICT
350
222
  3
LWETCUNION
350
225
  3
PLOTSETDICT
350
223
  3
PLOTSTYLNAMDICT
350
224
  3
PSVPSCALE
350
22A
  3
PUCSBASE
350
22E
  3
PUCSORGBACK
350
234
  3
PUCSORGBOTTOM
350
230
  3
PUCSORGFRONT
350
233
  3
PUCSORGLEFT
350
231
  3
PUCSORGRIGHT
350
232
  3
PUCSORGTOP
350
22F
  3
PUCSORTHOREF
350
22C
  3
PUCSORTHOVIEW
350
22D
  3
STYLESHEET
350
221
  3
TSTACKALIGN
350
21E
  3
TSTACKSIZE
350
21F
  3
UCSBASE
350
237
  3
UCSORGBACK
350
23D
  3
UCSORGBOTTOM
350
239
  3
UCSORGFRONT
350
23C
  3
UCSORGLEFT
350
23A
  3
UCSORGRIGHT
350
23B
  3
UCSORGTOP
350
238
  3
UCSORTHOREF
350
235
  3
UCSORTHOVIEW
350
236
  3
VERSIONGUID
350
229
  0
DICTIONARY
  5
246
102
{ACAD_REACTORS
330
10E
102
}
100
AcDbDictionary
  3
DIMASSOC
350
247
  0
XRECORD
  5
21C
102
{ACAD_REACTORS
330
21B
102
}
100
AcDbXrecord
102
EXTNAMES
  1
*ACTIVE
  2
*Active
102
UCS
 74
     0
 71
     0
 10
0.0
 20
0.0
 30
0.0
 10
1.0
 20
0.0
 30
0.0
 10
0.0
 20
1.0
 30
0.0
146
0.0
 79
     0
102
VIEW
281
     0
  0
XRECORD
  5
218
102
{ACAD_REACTORS
330
217
102
}
100
AcDbXrecord
102
EXTNAMES
  1
BYBLOCK
  2
ByBlock
  0
XRECORD
  5
21A
102
{ACAD_REACTORS
330
219
102
}
100
AcDbXrecord
102
EXTNAMES
  1
BYLAYER
  2
ByLayer
  0
XRECORD
  5
245
102
{ACAD_REACTORS
330
244
102
}
100
AcDbXrecord
102
ACADR14ROUNDTRIP
1000
DSTYLE
1002
{
1070
   279
 70
     2
1002
}
  0
XRECORD
  5
243
102
{ACAD_REACTORS
330
213
102
}
100
AcDbXrecord
340
120
  0
XRECORD
  5
214
102
{ACAD_REACTORS
330
213
102
}
100
AcDbXrecord
102
EXTNAMES
  1
*MODEL_SPACE
  2
*Model_Space
  0
XRECORD
  5
242
102
{ACAD_REACTORS
330
215
102
}
100
AcDbXrecord
340
11C
  0
XRECORD
  5
216
102
{ACAD_REACTORS
330
215
102
}
100
AcDbXrecord
102
EXTNAMES
  1
*PAPER_SPACE
  2
*Paper_Space
  0
DICTIONARY
  5
240
100
AcDbDictionary
280
     1
  3
ACAD_XREC_ROUNDTRIP
360
241
  0
ACAD_PROXY_OBJECT
  5
123
102
{ACAD_REACTORS
330
11B
102
}
100
AcDbProxyObject
 90
      499
 91
      502
 93
      836
310
932433A5C50524F4752414D2046494C45535C4D4454365C706C6F74746572735C526F6C616E64204458592D313235302E7063332C01AAAAAAAAA5A69054D6F64656C901A800000000000000000000000000000000000000000000A1000000000000008902A6A6AAAA0
330
120
330
0
340
0
340
0
 94
        0
  0
ACAD_PROXY_OBJECT
  5
11F
102
{ACAD_REACTORS
330
11B
102
}
100
AcDbProxyObject
 90
      499
 91
      502
 93
     1244
310
932433A5C50524F4752414D2046494C45535C4D4454365C706C6F74746572735C526F6C616E64204458592D313235302E7063332C00AAAAAA416AA59106906DAB2B1B3C431406A800000000000000000000000000000000000000000101E900000000000241C902A6A6A10232D5E076BC5510408CB5781DAF154410232D5E0
310
76BC5510408CB5781DAF15C410232D5E076BC5710408CB5781DAF15C40
330
11C
330
0
340
0
340
0
 94
        0
  0
DICTIONARY
  5
23E
100
AcDbDictionary
280
     1
  3
ACAD_XREC_ROUNDTRIP
360
23F
  0
MLINESTYLE
  5
119
102
{ACAD_REACTORS
330
118
102
}
100
AcDbMlineStyle
  2
STANDARD
 70
     0
  3

 62
   256
 51
90.0
 52
90.0
 71
     2
 49
0.5
 62
   256
  6
BYLAYER
 49
-0.5
 62
   256
  6
BYLAYER
  0
ACAD_PROXY_OBJECT
  5
111
102
{ACAD_REACTORS
330
110
102
}
100
AcDbProxyObject
 90
      499
 91
      501
 93
        0
 94
        0
  0
XRECORD
  5
227
102
{ACAD_REACTORS
330
21D
102
}
100
AcDbXrecord
 90
        0
  0
XRECORD
  5
22B
102
{ACAD_REACTORS
330
21D
102
}
100
AcDbXrecord
1000
DSTYLE
1002
{
1070
   341
340
137
1070
   342
340
131
1070
   343
340
137
1070
   344
340
137
1002
}
  0
XRECORD
  5
228
102
{ACAD_REACTORS
330
21D
102
}
100
AcDbXrecord
  1
{696CB8A6-905A-4035-BA97-7A93AC561676}
  0
XRECORD
  5
220
102
{ACAD_REACTORS
330
21D
102
}
100
AcDbXrecord
  1

  0
XRECORD
  5
226
102
{ACAD_REACTORS
330
21D
102
}
100
AcDbXrecord
 90
        0
  0
XRECORD
  5
222
102
{ACAD_REACTORS
330
21D
102
}
100
AcDbXrecord
340
11B
  0
XRECORD
  5
225
102
{ACAD_REACTORS
330
21D
102
}
100
AcDbXrecord
 90
    10781
  0
XRECORD
  5
223
102
{ACAD_REACTORS
330
21D
102
}
100
AcDbXrecord
340
11A
  0
XRECORD
  5
224
102
{ACAD_REACTORS
330
21D
102
}
100
AcDbXrecord
340
110
  0
XRECORD
  5
22A
102
{ACAD_REACTORS
330
21D
102
}
100
AcDbXrecord
 40
0.0
  0
XRECORD
  5
22E
102
{ACAD_REACTORS
330
21D
102
}
100
AcDbXrecord
340
0
  0
XRECORD
  5
234
102
{ACAD_REACTORS
330
21D
102
}
100
AcDbXrecord
 10
0.0
 20
0.0
 30
0.0
  0
XRECORD
  5
230
102
{ACAD_REACTORS
330
21D
102
}
100
AcDbXrecord
 10
0.0
 20
0.0
 30
0.0
  0
XRECORD
  5
233
102
{ACAD_REACTORS
330
21D
102
}
100
AcDbXrecord
 10
0.0
 20
0.0
 30
0.0
  0
XRECORD
  5
231
102
{ACAD_REACTORS
330
21D
102
}
100
AcDbXrecord
 10
0.0
 20
0.0
 30
0.0
  0
XRECORD
  5
232
102
{ACAD_REACTORS
330
21D
102
}
100
AcDbXrecord
 10
0.0
 20
0.0
 30
0.0
  0
XRECORD
  5
22F
102
{ACAD_REACTORS
330
21D
102
}
100
AcDbXrecord
 10
0.0
 20
0.0
 30
0.0
  0
XRECORD
  5
22C
102
{ACAD_REACTORS
330
21D
102
}
100
AcDbXrecord
340
0
  0
XRECORD
  5
22D
102
{ACAD_REACTORS
330
21D
102
}
100
AcDbXrecord
 70
     0
  0
XRECORD
  5
221
102
{ACAD_REACTORS
330
21D
102
}
100
AcDbXrecord
  1

  0
XRECORD
  5
21E
102
{ACAD_REACTORS
330
21D
102
}
100
AcDbXrecord
 90
        1
  0
XRECORD
  5
21F
102
{ACAD_REACTORS
330
21D
102
}
100
AcDbXrecord
 90
       70
  0
XRECORD
  5
237
102
{ACAD_REACTORS
330
21D
102
}
100
AcDbXrecord
340
0
  0
XRECORD
  5
23D
102
{ACAD_REACTORS
330
21D
102
}
100
AcDbXrecord
 10
0.0
 20
0.0
 30
0.0
  0
XRECORD
  5
239
102
{ACAD_REACTORS
330
21D
102
}
100
AcDbXrecord
 10
0.0
 20
0.0
 30
0.0
  0
XRECORD
  5
23C
102
{ACAD_REACTORS
330
21D
102
}
100
AcDbXrecord
 10
0.0
 20
0.0
 30
0.0
  0
XRECORD
  5
23A
102
{ACAD_REACTORS
330
21D
102
}
100
AcDbXrecord
 10
0.0
 20
0.0
 30
0.0
  0
XRECORD
  5
23B
102
{ACAD_REACTORS
330
21D
102
}
100
AcDbXrecord
 10
0.0
 20
0.0
 30
0.0
  0
XRECORD
  5
238
102
{ACAD_REACTORS
330
21D
102
}
100
AcDbXrecord
 10
0.0
 20
0.0
 30
0.0
  0
XRECORD
  5
235
102
{ACAD_REACTORS
330
21D
102
}
100
AcDbXrecord
340
0
  0
XRECORD
  5
236
102
{ACAD_REACTORS
330
21D
102
}
100
AcDbXrecord
 70
     0
  0
XRECORD
  5
229
102
{ACAD_REACTORS
330
21D
102
}
100
AcDbXrecord
  1
{C5B5C19D-7AAB-43D6-A23D-D3FFEA3FD4C7}
  0
DICTIONARYVAR
  5
247
102
{ACAD_REACTORS
330
246
102
}
100
DictionaryVariables
280
     0
  1
1
  0
XRECORD
  5
241
102
{ACAD_REACTORS
330
240
102
}
100
AcDbXrecord
102
EXTNAMES
  1
MODEL
  2
Model
  0
XRECORD
  5
23F
102
{ACAD_REACTORS
330
23E
102
}
100
AcDbXrecord
102
EXTNAMES
  1
STANDARD
  2
Standard
  0
ENDSEC
  0
EOF
