  0
SECTION
  2
HEADER
  9
$ACADVER
  1
AC1014
  9
$ACADMAINTVER
 70
     0
  9
$DWGCODEPAGE
  3
ANSI_932
  9
$INSBASE
 10
0.0
 20
0.0
 30
0.0
  9
$EXTMIN
 10
210.240385
 20
142.391184
 30
0.0
  9
$EXTMAX
 10
437.327597
 20
264.443952
 30
0.0
  9
$LIMMIN
 10
0.0
 20
0.0
  9
$LIMMAX
 10
594.0
 20
420.0
  9
$ORTHOMODE
 70
     0
  9
$REGENMODE
 70
     1
  9
$FILLMODE
 70
     1
  9
$QTEXTMODE
 70
     0
  9
$MIRRTEXT
 70
     1
  9
$DRAGMODE
 70
     2
  9
$LTSCALE
 40
0.25
  9
$OSMODE
 70
    37
  9
$ATTMODE
 70
     1
  9
$TEXTSIZE
 40
4.0
  9
$TRACEWID
 40
1.0
  9
$TEXTSTYLE
  7
STANDARD
  9
$CLAYER
  8
0
  9
$CELTYPE
  6
BYLAYER
  9
$CECOLOR
 62
   256
  9
$CELTSCALE
 40
1.0
  9
$DELOBJ
 70
     1
  9
$DISPSILH
 70
     0
  9
$DIMSCALE
 40
2.0
  9
$DIMASZ
 40
3.0
  9
$DIMEXO
 40
1.0
  9
$DIMDLI
 40
10.0
  9
$DIMRND
 40
0.0
  9
$DIMDLE
 40
0.0
  9
$DIMEXE
 40
1.0
  9
$DIMTP
 40
0.0
  9
$DIMTM
 40
0.0
  9
$DIMTXT
 40
3.2
  9
$DIMCEN
 40
0.0
  9
$DIMTSZ
 40
0.0
  9
$DIMTOL
 70
     0
  9
$DIMLIM
 70
     0
  9
$DIMTIH
 70
     0
  9
$DIMTOH
 70
     0
  9
$DIMSE1
 70
     0
  9
$DIMSE2
 70
     0
  9
$DIMTAD
 70
     3
  9
$DIMZIN
 70
     8
  9
$DIMBLK
  1
ARROW
  9
$DIMASO
 70
     1
  9
$DIMSHO
 70
     1
  9
$DIMPOST
  1

  9
$DIMAPOST
  1

  9
$DIMALT
 70
     0
  9
$DIMALTD
 70
     2
  9
$DIMALTF
 40
0.04
  9
$DIMLFAC
 40
1.0
  9
$DIMTOFL
 70
     1
  9
$DIMTVP
 40
1.0
  9
$DIMTIX
 70
     0
  9
$DIMSOXD
 70
     0
  9
$DIMSAH
 70
     1
  9
$DIMBLK1
  1
OPEN
  9
$DIMBLK2
  1
OPEN
  9
$DIMSTYLE
  2
AA1
  9
$DIMCLRD
 70
     0
  9
$DIMCLRE
 70
     0
  9
$DIMCLRT
 70
     0
  9
$DIMTFAC
 40
0.6
  9
$DIMGAP
 40
1.0
  9
$DIMJUST
 70
     0
  9
$DIMSD1
 70
     0
  9
$DIMSD2
 70
     0
  9
$DIMTOLJ
 70
     1
  9
$DIMTZIN
 70
     0
  9
$DIMALTZ
 70
     0
  9
$DIMALTTZ
 70
     0
  9
$DIMFIT
 70
     3
  9
$DIMUPT
 70
     0
  9
$DIMUNIT
 70
     2
  9
$DIMDEC
 70
     4
  9
$DIMTDEC
 70
     4
  9
$DIMALTU
 70
     2
  9
$DIMALTTD
 70
     2
  9
$DIMTXSTY
  7
STANDARD
  9
$DIMAUNIT
 70
     0
  9
$LUNITS
 70
     2
  9
$LUPREC
 70
     2
  9
$SKETCHINC
 40
1.0
  9
$FILLETRAD
 40
10.0
  9
$AUNITS
 70
     0
  9
$AUPREC
 70
     0
  9
$MENU
  1
acad
  9
$ELEVATION
 40
0.0
  9
$PELEVATION
 40
0.0
  9
$THICKNESS
 40
0.0
  9
$LIMCHECK
 70
     0
  9
$BLIPMODE
 70
     0
  9
$CHAMFERA
 40
0.0
  9
$CHAMFERB
 40
0.0
  9
$CHAMFERC
 40
0.0
  9
$CHAMFERD
 40
0.0
  9
$SKPOLY
 70
     0
  9
$TDCREATE
 40
2451466.563409606
  9
$TDUPDATE
 40
2452821.768659953
  9
$TDINDWG
 40
0.0001710648
  9
$TDUSRTIMER
 40
0.0001710648
  9
$USRTIMER
 70
     1
  9
$ANGBASE
 50
0.0
  9
$ANGDIR
 70
     0
  9
$PDMODE
 70
     1
  9
$PDSIZE
 40
0.0
  9
$PLINEWID
 40
0.0
  9
$COORDS
 70
     1
  9
$SPLFRAME
 70
     0
  9
$SPLINETYPE
 70
     6
  9
$SPLINESEGS
 70
     8
  9
$ATTDIA
 70
     0
  9
$ATTREQ
 70
     1
  9
$HANDLING
 70
     1
  9
$HANDSEED
  5
254
  9
$SURFTAB1
 70
     6
  9
$SURFTAB2
 70
     6
  9
$SURFTYPE
 70
     6
  9
$SURFU
 70
     6
  9
$SURFV
 70
     6
  9
$UCSNAME
  2

  9
$UCSORG
 10
0.0
 20
0.0
 30
0.0
  9
$UCSXDIR
 10
1.0
 20
0.0
 30
0.0
  9
$UCSYDIR
 10
0.0
 20
1.0
 30
0.0
  9
$PUCSNAME
  2

  9
$PUCSORG
 10
0.0
 20
0.0
 30
0.0
  9
$PUCSXDIR
 10
1.0
 20
0.0
 30
0.0
  9
$PUCSYDIR
 10
0.0
 20
1.0
 30
0.0
  9
$USERI1
 70
     0
  9
$USERI2
 70
     0
  9
$USERI3
 70
     0
  9
$USERI4
 70
     0
  9
$USERI5
 70
     0
  9
$USERR1
 40
0.0
  9
$USERR2
 40
0.0
  9
$USERR3
 40
0.0
  9
$USERR4
 40
0.0
  9
$USERR5
 40
0.0
  9
$WORLDVIEW
 70
     1
  9
$SHADEDGE
 70
     3
  9
$SHADEDIF
 70
    70
  9
$TILEMODE
 70
     1
  9
$MAXACTVP
 70
    16
  9
$PINSBASE
 10
0.0
 20
0.0
 30
0.0
  9
$PLIMCHECK
 70
     0
  9
$PEXTMIN
 10
1.000000E+20
 20
1.000000E+20
 30
1.000000E+20
  9
$PEXTMAX
 10
-1.000000E+20
 20
-1.000000E+20
 30
-1.000000E+20
  9
$PLIMMIN
 10
0.0
 20
0.0
  9
$PLIMMAX
 10
420.0
 20
297.0
  9
$UNITMODE
 70
     0
  9
$VISRETAIN
 70
     0
  9
$PLINEGEN
 70
     0
  9
$PSLTSCALE
 70
     0
  9
$TREEDEPTH
 70
  3020
  9
$PICKSTYLE
 70
     1
  9
$CMLSTYLE
  2
STANDARD
  9
$CMLJUST
 70
     0
  9
$CMLSCALE
 40
1.0
  9
$PROXYGRAPHICS
 70
     1
  9
$MEASUREMENT
 70
     0
  0
ENDSEC
  0
SECTION
  2
CLASSES
  0
CLASS
  1
ACDBDICTIONARYWDFLT
  2
AcDbDictionaryWithDefault
  3
AutoCAD 2000
 90
        0
280
     0
281
     0
  0
CLASS
  1
ACDBPLACEHOLDER
  2
AcDbPlaceHolder
  3
AutoCAD 2000
 90
        0
280
     0
281
     0
  0
CLASS
  1
LAYOUT
  2
AcDbLayout
  3
AutoCAD 2000
 90
        0
280
     0
281
     0
  0
CLASS
  1
DICTIONARYVAR
  2
AcDbDictionaryVar
  3
"AutoCAD"
 90
        0
280
     0
281
     0
  0
CLASS
  1
LONG_TRANSACTION
  2
AcDbLongTransaction
  3
AutoCAD 2000
 90
        0
280
     0
281
     0
  0
CLASS
  1
LWPOLYLINE
  2
AcDbPolyline
  3
"AutoCAD"
 90
        0
280
     0
281
     1
  0
CLASS
  1
HATCH
  2
AcDbHatch
  3
"ACAD_SEDONA"
 90
        0
280
     0
281
     1
  0
CLASS
  1
XRECORD
  2
AcDbXrecord
  3
"<Built In>"
 90
        0
280
     0
281
     0
  0
ENDSEC
  0
SECTION
  2
TABLES
  0
TABLE
  2
VPORT
  5
10D
100
AcDbSymbolTable
 70
     1
  0
VPORT
  5
21A
102
{ACAD_XDICTIONARY
360
223
102
}
100
AcDbSymbolTableRecord
100
AcDbViewportTableRecord
  2
*ACTIVE
 70
     0
 10
0.0
 20
0.0
 11
1.0
 21
1.0
 12
297.000001
 22
315.433306
 13
0.0
 23
0.0
 14
10.0
 24
10.0
 15
0.0
 25
0.0
 16
0.0
 26
0.0
 36
1.0
 17
0.0
 27
0.0
 37
0.0
 40
692.616442
 41
1.530211
 42
50.0
 43
0.0
 44
0.0
 50
0.0
 51
0.0
 71
     0
 72
   100
 73
     1
 74
     0
 75
     0
 76
     0
 77
     0
 78
     1
  0
ENDTAB
  0
TABLE
  2
LTYPE
  5
10A
100
AcDbSymbolTable
 70
     3
  0
LTYPE
  5
118
102
{ACAD_XDICTIONARY
360
21F
102
}
100
AcDbSymbolTableRecord
100
AcDbLinetypeTableRecord
  2
BYBLOCK
 70
     0
  3

 72
    65
 73
     0
 40
0.0
  0
LTYPE
  5
119
102
{ACAD_XDICTIONARY
360
221
102
}
100
AcDbSymbolTableRecord
100
AcDbLinetypeTableRecord
  2
BYLAYER
 70
     0
  3

 72
    65
 73
     0
 40
0.0
  0
LTYPE
  5
11A
100
AcDbSymbolTableRecord
100
AcDbLinetypeTableRecord
  2
CONTINUOUS
 70
     0
  3
Solid line
 72
    65
 73
     0
 40
0.0
  0
LTYPE
  5
128
100
AcDbSymbolTableRecord
100
AcDbLinetypeTableRecord
  2
CENTER
 70
     0
  3
____ _ ____ _ ____ _ ____ _ ____ _ ____ _ ____ 
 72
    65
 73
     4
 40
50.8
 49
31.75
 74
     0
 49
-6.35
 74
     0
 49
6.35
 74
     0
 49
-6.35
 74
     0
  0
LTYPE
  5
129
100
AcDbSymbolTableRecord
100
AcDbLinetypeTableRecord
  2
DASHED
 70
     0
  3
__ __ __ __ __ __ __ __ __ __ __ __ __ __ __ __
 72
    65
 73
     2
 40
0.75
 49
0.5
 74
     0
 49
-0.25
 74
     0
  0
ENDTAB
  0
TABLE
  2
LAYER
  5
107
100
AcDbSymbolTable
 70
     3
  0
LAYER
  5
115
100
AcDbSymbolTableRecord
100
AcDbLayerTableRecord
  2
0
 70
     0
 62
     7
  6
CONTINUOUS
  0
LAYER
  5
12A
100
AcDbSymbolTableRecord
100
AcDbLayerTableRecord
  2
DIMENSION
 70
     0
 62
    -4
  6
CONTINUOUS
  0
LAYER
  5
12B
100
AcDbSymbolTableRecord
100
AcDbLayerTableRecord
  2
CENTER
 70
     0
 62
     1
  6
CENTER
  0
ENDTAB
  0
TABLE
  2
STYLE
  5
108
100
AcDbSymbolTable
 70
     1
  0
STYLE
  5
116
100
AcDbSymbolTableRecord
100
AcDbTextStyleTableRecord
  2
STANDARD
 70
     0
 40
0.0
 41
1.0
 50
0.0
 71
     0
 42
4.0
  3
txt
  4
BIGFONT
  0
ENDTAB
  0
TABLE
  2
VIEW
  5
10B
100
AcDbSymbolTable
 70
     0
  0
ENDTAB
  0
TABLE
  2
UCS
  5
10C
100
AcDbSymbolTable
 70
     0
  0
ENDTAB
  0
TABLE
  2
APPID
  5
10E
100
AcDbSymbolTable
 70
     1
  0
APPID
  5
117
100
AcDbSymbolTableRecord
100
AcDbRegAppTableRecord
  2
ACAD
 70
     0
  0
ENDTAB
  0
TABLE
  2
DIMSTYLE
  5
10F
100
AcDbSymbolTable
 70
     1
  0
DIMSTYLE
105
12C
102
{ACAD_XDICTIONARY
360
24C
102
}
100
AcDbSymbolTableRecord
100
AcDbDimStyleTableRecord
  2
AA1
 70
     0
  3

  4

  5

  6

  7

 40
2.0
 41
3.0
 42
1.0
 43
10.0
 44
1.0
 45
0.0
 46
0.0
 47
0.0
 48
0.0
140
3.2
141
0.0
142
0.0
143
0.04
144
1.0
145
1.0
146
0.6
147
0.0
 71
     0
 72
     0
 73
     0
 74
     0
 75
     0
 76
     0
 77
     0
 78
     8
170
     0
171
     2
172
     1
173
     0
174
     0
175
     0
176
     0
177
     0
178
     0
270
     2
271
     2
272
     2
273
     2
274
     2
340
116
275
     0
280
     0
281
     0
282
     0
283
     1
284
     8
285
     8
286
     8
287
     5
288
     0
  0
ENDTAB
  0
TABLE
  2
BLOCK_RECORD
  5
106
100
AcDbSymbolTable
 70
     4
  0
BLOCK_RECORD
  5
123
102
{ACAD_XDICTIONARY
360
21B
102
}
100
AcDbSymbolTableRecord
100
AcDbBlockTableRecord
  2
*MODEL_SPACE
  0
BLOCK_RECORD
  5
11F
102
{ACAD_XDICTIONARY
360
21D
102
}
100
AcDbSymbolTableRecord
100
AcDbBlockTableRecord
  2
*PAPER_SPACE
  0
BLOCK_RECORD
  5
12F
100
AcDbSymbolTableRecord
100
AcDbBlockTableRecord
  2
$MODEL_SPACE
  0
BLOCK_RECORD
  5
132
100
AcDbSymbolTableRecord
100
AcDbBlockTableRecord
  2
$PAPER_SPACE
  0
BLOCK_RECORD
  5
135
100
AcDbSymbolTableRecord
100
AcDbBlockTableRecord
  2
ARROW
  0
BLOCK_RECORD
  5
13B
100
AcDbSymbolTableRecord
100
AcDbBlockTableRecord
  2
_OPEN
  0
ENDTAB
  0
ENDSEC
  0
SECTION
  2
BLOCKS
  0
BLOCK
  5
124
100
AcDbEntity
  8
0
100
AcDbBlockBegin
  2
*MODEL_SPACE
 70
     0
 10
0.0
 20
0.0
 30
0.0
  3
*MODEL_SPACE
  1

  0
ENDBLK
  5
125
100
AcDbEntity
  8
0
100
AcDbBlockEnd
  0
BLOCK
  5
120
100
AcDbEntity
 67
     1
  8
0
100
AcDbBlockBegin
  2
*PAPER_SPACE
 70
     0
 10
0.0
 20
0.0
 30
0.0
  3
*PAPER_SPACE
  1

  0
ENDBLK
  5
121
100
AcDbEntity
 67
     1
  8
0
100
AcDbBlockEnd
  0
BLOCK
  5
130
100
AcDbEntity
  8
0
100
AcDbBlockBegin
  2
$MODEL_SPACE
 70
     0
 10
0.0
 20
0.0
 30
0.0
  3
$MODEL_SPACE
  1

  0
ENDBLK
  5
131
100
AcDbEntity
  8
0
100
AcDbBlockEnd
  0
BLOCK
  5
133
100
AcDbEntity
  8
0
100
AcDbBlockBegin
  2
$PAPER_SPACE
 70
     0
 10
0.0
 20
0.0
 30
0.0
  3
$PAPER_SPACE
  1

  0
ENDBLK
  5
134
100
AcDbEntity
  8
0
100
AcDbBlockEnd
  0
BLOCK
  5
136
100
AcDbEntity
  8
0
100
AcDbBlockBegin
  2
ARROW
 70
     0
 10
0.0
 20
0.0
 30
0.0
  3
ARROW
  1

  0
LINE
  5
137
100
AcDbEntity
  8
DIMENSION
100
AcDbLine
 10
0.0
 20
0.0
 30
0.0
 11
-1.0
 21
0.176327
 31
0.0
  0
LINE
  5
138
100
AcDbEntity
  8
DIMENSION
100
AcDbLine
 10
0.0
 20
0.0
 30
0.0
 11
-1.0
 21
-0.176327
 31
0.0
  0
LINE
  5
139
100
AcDbEntity
  8
DIMENSION
100
AcDbLine
 10
-1.0
 20
0.0
 30
0.0
 11
0.0
 21
0.0
 31
0.0
  0
ENDBLK
  5
13A
100
AcDbEntity
  8
0
100
AcDbBlockEnd
  0
BLOCK
  5
13C
100
AcDbEntity
  8
0
100
AcDbBlockBegin
  2
_OPEN
 70
     0
 10
0.0
 20
0.0
 30
0.0
  3
_OPEN
  1

  0
LINE
  5
13D
100
AcDbEntity
  8
0
  6
BYBLOCK
 62
     0
100
AcDbLine
 10
-1.0
 20
0.166667
 30
0.0
 11
0.0
 21
0.0
 31
0.0
  0
LINE
  5
13E
100
AcDbEntity
  8
0
  6
BYBLOCK
 62
     0
100
AcDbLine
 10
0.0
 20
0.0
 30
0.0
 11
-1.0
 21
-0.166667
 31
0.0
  0
LINE
  5
13F
100
AcDbEntity
  8
0
  6
BYBLOCK
 62
     0
100
AcDbLine
 10
0.0
 20
0.0
 30
0.0
 11
-1.0
 21
0.0
 31
0.0
  0
ENDBLK
  5
140
100
AcDbEntity
  8
0
100
AcDbBlockEnd
  0
ENDSEC
  0
SECTION
  2
ENTITIES
  0
LINE
  5
141
100
AcDbEntity
  8
0
100
AcDbLine
 10
232.440385
 20
170.917568
 30
0.0
 11
232.440385
 21
235.917568
 31
0.0
  0
LINE
  5
142
100
AcDbEntity
  8
0
100
AcDbLine
 10
230.240385
 20
170.917568
 30
0.0
 11
230.240385
 21
235.917568
 31
0.0
  0
LINE
  5
143
100
AcDbEntity
  8
0
100
AcDbLine
 10
214.240385
 20
174.017568
 30
0.0
 11
214.240385
 21
232.817568
 31
0.0
  0
LINE
  5
144
100
AcDbEntity
  8
0
100
AcDbLine
 10
235.240385
 20
255.417568
 30
0.0
 11
235.240385
 21
151.417568
 31
0.0
  0
LINE
  5
145
100
AcDbEntity
  8
0
100
AcDbLine
 10
212.240385
 20
238.417568
 30
0.0
 11
212.240385
 21
168.417568
 31
0.0
  0
LINE
  5
148
100
AcDbEntity
  8
0
100
AcDbLine
 10
228.666077
 20
176.171004
 30
0.0
 11
228.610386
 21
177.513599
 31
0.0
  0
LINE
  5
149
100
AcDbEntity
  8
0
100
AcDbLine
 10
228.310385
 20
176.790568
 30
0.0
 11
228.310385
 21
177.637478
 31
0.0
  0
ARC
  5
14A
100
AcDbEntity
  8
0
100
AcDbCircle
 10
228.081121
 20
177.117578
 30
0.0
 40
0.2
100
AcDbArc
 50
4.987471
 51
90.0
  0
LINE
  5
14B
100
AcDbEntity
  8
0
100
AcDbLine
 10
215.814694
 20
176.171004
 30
0.0
 11
215.870384
 21
177.513599
 31
0.0
  0
LINE
  5
14C
100
AcDbEntity
  8
0
100
AcDbLine
 10
216.170385
 20
176.790568
 30
0.0
 11
216.170385
 21
177.637478
 31
0.0
  0
ARC
  5
14D
100
AcDbEntity
  8
0
100
AcDbCircle
 10
216.39965
 20
177.117578
 30
0.0
 40
0.2
100
AcDbArc
 50
90.0
 51
175.012529
  0
CIRCLE
  5
14E
100
AcDbEntity
  8
0
100
AcDbCircle
 10
222.240385
 20
180.167568
 30
0.0
 40
4.7625
  0
LINE
  5
14F
100
AcDbEntity
  8
CENTER
  6
CENTER
 62
     1
100
AcDbLine
 10
237.240385
 20
159.417568
 30
0.0
 11
210.240385
 21
159.417568
 31
0.0
  0
LINE
  5
150
100
AcDbEntity
  8
0
100
AcDbLine
 10
235.240385
 20
151.417568
 30
0.0
 11
214.240385
 21
151.417568
 31
0.0
  0
LINE
  5
151
100
AcDbEntity
  8
0
100
AcDbLine
 10
235.240385
 20
152.417568
 30
0.0
 11
226.640385
 21
152.417568
 31
0.0
  0
LINE
  5
152
100
AcDbEntity
  8
0
100
AcDbLine
 10
235.240385
 20
166.417568
 30
0.0
 11
226.640385
 21
166.417568
 31
0.0
  0
LINE
  5
153
100
AcDbEntity
  8
0
100
AcDbLine
 10
215.840385
 20
172.417568
 30
0.0
 11
230.240385
 21
172.417568
 31
0.0
  0
LINE
  5
154
100
AcDbEntity
  8
0
100
AcDbLine
 10
214.240385
 20
151.417568
 30
0.0
 11
214.240385
 21
168.417568
 31
0.0
  0
LINE
  5
155
100
AcDbEntity
  8
0
100
AcDbLine
 10
226.640385
 20
152.417568
 30
0.0
 11
226.640385
 21
166.417568
 31
0.0
  0
LINE
  5
156
100
AcDbEntity
  8
0
100
AcDbLine
 10
226.640385
 20
155.167568
 30
0.0
 11
214.240385
 21
155.167568
 31
0.0
  0
LINE
  5
157
100
AcDbEntity
  8
0
 62
     3
100
AcDbLine
 10
226.640385
 20
154.417568
 30
0.0
 11
214.240385
 21
154.417568
 31
0.0
  0
LINE
  5
158
100
AcDbEntity
  8
0
100
AcDbLine
 10
226.640385
 20
163.667568
 30
0.0
 11
214.240385
 21
163.667568
 31
0.0
  0
LINE
  5
159
100
AcDbEntity
  8
0
 62
     3
100
AcDbLine
 10
226.640385
 20
164.417568
 30
0.0
 11
214.240385
 21
164.417568
 31
0.0
  0
ARC
  5
15A
100
AcDbEntity
  8
0
100
AcDbCircle
 10
215.65514
 20
176.177938
 30
0.0
 40
0.46
100
AcDbArc
 50
220.092742
 51
355.012529
  0
ARC
  5
15B
100
AcDbEntity
  8
0
100
AcDbCircle
 10
215.654831
 20
176.177635
 30
0.0
 40
0.16
100
AcDbArc
 50
220.006774
 51
357.624736
  0
ARC
  5
15C
100
AcDbEntity
  8
0
100
AcDbCircle
 10
215.840385
 20
174.017568
 30
0.0
 40
1.6
100
AcDbArc
 50
180.0
 51
270.0
  0
LINE
  5
15D
100
AcDbEntity
  8
0
100
AcDbLine
 10
214.240385
 20
168.417568
 30
0.0
 11
212.240385
 21
168.417568
 31
0.0
  0
LINE
  5
15E
100
AcDbEntity
  8
0
100
AcDbLine
 10
215.02017
 20
176.217927
 30
0.0
 11
215.303239
 21
175.881686
 31
0.0
  0
LINE
  5
15F
100
AcDbEntity
  8
0
100
AcDbLine
 10
215.286424
 20
176.833614
 30
0.0
 11
215.056825
 21
176.64094
 31
0.0
  0
ARC
  5
160
100
AcDbEntity
  8
0
100
AcDbCircle
 10
215.249671
 20
176.411135
 30
0.0
 40
0.3
100
AcDbArc
 50
130.002497
 51
220.092742
  0
LINE
  5
161
100
AcDbEntity
  8
0
100
AcDbLine
 10
215.479423
 20
176.603615
 30
0.0
 11
215.250405
 21
176.410615
 31
0.0
  0
LINE
  5
162
100
AcDbEntity
  8
0
100
AcDbLine
 10
215.286424
 20
176.833614
 30
0.0
 11
215.479423
 21
176.603615
 31
0.0
  0
LINE
  5
163
100
AcDbEntity
  8
0
100
AcDbLine
 10
215.250405
 20
176.410615
 30
0.0
 11
215.532276
 21
176.074774
 31
0.0
  0
ARC
  5
164
100
AcDbEntity
  8
0
100
AcDbCircle
 10
214.440385
 20
176.017568
 30
0.0
 40
0.2
100
AcDbArc
 50
90.0
 51
180.0
  0
LINE
  5
165
100
AcDbEntity
  8
0
100
AcDbLine
 10
214.240385
 20
175.917568
 30
0.0
 11
212.240385
 21
175.917568
 31
0.0
  0
LINE
  5
166
100
AcDbEntity
  8
0
100
AcDbLine
 10
214.440385
 20
176.217568
 30
0.0
 11
215.020473
 21
176.217568
 31
0.0
  0
LINE
  5
167
100
AcDbEntity
  8
0
100
AcDbLine
 10
216.113399
 20
176.137947
 30
0.0
 11
216.200407
 21
177.134966
 31
0.0
  0
LINE
  5
168
100
AcDbEntity
  8
0
100
AcDbLine
 10
235.240385
 20
172.417568
 30
0.0
 11
232.440385
 21
172.417568
 31
0.0
  0
LINE
  5
169
100
AcDbEntity
  8
0
100
AcDbLine
 10
232.440385
 20
170.917568
 30
0.0
 11
230.240385
 21
170.917568
 31
0.0
  0
ARC
  5
16A
100
AcDbEntity
  8
0
100
AcDbCircle
 10
228.640385
 20
174.017568
 30
0.0
 40
1.6
100
AcDbArc
 50
270.0
 51
0.0
  0
LINE
  5
16B
100
AcDbEntity
  8
0
100
AcDbLine
 10
228.367372
 20
176.137947
 30
0.0
 11
228.280364
 21
177.134966
 31
0.0
  0
ARC
  5
16C
100
AcDbEntity
  8
0
100
AcDbCircle
 10
228.82563
 20
176.177938
 30
0.0
 40
0.46
100
AcDbArc
 50
184.987471
 51
319.907258
  0
ARC
  5
16D
100
AcDbEntity
  8
0
100
AcDbCircle
 10
229.231099
 20
176.411135
 30
0.0
 40
0.3
100
AcDbArc
 50
319.907258
 51
49.997503
  0
LINE
  5
16E
100
AcDbEntity
  8
0
100
AcDbLine
 10
230.040385
 20
176.217568
 30
0.0
 11
229.460298
 21
176.217568
 31
0.0
  0
LINE
  5
16F
100
AcDbEntity
  8
0
100
AcDbLine
 10
229.001348
 20
176.603615
 30
0.0
 11
229.230366
 21
176.410615
 31
0.0
  0
ARC
  5
170
100
AcDbEntity
  8
0
100
AcDbCircle
 10
228.825939
 20
176.177635
 30
0.0
 40
0.16
100
AcDbArc
 50
182.375264
 51
319.993226
  0
LINE
  5
171
100
AcDbEntity
  8
0
100
AcDbLine
 10
229.230366
 20
176.410615
 30
0.0
 11
228.948494
 21
176.074774
 31
0.0
  0
LINE
  5
172
100
AcDbEntity
  8
0
100
AcDbLine
 10
229.194346
 20
176.833614
 30
0.0
 11
229.001348
 21
176.603615
 31
0.0
  0
LINE
  5
173
100
AcDbEntity
  8
0
100
AcDbLine
 10
229.4606
 20
176.217927
 30
0.0
 11
229.177531
 21
175.881686
 31
0.0
  0
LINE
  5
174
100
AcDbEntity
  8
0
100
AcDbLine
 10
229.194346
 20
176.833614
 30
0.0
 11
229.423946
 21
176.64094
 31
0.0
  0
ARC
  5
175
100
AcDbEntity
  8
0
100
AcDbCircle
 10
230.040385
 20
176.017568
 30
0.0
 40
0.2
100
AcDbArc
 50
0.0
 51
90.0
  0
LINE
  5
176
100
AcDbEntity
  8
0
100
AcDbLine
 10
232.440385
 20
176.417568
 30
0.0
 11
230.240385
 21
176.417568
 31
0.0
  0
LINE
  5
177
100
AcDbEntity
  8
CENTER
  6
CENTER
 62
     1
100
AcDbLine
 10
237.240385
 20
203.417568
 30
0.0
 11
210.240385
 21
203.417568
 31
0.0
  0
LINE
  5
178
100
AcDbEntity
  8
0
100
AcDbLine
 10
215.840385
 20
188.417568
 30
0.0
 11
228.640385
 21
188.417568
 31
0.0
  0
LINE
  5
179
100
AcDbEntity
  8
0
100
AcDbLine
 10
228.081121
 20
177.317578
 30
0.0
 11
226.056006
 21
177.317578
 31
0.0
  0
LINE
  5
17A
100
AcDbEntity
  8
0
100
AcDbLine
 10
227.899339
 20
183.017578
 30
0.0
 11
226.055991
 21
183.017578
 31
0.0
  0
LINE
  5
17B
100
AcDbEntity
  8
0
100
AcDbLine
 10
215.870384
 20
177.513599
 30
0.0
 11
214.770385
 21
178.613618
 31
0.0
  0
LINE
  5
17C
100
AcDbEntity
  8
0
100
AcDbLine
 10
216.170385
 20
177.637478
 30
0.0
 11
215.070385
 21
178.737478
 31
0.0
  0
ARC
  5
17D
100
AcDbEntity
  8
0
100
AcDbCircle
 10
215.740385
 20
184.067578
 30
0.0
 40
0.300184
100
AcDbArc
 50
19.969588
 51
94.462571
  0
ARC
  5
17E
100
AcDbEntity
  8
0
100
AcDbCircle
 10
215.840385
 20
186.817568
 30
0.0
 40
1.6
100
AcDbArc
 50
90.0
 51
180.0
  0
LINE
  5
17F
100
AcDbEntity
  8
0
100
AcDbLine
 10
214.940345
 20
183.817578
 30
0.0
 11
215.314395
 21
184.191628
 31
0.0
  0
LINE
  5
180
100
AcDbEntity
  8
0
100
AcDbLine
 10
215.070385
 20
183.517578
 30
0.0
 11
215.690385
 21
183.517578
 31
0.0
  0
LINE
  5
181
100
AcDbEntity
  8
0
100
AcDbLine
 10
215.690385
 20
183.217568
 30
0.0
 11
215.070385
 21
183.217568
 31
0.0
  0
ARC
  5
182
100
AcDbEntity
  8
0
100
AcDbCircle
 10
215.070385
 20
183.217578
 30
0.0
 40
0.3
100
AcDbArc
 50
90.0
 51
180.0
  0
LINE
  5
183
100
AcDbEntity
  8
0
100
AcDbLine
 10
215.690385
 20
183.517578
 30
0.0
 11
215.690385
 21
183.217568
 31
0.0
  0
ARC
  5
184
100
AcDbEntity
  8
0
100
AcDbCircle
 10
215.738385
 20
183.767578
 30
0.0
 40
0.599655
100
AcDbArc
 50
87.195047
 51
135.0
  0
ARC
  5
185
100
AcDbEntity
  8
0
100
AcDbCircle
 10
214.440385
 20
184.017578
 30
0.0
 40
0.2
100
AcDbArc
 50
180.0
 51
270.0
  0
LINE
  5
186
100
AcDbEntity
  8
0
100
AcDbLine
 10
214.440385
 20
183.817578
 30
0.0
 11
214.940345
 21
183.817578
 31
0.0
  0
LINE
  5
187
100
AcDbEntity
  8
0
100
AcDbLine
 10
214.770385
 20
178.613618
 30
0.0
 11
214.770385
 21
183.217578
 31
0.0
  0
LINE
  5
188
100
AcDbEntity
  8
0
100
AcDbLine
 10
215.070385
 20
178.737478
 30
0.0
 11
215.070385
 21
183.217568
 31
0.0
  0
LINE
  5
189
100
AcDbEntity
  8
0
100
AcDbLine
 10
216.39965
 20
177.317578
 30
0.0
 11
218.424764
 21
177.317578
 31
0.0
  0
LINE
  5
18A
100
AcDbEntity
  8
0
100
AcDbLine
 10
216.581432
 20
183.017578
 30
0.0
 11
218.424779
 21
183.017578
 31
0.0
  0
ARC
  5
18B
100
AcDbEntity
  8
0
100
AcDbCircle
 10
216.581432
 20
183.217578
 30
0.0
 40
0.2
100
AcDbArc
 50
199.969588
 51
270.0
  0
LINE
  5
18C
100
AcDbEntity
  8
0
100
AcDbLine
 10
216.022375
 20
184.170498
 30
0.0
 11
216.393457
 21
183.149274
 31
0.0
  0
ARC
  5
18D
100
AcDbEntity
  8
0
100
AcDbCircle
 10
227.899339
 20
183.217578
 30
0.0
 40
0.2
100
AcDbArc
 50
270.0
 51
340.030412
  0
LINE
  5
18E
100
AcDbEntity
  8
0
100
AcDbLine
 10
228.310385
 20
177.637478
 30
0.0
 11
229.410385
 21
178.737478
 31
0.0
  0
LINE
  5
18F
100
AcDbEntity
  8
0
100
AcDbLine
 10
228.610386
 20
177.513599
 30
0.0
 11
229.710385
 21
178.613618
 31
0.0
  0
ARC
  5
190
100
AcDbEntity
  8
0
100
AcDbCircle
 10
228.740385
 20
184.067578
 30
0.0
 40
0.300184
100
AcDbArc
 50
85.537429
 51
160.030412
  0
ARC
  5
191
100
AcDbEntity
  8
0
100
AcDbCircle
 10
229.410385
 20
183.217578
 30
0.0
 40
0.3
100
AcDbArc
 50
0.0
 51
90.0
  0
LINE
  5
192
100
AcDbEntity
  8
0
100
AcDbLine
 10
229.540425
 20
183.817578
 30
0.0
 11
229.166375
 21
184.191628
 31
0.0
  0
LINE
  5
193
100
AcDbEntity
  8
0
100
AcDbLine
 10
228.790385
 20
183.517578
 30
0.0
 11
228.790385
 21
183.217568
 31
0.0
  0
ARC
  5
194
100
AcDbEntity
  8
0
100
AcDbCircle
 10
228.742385
 20
183.767578
 30
0.0
 40
0.599655
100
AcDbArc
 50
45.0
 51
92.804953
  0
LINE
  5
195
100
AcDbEntity
  8
0
100
AcDbLine
 10
228.790385
 20
183.217568
 30
0.0
 11
229.410385
 21
183.217568
 31
0.0
  0
LINE
  5
196
100
AcDbEntity
  8
0
100
AcDbLine
 10
229.410385
 20
183.517578
 30
0.0
 11
228.790385
 21
183.517578
 31
0.0
  0
LINE
  5
197
100
AcDbEntity
  8
0
100
AcDbLine
 10
230.040385
 20
183.817578
 30
0.0
 11
229.540425
 21
183.817578
 31
0.0
  0
ARC
  5
198
100
AcDbEntity
  8
0
100
AcDbCircle
 10
230.040385
 20
184.017578
 30
0.0
 40
0.2
100
AcDbArc
 50
270.0
 51
0.0
  0
LINE
  5
199
100
AcDbEntity
  8
0
100
AcDbLine
 10
229.410385
 20
178.737478
 30
0.0
 11
229.410385
 21
183.217568
 31
0.0
  0
LINE
  5
19A
100
AcDbEntity
  8
0
100
AcDbLine
 10
229.710385
 20
178.613618
 30
0.0
 11
229.710385
 21
183.217578
 31
0.0
  0
LINE
  5
19B
100
AcDbEntity
  8
0
100
AcDbLine
 10
228.458395
 20
184.170498
 30
0.0
 11
228.087314
 21
183.149274
 31
0.0
  0
ARC
  5
19C
100
AcDbEntity
  8
0
100
AcDbCircle
 10
228.640385
 20
186.817568
 30
0.0
 40
1.6
100
AcDbArc
 50
0.0
 51
90.0
  0
LINE
  5
19D
100
AcDbEntity
  8
0
100
AcDbLine
 10
214.240385
 20
255.417568
 30
0.0
 11
214.240385
 21
238.417568
 31
0.0
  0
LINE
  5
19E
100
AcDbEntity
  8
0
100
AcDbLine
 10
226.640385
 20
254.417568
 30
0.0
 11
226.640385
 21
240.417568
 31
0.0
  0
LINE
  5
19F
100
AcDbEntity
  8
0
100
AcDbLine
 10
227.899339
 20
223.817558
 30
0.0
 11
226.055991
 21
223.817558
 31
0.0
  0
LINE
  5
1A0
100
AcDbEntity
  8
0
100
AcDbLine
 10
228.081121
 20
229.517558
 30
0.0
 11
226.056006
 21
229.517558
 31
0.0
  0
LINE
  5
1A1
100
AcDbEntity
  8
0
100
AcDbLine
 10
215.840385
 20
218.417568
 30
0.0
 11
228.640385
 21
218.417568
 31
0.0
  0
LINE
  5
1A2
100
AcDbEntity
  8
0
100
AcDbLine
 10
215.840385
 20
234.417568
 30
0.0
 11
230.240385
 21
234.417568
 31
0.0
  0
LINE
  5
1A3
100
AcDbEntity
  8
0
100
AcDbLine
 10
235.240385
 20
240.417568
 30
0.0
 11
226.640385
 21
240.417568
 31
0.0
  0
LINE
  5
1A4
100
AcDbEntity
  8
0
100
AcDbLine
 10
215.070385
 20
228.097658
 30
0.0
 11
215.070385
 21
223.617568
 31
0.0
  0
LINE
  5
1A5
100
AcDbEntity
  8
0
100
AcDbLine
 10
214.770385
 20
228.221518
 30
0.0
 11
214.770385
 21
223.617558
 31
0.0
  0
CIRCLE
  5
1A6
100
AcDbEntity
  8
0
100
AcDbCircle
 10
222.240385
 20
226.667568
 30
0.0
 40
4.7625
  0
ARC
  5
1A7
100
AcDbEntity
  8
0
100
AcDbCircle
 10
215.740385
 20
222.767558
 30
0.0
 40
0.300184
100
AcDbArc
 50
265.537429
 51
340.030412
  0
ARC
  5
1A8
100
AcDbEntity
  8
0
100
AcDbCircle
 10
215.840385
 20
220.017568
 30
0.0
 40
1.6
100
AcDbArc
 50
180.0
 51
270.0
  0
ARC
  5
1A9
100
AcDbEntity
  8
0
100
AcDbCircle
 10
215.738385
 20
223.067558
 30
0.0
 40
0.599655
100
AcDbArc
 50
225.0
 51
272.804953
  0
LINE
  5
1AA
100
AcDbEntity
  8
0
100
AcDbLine
 10
215.690385
 20
223.317558
 30
0.0
 11
215.690385
 21
223.617568
 31
0.0
  0
LINE
  5
1AB
100
AcDbEntity
  8
0
100
AcDbLine
 10
214.440385
 20
223.017558
 30
0.0
 11
214.940345
 21
223.017558
 31
0.0
  0
ARC
  5
1AC
100
AcDbEntity
  8
0
100
AcDbCircle
 10
214.440385
 20
222.817558
 30
0.0
 40
0.2
100
AcDbArc
 50
90.0
 51
180.0
  0
ARC
  5
1AD
100
AcDbEntity
  8
0
100
AcDbCircle
 10
215.070385
 20
223.617558
 30
0.0
 40
0.3
100
AcDbArc
 50
180.0
 51
270.0
  0
LINE
  5
1AE
100
AcDbEntity
  8
0
100
AcDbLine
 10
215.690385
 20
223.617568
 30
0.0
 11
215.070385
 21
223.617568
 31
0.0
  0
LINE
  5
1AF
100
AcDbEntity
  8
0
100
AcDbLine
 10
215.070385
 20
223.317558
 30
0.0
 11
215.690385
 21
223.317558
 31
0.0
  0
LINE
  5
1B0
100
AcDbEntity
  8
0
100
AcDbLine
 10
214.940345
 20
223.017558
 30
0.0
 11
215.314395
 21
222.643508
 31
0.0
  0
ARC
  5
1B1
100
AcDbEntity
  8
0
100
AcDbCircle
 10
216.581432
 20
223.617558
 30
0.0
 40
0.2
100
AcDbArc
 50
90.0
 51
160.030412
  0
LINE
  5
1B2
100
AcDbEntity
  8
0
100
AcDbLine
 10
216.022375
 20
222.664638
 30
0.0
 11
216.393457
 21
223.685862
 31
0.0
  0
LINE
  5
1B3
100
AcDbEntity
  8
0
100
AcDbLine
 10
216.581432
 20
223.817558
 30
0.0
 11
218.424779
 21
223.817558
 31
0.0
  0
ARC
  5
1B4
100
AcDbEntity
  8
0
100
AcDbCircle
 10
215.654831
 20
230.657501
 30
0.0
 40
0.16
100
AcDbArc
 50
2.375264
 51
139.993226
  0
ARC
  5
1B5
100
AcDbEntity
  8
0
100
AcDbCircle
 10
215.65514
 20
230.657198
 30
0.0
 40
0.46
100
AcDbArc
 50
4.987471
 51
139.907258
  0
LINE
  5
1B6
100
AcDbEntity
  8
0
100
AcDbLine
 10
216.170385
 20
229.197658
 30
0.0
 11
215.070385
 21
228.097658
 31
0.0
  0
LINE
  5
1B7
100
AcDbEntity
  8
0
100
AcDbLine
 10
215.870384
 20
229.321537
 30
0.0
 11
214.770385
 21
228.221518
 31
0.0
  0
ARC
  5
1B8
100
AcDbEntity
  8
0
100
AcDbCircle
 10
215.840385
 20
232.817568
 30
0.0
 40
1.6
100
AcDbArc
 50
90.0
 51
180.0
  0
LINE
  5
1B9
100
AcDbEntity
  8
0
 62
     3
100
AcDbLine
 10
226.640385
 20
242.417568
 30
0.0
 11
214.240385
 21
242.417568
 31
0.0
  0
LINE
  5
1BA
100
AcDbEntity
  8
0
100
AcDbLine
 10
214.240385
 20
230.917568
 30
0.0
 11
212.240385
 21
230.917568
 31
0.0
  0
LINE
  5
1BB
100
AcDbEntity
  8
0
100
AcDbLine
 10
215.250405
 20
230.424522
 30
0.0
 11
215.532276
 21
230.760362
 31
0.0
  0
LINE
  5
1BC
100
AcDbEntity
  8
0
100
AcDbLine
 10
215.286424
 20
230.001522
 30
0.0
 11
215.479423
 21
230.231521
 31
0.0
  0
LINE
  5
1BD
100
AcDbEntity
  8
0
100
AcDbLine
 10
215.479423
 20
230.231521
 30
0.0
 11
215.250405
 21
230.424522
 31
0.0
  0
LINE
  5
1BE
100
AcDbEntity
  8
0
100
AcDbLine
 10
214.440385
 20
230.617568
 30
0.0
 11
215.020473
 21
230.617568
 31
0.0
  0
ARC
  5
1BF
100
AcDbEntity
  8
0
100
AcDbCircle
 10
214.440385
 20
230.817568
 30
0.0
 40
0.2
100
AcDbArc
 50
180.0
 51
270.0
  0
ARC
  5
1C0
100
AcDbEntity
  8
0
100
AcDbCircle
 10
215.249671
 20
230.424001
 30
0.0
 40
0.3
100
AcDbArc
 50
139.907258
 51
229.997503
  0
LINE
  5
1C1
100
AcDbEntity
  8
0
100
AcDbLine
 10
215.286424
 20
230.001522
 30
0.0
 11
215.056825
 21
230.194196
 31
0.0
  0
LINE
  5
1C2
100
AcDbEntity
  8
0
100
AcDbLine
 10
215.02017
 20
230.617209
 30
0.0
 11
215.303239
 21
230.95345
 31
0.0
  0
LINE
  5
1C3
100
AcDbEntity
  8
0
100
AcDbLine
 10
214.240385
 20
238.417568
 30
0.0
 11
212.240385
 21
238.417568
 31
0.0
  0
ARC
  5
1C4
100
AcDbEntity
  8
0
100
AcDbCircle
 10
216.39965
 20
229.717558
 30
0.0
 40
0.2
100
AcDbArc
 50
184.987471
 51
270.0
  0
LINE
  5
1C5
100
AcDbEntity
  8
0
100
AcDbLine
 10
216.170385
 20
230.044568
 30
0.0
 11
216.170385
 21
229.197658
 31
0.0
  0
LINE
  5
1C6
100
AcDbEntity
  8
0
100
AcDbLine
 10
215.814694
 20
230.664133
 30
0.0
 11
215.870384
 21
229.321537
 31
0.0
  0
LINE
  5
1C7
100
AcDbEntity
  8
0
100
AcDbLine
 10
216.113399
 20
230.69719
 30
0.0
 11
216.200407
 21
229.700171
 31
0.0
  0
LINE
  5
1C8
100
AcDbEntity
  8
0
100
AcDbLine
 10
216.39965
 20
229.517558
 30
0.0
 11
218.424764
 21
229.517558
 31
0.0
  0
LINE
  5
1C9
100
AcDbEntity
  8
0
100
AcDbLine
 10
229.710385
 20
228.221518
 30
0.0
 11
229.710385
 21
223.617558
 31
0.0
  0
LINE
  5
1CA
100
AcDbEntity
  8
0
100
AcDbLine
 10
229.410385
 20
228.097658
 30
0.0
 11
229.410385
 21
223.617568
 31
0.0
  0
ARC
  5
1CB
100
AcDbEntity
  8
0
100
AcDbCircle
 10
228.640385
 20
220.017568
 30
0.0
 40
1.6
100
AcDbArc
 50
270.0
 51
0.0
  0
ARC
  5
1CC
100
AcDbEntity
  8
0
100
AcDbCircle
 10
230.040385
 20
222.817558
 30
0.0
 40
0.2
100
AcDbArc
 50
0.0
 51
90.0
  0
LINE
  5
1CD
100
AcDbEntity
  8
0
100
AcDbLine
 10
230.040385
 20
223.017558
 30
0.0
 11
229.540425
 21
223.017558
 31
0.0
  0
LINE
  5
1CE
100
AcDbEntity
  8
0
100
AcDbLine
 10
229.410385
 20
223.317558
 30
0.0
 11
228.790385
 21
223.317558
 31
0.0
  0
LINE
  5
1CF
100
AcDbEntity
  8
0
100
AcDbLine
 10
228.790385
 20
223.617568
 30
0.0
 11
229.410385
 21
223.617568
 31
0.0
  0
ARC
  5
1D0
100
AcDbEntity
  8
0
100
AcDbCircle
 10
228.742385
 20
223.067558
 30
0.0
 40
0.599655
100
AcDbArc
 50
267.195047
 51
315.0
  0
LINE
  5
1D1
100
AcDbEntity
  8
0
100
AcDbLine
 10
228.790385
 20
223.317558
 30
0.0
 11
228.790385
 21
223.617568
 31
0.0
  0
LINE
  5
1D2
100
AcDbEntity
  8
0
100
AcDbLine
 10
229.540425
 20
223.017558
 30
0.0
 11
229.166375
 21
222.643508
 31
0.0
  0
ARC
  5
1D3
100
AcDbEntity
  8
0
100
AcDbCircle
 10
229.410385
 20
223.617558
 30
0.0
 40
0.3
100
AcDbArc
 50
270.0
 51
0.0
  0
ARC
  5
1D4
100
AcDbEntity
  8
0
100
AcDbCircle
 10
227.899339
 20
223.617558
 30
0.0
 40
0.2
100
AcDbArc
 50
19.969588
 51
90.0
  0
LINE
  5
1D5
100
AcDbEntity
  8
0
100
AcDbLine
 10
228.458395
 20
222.664638
 30
0.0
 11
228.087314
 21
223.685862
 31
0.0
  0
ARC
  5
1D6
100
AcDbEntity
  8
0
100
AcDbCircle
 10
228.740385
 20
222.767558
 30
0.0
 40
0.300184
100
AcDbArc
 50
199.969588
 51
274.462571
  0
ARC
  5
1D7
100
AcDbEntity
  8
0
100
AcDbCircle
 10
228.640385
 20
232.817568
 30
0.0
 40
1.6
100
AcDbArc
 50
0.0
 51
90.0
  0
LINE
  5
1D8
100
AcDbEntity
  8
0
100
AcDbLine
 10
235.240385
 20
234.417568
 30
0.0
 11
232.440385
 21
234.417568
 31
0.0
  0
LINE
  5
1D9
100
AcDbEntity
  8
0
100
AcDbLine
 10
232.440385
 20
230.417568
 30
0.0
 11
230.240385
 21
230.417568
 31
0.0
  0
ARC
  5
1DA
100
AcDbEntity
  8
0
100
AcDbCircle
 10
230.040385
 20
230.817568
 30
0.0
 40
0.2
100
AcDbArc
 50
270.0
 51
0.0
  0
LINE
  5
1DB
100
AcDbEntity
  8
0
100
AcDbLine
 10
229.194346
 20
230.001522
 30
0.0
 11
229.423946
 21
230.194196
 31
0.0
  0
LINE
  5
1DC
100
AcDbEntity
  8
0
100
AcDbLine
 10
229.4606
 20
230.617209
 30
0.0
 11
229.177531
 21
230.95345
 31
0.0
  0
LINE
  5
1DD
100
AcDbEntity
  8
0
100
AcDbLine
 10
229.194346
 20
230.001522
 30
0.0
 11
229.001348
 21
230.231521
 31
0.0
  0
LINE
  5
1DE
100
AcDbEntity
  8
0
100
AcDbLine
 10
229.230366
 20
230.424522
 30
0.0
 11
228.948494
 21
230.760362
 31
0.0
  0
ARC
  5
1DF
100
AcDbEntity
  8
0
100
AcDbCircle
 10
228.825939
 20
230.657501
 30
0.0
 40
0.16
100
AcDbArc
 50
40.006774
 51
177.624736
  0
LINE
  5
1E0
100
AcDbEntity
  8
0
100
AcDbLine
 10
229.001348
 20
230.231521
 30
0.0
 11
229.230366
 21
230.424522
 31
0.0
  0
LINE
  5
1E1
100
AcDbEntity
  8
0
100
AcDbLine
 10
230.040385
 20
230.617568
 30
0.0
 11
229.460298
 21
230.617568
 31
0.0
  0
ARC
  5
1E2
100
AcDbEntity
  8
0
100
AcDbCircle
 10
229.231099
 20
230.424001
 30
0.0
 40
0.3
100
AcDbArc
 50
310.002497
 51
40.092742
  0
ARC
  5
1E3
100
AcDbEntity
  8
0
100
AcDbCircle
 10
228.82563
 20
230.657198
 30
0.0
 40
0.46
100
AcDbArc
 50
40.092742
 51
175.012529
  0
LINE
  5
1E4
100
AcDbEntity
  8
0
100
AcDbLine
 10
228.610386
 20
229.321537
 30
0.0
 11
229.710385
 21
228.221518
 31
0.0
  0
ARC
  5
1E5
100
AcDbEntity
  8
0
100
AcDbCircle
 10
228.081121
 20
229.717558
 30
0.0
 40
0.2
100
AcDbArc
 50
270.0
 51
355.012529
  0
LINE
  5
1E6
100
AcDbEntity
  8
0
100
AcDbLine
 10
228.310385
 20
229.197658
 30
0.0
 11
229.410385
 21
228.097658
 31
0.0
  0
LINE
  5
1E7
100
AcDbEntity
  8
0
100
AcDbLine
 10
228.310385
 20
230.044568
 30
0.0
 11
228.310385
 21
229.197658
 31
0.0
  0
LINE
  5
1E8
100
AcDbEntity
  8
0
100
AcDbLine
 10
228.367372
 20
230.69719
 30
0.0
 11
228.280364
 21
229.700171
 31
0.0
  0
LINE
  5
1E9
100
AcDbEntity
  8
0
100
AcDbLine
 10
228.666077
 20
230.664133
 30
0.0
 11
228.610386
 21
229.321537
 31
0.0
  0
LINE
  5
1EA
100
AcDbEntity
  8
0
100
AcDbLine
 10
232.440385
 20
235.917568
 30
0.0
 11
230.240385
 21
235.917568
 31
0.0
  0
LINE
  5
1EB
100
AcDbEntity
  8
CENTER
  6
CENTER
 62
     1
100
AcDbLine
 10
237.240385
 20
247.417568
 30
0.0
 11
210.240385
 21
247.417568
 31
0.0
  0
LINE
  5
1EC
100
AcDbEntity
  8
0
100
AcDbLine
 10
235.240385
 20
254.417568
 30
0.0
 11
226.640385
 21
254.417568
 31
0.0
  0
LINE
  5
1ED
100
AcDbEntity
  8
0
100
AcDbLine
 10
235.240385
 20
255.417568
 30
0.0
 11
214.240385
 21
255.417568
 31
0.0
  0
LINE
  5
1EE
100
AcDbEntity
  8
0
100
AcDbLine
 10
226.640385
 20
251.667568
 30
0.0
 11
214.240385
 21
251.667568
 31
0.0
  0
LINE
  5
1EF
100
AcDbEntity
  8
0
 62
     3
100
AcDbLine
 10
226.640385
 20
252.417568
 30
0.0
 11
214.240385
 21
252.417568
 31
0.0
  0
LINE
  5
1F0
100
AcDbEntity
  8
0
100
AcDbLine
 10
226.640385
 20
243.167568
 30
0.0
 11
214.240385
 21
243.167568
 31
0.0
  0
LINE
  5
1F1
100
AcDbEntity
  8
0
100
AcDbLine
 10
224.740385
 20
255.417568
 30
0.0
 11
224.740485
 21
255.417568
 31
0.0
  0
LINE
  5
1F2
100
AcDbEntity
  8
0
100
AcDbLine
 10
229.990385
 20
255.417568
 30
0.0
 11
229.990385
 21
255.417668
 31
0.0
  0
LINE
  5
1F3
100
AcDbEntity
  8
CENTER
  6
CENTER
 62
     1
100
AcDbLine
 10
376.301213
 20
264.443952
 30
0.0
 11
376.301213
 21
142.391184
 31
0.0
  0
CIRCLE
  5
1F4
100
AcDbEntity
  8
CENTER
  6
CENTER
 62
     1
100
AcDbCircle
 10
376.301213
 20
203.417568
 30
0.0
 40
44.0
  0
LWPOLYLINE
  5
1F5
100
AcDbEntity
  8
0
100
AcDbPolyline
 90
        2
 70
     0
 43
0.0
 10
372.284403
 20
255.262194
 10
324.456587
 20
207.434378
  0
LWPOLYLINE
  5
1F9
100
AcDbEntity
  8
0
100
AcDbPolyline
 90
        2
 70
     0
 43
0.0
 10
428.145839
 20
207.434378
 10
380.318023
 20
255.262194
  0
CIRCLE
  5
1FD
100
AcDbEntity
  8
0
  6
DASHED
 62
     3
100
AcDbCircle
 10
376.301213
 20
203.417568
 30
0.0
 40
35.0
  0
CIRCLE
  5
1FE
100
AcDbEntity
  8
0
100
AcDbCircle
 10
420.301213
 20
203.417568
 30
0.0
 40
7.0
  0
CIRCLE
  5
1FF
100
AcDbEntity
  8
0
100
AcDbCircle
 10
332.301213
 20
203.417568
 30
0.0
 40
7.0
  0
CIRCLE
  5
200
100
AcDbEntity
  8
0
100
AcDbCircle
 10
376.301213
 20
203.417568
 30
0.0
 40
31.0
  0
CIRCLE
  5
201
100
AcDbEntity
  8
0
100
AcDbCircle
 10
376.301213
 20
203.417568
 30
0.0
 40
15.0
  0
LINE
  5
202
100
AcDbEntity
  8
CENTER
  6
CENTER
 62
     1
100
AcDbLine
 10
315.27483
 20
203.417568
 30
0.0
 11
437.327597
 21
203.417568
 31
0.0
  0
LWPOLYLINE
  5
203
100
AcDbEntity
  8
0
100
AcDbPolyline
 90
        2
 70
     0
 43
0.0
 10
380.318023
 20
151.572942
 10
428.145839
 20
199.400758
  0
LWPOLYLINE
  5
207
100
AcDbEntity
  8
0
100
AcDbPolyline
 90
        2
 70
     0
 43
0.0
 10
324.456587
 20
199.400758
 10
372.284403
 20
151.572942
  0
CIRCLE
  5
20B
100
AcDbEntity
  8
0
100
AcDbCircle
 10
332.301213
 20
203.417568
 30
0.0
 40
4.25
  0
CIRCLE
  5
20C
100
AcDbEntity
  8
0
 62
     3
100
AcDbCircle
 10
332.301213
 20
203.417568
 30
0.0
 40
5.0
  0
ARC
  5
20D
100
AcDbEntity
  8
0
100
AcDbCircle
 10
376.301213
 20
203.417568
 30
0.0
 40
52.0
100
AcDbArc
 50
175.569697
 51
184.430303
  0
CIRCLE
  5
20E
100
AcDbEntity
  8
0
100
AcDbCircle
 10
376.301213
 20
159.417568
 30
0.0
 40
4.25
  0
CIRCLE
  5
20F
100
AcDbEntity
  8
0
 62
     3
100
AcDbCircle
 10
376.301213
 20
159.417568
 30
0.0
 40
5.0
  0
CIRCLE
  5
210
100
AcDbEntity
  8
0
100
AcDbCircle
 10
376.301213
 20
159.417568
 30
0.0
 40
7.0
  0
ARC
  5
211
100
AcDbEntity
  8
0
100
AcDbCircle
 10
376.301213
 20
203.417568
 30
0.0
 40
52.0
100
AcDbArc
 50
265.569697
 51
274.430303
  0
CIRCLE
  5
212
100
AcDbEntity
  8
0
 62
     3
100
AcDbCircle
 10
420.301213
 20
203.417568
 30
0.0
 40
5.0
  0
CIRCLE
  5
213
100
AcDbEntity
  8
0
100
AcDbCircle
 10
420.301213
 20
203.417568
 30
0.0
 40
4.25
  0
ARC
  5
214
100
AcDbEntity
  8
0
100
AcDbCircle
 10
376.301213
 20
203.417568
 30
0.0
 40
52.0
100
AcDbArc
 50
355.569697
 51
4.430303
  0
CIRCLE
  5
215
100
AcDbEntity
  8
0
 62
     3
100
AcDbCircle
 10
376.301213
 20
247.417568
 30
0.0
 40
5.0
  0
CIRCLE
  5
216
100
AcDbEntity
  8
0
100
AcDbCircle
 10
376.301213
 20
247.417568
 30
0.0
 40
7.0
  0
ARC
  5
217
100
AcDbEntity
  8
0
100
AcDbCircle
 10
376.301213
 20
203.417568
 30
0.0
 40
52.0
100
AcDbArc
 50
85.569697
 51
94.430303
  0
CIRCLE
  5
218
100
AcDbEntity
  8
0
100
AcDbCircle
 10
376.301213
 20
247.417568
 30
0.0
 40
4.25
  0
ENDSEC
  0
SECTION
  2
OBJECTS
  0
DICTIONARY
  5
111
100
AcDbDictionary
  3
ACAD_GROUP
350
112
  3
ACAD_LAYOUT
350
11E
  3
ACAD_MLINESTYLE
350
11B
  3
ACAD_PLOTSETTINGS
350
11D
  3
ACAD_PLOTSTYLENAME
350
113
  3
ACDBHEADERROUNDTRIPXREC
350
225
  3
AcDbVariableDictionary
350
24E
  0
DICTIONARY
  5
223
100
AcDbDictionary
280
     1
  3
ACAD_XREC_ROUNDTRIP
360
224
  0
DICTIONARY
  5
21F
100
AcDbDictionary
280
     1
  3
ACAD_XREC_ROUNDTRIP
360
220
  0
DICTIONARY
  5
221
100
AcDbDictionary
280
     1
  3
ACAD_XREC_ROUNDTRIP
360
222
  0
DICTIONARY
  5
24C
100
AcDbDictionary
280
     1
  3
ACAD_XREC_ROUNDTRIP
360
24D
  0
DICTIONARY
  5
21B
100
AcDbDictionary
280
     1
  3
ACAD_LAYOUTSELFREF
360
24B
  3
ACAD_XREC_ROUNDTRIP
360
21C
  0
DICTIONARY
  5
21D
100
AcDbDictionary
280
     1
  3
ACAD_LAYOUTSELFREF
360
24A
  3
ACAD_XREC_ROUNDTRIP
360
21E
  0
DICTIONARY
  5
112
102
{ACAD_REACTORS
330
111
102
}
100
AcDbDictionary
  0
DICTIONARY
  5
11E
102
{ACAD_XDICTIONARY
360
248
102
}
102
{ACAD_REACTORS
330
111
102
}
100
AcDbDictionary
  3
MODEL
350
126
  3
ﾚｲｱｳﾄ1
350
122
  0
DICTIONARY
  5
11B
102
{ACAD_XDICTIONARY
360
246
102
}
102
{ACAD_REACTORS
330
111
102
}
100
AcDbDictionary
  3
STANDARD
350
11C
  0
DICTIONARY
  5
11D
102
{ACAD_REACTORS
330
111
102
}
100
AcDbDictionary
  0
ACAD_PROXY_OBJECT
  5
113
102
{ACAD_REACTORS
330
111
102
}
100
AcDbProxyObject
 90
      499
 91
      500
 93
       86
310
405010041939BDC9B585B0
350
114
340
114
 94
        0
  0
DICTIONARY
  5
225
102
{ACAD_REACTORS
330
111
102
}
100
AcDbDictionary
  3
CEPSNTYPE
350
22F
  3
DIMSTYLEDATA
350
233
  3
FINGERPRINTGUID
350
230
  3
HYPERLINKBASE
350
228
  3
INSUNITS
350
22E
  3
LAYOUTDICT
350
22A
  3
LWETCUNION
350
22D
  3
PLOTSETDICT
350
22B
  3
PLOTSTYLNAMDICT
350
22C
  3
PSVPSCALE
350
232
  3
PUCSBASE
350
236
  3
PUCSORGBACK
350
23C
  3
PUCSORGBOTTOM
350
238
  3
PUCSORGFRONT
350
23B
  3
PUCSORGLEFT
350
239
  3
PUCSORGRIGHT
350
23A
  3
PUCSORGTOP
350
237
  3
PUCSORTHOREF
350
234
  3
PUCSORTHOVIEW
350
235
  3
STYLESHEET
350
229
  3
TSTACKALIGN
350
226
  3
TSTACKSIZE
350
227
  3
UCSBASE
350
23F
  3
UCSORGBACK
350
245
  3
UCSORGBOTTOM
350
241
  3
UCSORGFRONT
350
244
  3
UCSORGLEFT
350
242
  3
UCSORGRIGHT
350
243
  3
UCSORGTOP
350
240
  3
UCSORTHOREF
350
23D
  3
UCSORTHOVIEW
350
23E
  3
VERSIONGUID
350
231
  0
DICTIONARY
  5
24E
102
{ACAD_REACTORS
330
111
102
}
100
AcDbDictionary
  3
DIMASSOC
350
24F
  0
XRECORD
  5
224
102
{ACAD_REACTORS
330
223
102
}
100
AcDbXrecord
102
EXTNAMES
  1
*ACTIVE
  2
*Active
102
UCS
 74
     0
 71
     0
 10
0.0
 20
0.0
 30
0.0
 10
1.0
 20
0.0
 30
0.0
 10
0.0
 20
1.0
 30
0.0
146
0.0
 79
     0
102
VIEW
281
     0
  0
XRECORD
  5
220
102
{ACAD_REACTORS
330
21F
102
}
100
AcDbXrecord
102
EXTNAMES
  1
BYBLOCK
  2
ByBlock
  0
XRECORD
  5
222
102
{ACAD_REACTORS
330
221
102
}
100
AcDbXrecord
102
EXTNAMES
  1
BYLAYER
  2
ByLayer
  0
XRECORD
  5
24D
102
{ACAD_REACTORS
330
24C
102
}
100
AcDbXrecord
102
ACADR14ROUNDTRIP
1000
DSTYLE
1002
{
1070
   279
 70
     2
1002
}
  0
XRECORD
  5
24B
102
{ACAD_REACTORS
330
21B
102
}
100
AcDbXrecord
340
123
  0
XRECORD
  5
21C
102
{ACAD_REACTORS
330
21B
102
}
100
AcDbXrecord
102
EXTNAMES
  1
*MODEL_SPACE
  2
*Model_Space
  0
XRECORD
  5
24A
102
{ACAD_REACTORS
330
21D
102
}
100
AcDbXrecord
340
11F
  0
XRECORD
  5
21E
102
{ACAD_REACTORS
330
21D
102
}
100
AcDbXrecord
102
EXTNAMES
  1
*PAPER_SPACE
  2
*Paper_Space
  0
DICTIONARY
  5
248
100
AcDbDictionary
280
     1
  3
ACAD_XREC_ROUNDTRIP
360
249
  0
ACAD_PROXY_OBJECT
  5
126
102
{ACAD_REACTORS
330
11E
102
}
100
AcDbProxyObject
 90
      499
 91
      502
 93
      836
310
932433A5C50524F4752414D2046494C45535C4D4454365C706C6F74746572735C526F6C616E64204458592D313235302E7063332C01AAAAAAAAA5A69054D6F64656C901A800000000000000000000000000000000000000000000A1000000000000008902A6A6AAAA0
330
123
330
0
340
0
340
0
 94
        0
  0
ACAD_PROXY_OBJECT
  5
122
102
{ACAD_REACTORS
330
11E
102
}
100
AcDbProxyObject
 90
      499
 91
      502
 93
     1244
310
932433A5C50524F4752414D2046494C45535C4D4454365C706C6F74746572735C526F6C616E64204458592D313235302E7063332C00AAAAAA416AA59106906DAB2B1B3C431406A800000000000000000000000000000000000000000101E900000000000241C902A6A6A10232D5E076BC5510408CB5781DAF154410232D5E0
310
76BC5510408CB5781DAF15C410232D5E076BC5710408CB5781DAF15C40
330
11F
330
0
340
0
340
0
 94
        0
  0
DICTIONARY
  5
246
100
AcDbDictionary
280
     1
  3
ACAD_XREC_ROUNDTRIP
360
247
  0
MLINESTYLE
  5
11C
102
{ACAD_REACTORS
330
11B
102
}
100
AcDbMlineStyle
  2
STANDARD
 70
     0
  3

 62
   256
 51
90.0
 52
90.0
 71
     2
 49
0.5
 62
   256
  6
BYLAYER
 49
-0.5
 62
   256
  6
BYLAYER
  0
ACAD_PROXY_OBJECT
  5
114
102
{ACAD_REACTORS
330
113
102
}
100
AcDbProxyObject
 90
      499
 91
      501
 93
        0
 94
        0
  0
XRECORD
  5
22F
102
{ACAD_REACTORS
330
225
102
}
100
AcDbXrecord
 90
        0
  0
XRECORD
  5
233
102
{ACAD_REACTORS
330
225
102
}
100
AcDbXrecord
1000
DSTYLE
1002
{
1070
   341
340
13B
1070
   342
340
135
1070
   343
340
13B
1070
   344
340
13B
1002
}
  0
XRECORD
  5
230
102
{ACAD_REACTORS
330
225
102
}
100
AcDbXrecord
  1
{A0FD3434-9926-40A1-9777-1DB54668C50F}
  0
XRECORD
  5
228
102
{ACAD_REACTORS
330
225
102
}
100
AcDbXrecord
  1

  0
XRECORD
  5
22E
102
{ACAD_REACTORS
330
225
102
}
100
AcDbXrecord
 90
        0
  0
XRECORD
  5
22A
102
{ACAD_REACTORS
330
225
102
}
100
AcDbXrecord
340
11E
  0
XRECORD
  5
22D
102
{ACAD_REACTORS
330
225
102
}
100
AcDbXrecord
 90
    10781
  0
XRECORD
  5
22B
102
{ACAD_REACTORS
330
225
102
}
100
AcDbXrecord
340
11D
  0
XRECORD
  5
22C
102
{ACAD_REACTORS
330
225
102
}
100
AcDbXrecord
340
113
  0
XRECORD
  5
232
102
{ACAD_REACTORS
330
225
102
}
100
AcDbXrecord
 40
0.0
  0
XRECORD
  5
236
102
{ACAD_REACTORS
330
225
102
}
100
AcDbXrecord
340
0
  0
XRECORD
  5
23C
102
{ACAD_REACTORS
330
225
102
}
100
AcDbXrecord
 10
0.0
 20
0.0
 30
0.0
  0
XRECORD
  5
238
102
{ACAD_REACTORS
330
225
102
}
100
AcDbXrecord
 10
0.0
 20
0.0
 30
0.0
  0
XRECORD
  5
23B
102
{ACAD_REACTORS
330
225
102
}
100
AcDbXrecord
 10
0.0
 20
0.0
 30
0.0
  0
XRECORD
  5
239
102
{ACAD_REACTORS
330
225
102
}
100
AcDbXrecord
 10
0.0
 20
0.0
 30
0.0
  0
XRECORD
  5
23A
102
{ACAD_REACTORS
330
225
102
}
100
AcDbXrecord
 10
0.0
 20
0.0
 30
0.0
  0
XRECORD
  5
237
102
{ACAD_REACTORS
330
225
102
}
100
AcDbXrecord
 10
0.0
 20
0.0
 30
0.0
  0
XRECORD
  5
234
102
{ACAD_REACTORS
330
225
102
}
100
AcDbXrecord
340
0
  0
XRECORD
  5
235
102
{ACAD_REACTORS
330
225
102
}
100
AcDbXrecord
 70
     0
  0
XRECORD
  5
229
102
{ACAD_REACTORS
330
225
102
}
100
AcDbXrecord
  1

  0
XRECORD
  5
226
102
{ACAD_REACTORS
330
225
102
}
100
AcDbXrecord
 90
        1
  0
XRECORD
  5
227
102
{ACAD_REACTORS
330
225
102
}
100
AcDbXrecord
 90
       70
  0
XRECORD
  5
23F
102
{ACAD_REACTORS
330
225
102
}
100
AcDbXrecord
340
0
  0
XRECORD
  5
245
102
{ACAD_REACTORS
330
225
102
}
100
AcDbXrecord
 10
0.0
 20
0.0
 30
0.0
  0
XRECORD
  5
241
102
{ACAD_REACTORS
330
225
102
}
100
AcDbXrecord
 10
0.0
 20
0.0
 30
0.0
  0
XRECORD
  5
244
102
{ACAD_REACTORS
330
225
102
}
100
AcDbXrecord
 10
0.0
 20
0.0
 30
0.0
  0
XRECORD
  5
242
102
{ACAD_REACTORS
330
225
102
}
100
AcDbXrecord
 10
0.0
 20
0.0
 30
0.0
  0
XRECORD
  5
243
102
{ACAD_REACTORS
330
225
102
}
100
AcDbXrecord
 10
0.0
 20
0.0
 30
0.0
  0
XRECORD
  5
240
102
{ACAD_REACTORS
330
225
102
}
100
AcDbXrecord
 10
0.0
 20
0.0
 30
0.0
  0
XRECORD
  5
23D
102
{ACAD_REACTORS
330
225
102
}
100
AcDbXrecord
340
0
  0
XRECORD
  5
23E
102
{ACAD_REACTORS
330
225
102
}
100
AcDbXrecord
 70
     0
  0
XRECORD
  5
231
102
{ACAD_REACTORS
330
225
102
}
100
AcDbXrecord
  1
{6FF7FB2C-5513-4B84-8C6C-133222E79806}
  0
DICTIONARYVAR
  5
24F
102
{ACAD_REACTORS
330
24E
102
}
100
DictionaryVariables
280
     0
  1
1
  0
XRECORD
  5
249
102
{ACAD_REACTORS
330
248
102
}
100
AcDbXrecord
102
EXTNAMES
  1
MODEL
  2
Model
  0
XRECORD
  5
247
102
{ACAD_REACTORS
330
246
102
}
100
AcDbXrecord
102
EXTNAMES
  1
STANDARD
  2
Standard
  0
ENDSEC
  0
EOF
