  0
SECTION
  2
HEADER
  9
$ACADVER
  1
AC1014
  9
$ACADMAINTVER
 70
     0
  9
$DWGCODEPAGE
  3
ANSI_932
  9
$INSBASE
 10
0.0
 20
0.0
 30
0.0
  9
$EXTMIN
 10
194.989324
 20
158.54293
 30
0.0
  9
$EXTMAX
 10
382.610738
 20
253.012665
 30
0.0
  9
$LIMMIN
 10
0.0
 20
0.0
  9
$LIMMAX
 10
594.0
 20
420.0
  9
$ORTHOMODE
 70
     1
  9
$REGENMODE
 70
     1
  9
$FILLMODE
 70
     1
  9
$QTEXTMODE
 70
     0
  9
$MIRRTEXT
 70
     1
  9
$DRAGMODE
 70
     2
  9
$LTSCALE
 40
0.25
  9
$OSMODE
 70
    37
  9
$ATTMODE
 70
     1
  9
$TEXTSIZE
 40
4.0
  9
$TRACEWID
 40
1.0
  9
$TEXTSTYLE
  7
STANDARD
  9
$CLAYER
  8
0
  9
$CELTYPE
  6
CENTER
  9
$CECOLOR
 62
     3
  9
$CELTSCALE
 40
1.0
  9
$DELOBJ
 70
     1
  9
$DISPSILH
 70
     0
  9
$DIMSCALE
 40
2.0
  9
$DIMASZ
 40
3.0
  9
$DIMEXO
 40
1.0
  9
$DIMDLI
 40
10.0
  9
$DIMRND
 40
0.0
  9
$DIMDLE
 40
0.0
  9
$DIMEXE
 40
1.0
  9
$DIMTP
 40
0.0
  9
$DIMTM
 40
0.0
  9
$DIMTXT
 40
3.2
  9
$DIMCEN
 40
0.0
  9
$DIMTSZ
 40
0.0
  9
$DIMTOL
 70
     0
  9
$DIMLIM
 70
     0
  9
$DIMTIH
 70
     0
  9
$DIMTOH
 70
     0
  9
$DIMSE1
 70
     0
  9
$DIMSE2
 70
     0
  9
$DIMTAD
 70
     3
  9
$DIMZIN
 70
     8
  9
$DIMBLK
  1
ARROW
  9
$DIMASO
 70
     1
  9
$DIMSHO
 70
     1
  9
$DIMPOST
  1

  9
$DIMAPOST
  1

  9
$DIMALT
 70
     0
  9
$DIMALTD
 70
     2
  9
$DIMALTF
 40
0.04
  9
$DIMLFAC
 40
1.0
  9
$DIMTOFL
 70
     1
  9
$DIMTVP
 40
1.0
  9
$DIMTIX
 70
     0
  9
$DIMSOXD
 70
     0
  9
$DIMSAH
 70
     1
  9
$DIMBLK1
  1
OPEN
  9
$DIMBLK2
  1
OPEN
  9
$DIMSTYLE
  2
AA1
  9
$DIMCLRD
 70
     0
  9
$DIMCLRE
 70
     0
  9
$DIMCLRT
 70
     0
  9
$DIMTFAC
 40
0.6
  9
$DIMGAP
 40
1.0
  9
$DIMJUST
 70
     0
  9
$DIMSD1
 70
     0
  9
$DIMSD2
 70
     0
  9
$DIMTOLJ
 70
     1
  9
$DIMTZIN
 70
     0
  9
$DIMALTZ
 70
     0
  9
$DIMALTTZ
 70
     0
  9
$DIMFIT
 70
     3
  9
$DIMUPT
 70
     0
  9
$DIMUNIT
 70
     2
  9
$DIMDEC
 70
     4
  9
$DIMTDEC
 70
     4
  9
$DIMALTU
 70
     2
  9
$DIMALTTD
 70
     2
  9
$DIMTXSTY
  7
STANDARD
  9
$DIMAUNIT
 70
     0
  9
$LUNITS
 70
     2
  9
$LUPREC
 70
     2
  9
$SKETCHINC
 40
1.0
  9
$FILLETRAD
 40
10.0
  9
$AUNITS
 70
     0
  9
$AUPREC
 70
     0
  9
$MENU
  1
acad
  9
$ELEVATION
 40
0.0
  9
$PELEVATION
 40
0.0
  9
$THICKNESS
 40
0.0
  9
$LIMCHECK
 70
     0
  9
$BLIPMODE
 70
     0
  9
$CHAMFERA
 40
0.0
  9
$CHAMFERB
 40
0.0
  9
$CHAMFERC
 40
0.0
  9
$CHAMFERD
 40
0.0
  9
$SKPOLY
 70
     0
  9
$TDCREATE
 40
2451466.563225926
  9
$TDUPDATE
 40
2452821.768064930
  9
$TDINDWG
 40
0.0001652778
  9
$TDUSRTIMER
 40
0.0001652778
  9
$USRTIMER
 70
     1
  9
$ANGBASE
 50
0.0
  9
$ANGDIR
 70
     0
  9
$PDMODE
 70
     1
  9
$PDSIZE
 40
0.0
  9
$PLINEWID
 40
0.0
  9
$COORDS
 70
     1
  9
$SPLFRAME
 70
     0
  9
$SPLINETYPE
 70
     6
  9
$SPLINESEGS
 70
     8
  9
$ATTDIA
 70
     0
  9
$ATTREQ
 70
     1
  9
$HANDLING
 70
     1
  9
$HANDSEED
  5
251
  9
$SURFTAB1
 70
     6
  9
$SURFTAB2
 70
     6
  9
$SURFTYPE
 70
     6
  9
$SURFU
 70
     6
  9
$SURFV
 70
     6
  9
$UCSNAME
  2

  9
$UCSORG
 10
0.0
 20
0.0
 30
0.0
  9
$UCSXDIR
 10
1.0
 20
0.0
 30
0.0
  9
$UCSYDIR
 10
0.0
 20
1.0
 30
0.0
  9
$PUCSNAME
  2

  9
$PUCSORG
 10
0.0
 20
0.0
 30
0.0
  9
$PUCSXDIR
 10
1.0
 20
0.0
 30
0.0
  9
$PUCSYDIR
 10
0.0
 20
1.0
 30
0.0
  9
$USERI1
 70
     0
  9
$USERI2
 70
     0
  9
$USERI3
 70
     0
  9
$USERI4
 70
     0
  9
$USERI5
 70
     0
  9
$USERR1
 40
0.0
  9
$USERR2
 40
0.0
  9
$USERR3
 40
0.0
  9
$USERR4
 40
0.0
  9
$USERR5
 40
0.0
  9
$WORLDVIEW
 70
     1
  9
$SHADEDGE
 70
     3
  9
$SHADEDIF
 70
    70
  9
$TILEMODE
 70
     1
  9
$MAXACTVP
 70
    16
  9
$PINSBASE
 10
0.0
 20
0.0
 30
0.0
  9
$PLIMCHECK
 70
     0
  9
$PEXTMIN
 10
1.000000E+20
 20
1.000000E+20
 30
1.000000E+20
  9
$PEXTMAX
 10
-1.000000E+20
 20
-1.000000E+20
 30
-1.000000E+20
  9
$PLIMMIN
 10
0.0
 20
0.0
  9
$PLIMMAX
 10
420.0
 20
297.0
  9
$UNITMODE
 70
     0
  9
$VISRETAIN
 70
     0
  9
$PLINEGEN
 70
     0
  9
$PSLTSCALE
 70
     0
  9
$TREEDEPTH
 70
  3020
  9
$PICKSTYLE
 70
     1
  9
$CMLSTYLE
  2
STANDARD
  9
$CMLJUST
 70
     0
  9
$CMLSCALE
 40
1.0
  9
$PROXYGRAPHICS
 70
     1
  9
$MEASUREMENT
 70
     0
  0
ENDSEC
  0
SECTION
  2
CLASSES
  0
CLASS
  1
ACDBDICTIONARYWDFLT
  2
AcDbDictionaryWithDefault
  3
AutoCAD 2000
 90
        0
280
     0
281
     0
  0
CLASS
  1
ACDBPLACEHOLDER
  2
AcDbPlaceHolder
  3
AutoCAD 2000
 90
        0
280
     0
281
     0
  0
CLASS
  1
LAYOUT
  2
AcDbLayout
  3
AutoCAD 2000
 90
        0
280
     0
281
     0
  0
CLASS
  1
DICTIONARYVAR
  2
AcDbDictionaryVar
  3
"AutoCAD"
 90
        0
280
     0
281
     0
  0
CLASS
  1
LONG_TRANSACTION
  2
AcDbLongTransaction
  3
AutoCAD 2000
 90
        0
280
     0
281
     0
  0
CLASS
  1
LWPOLYLINE
  2
AcDbPolyline
  3
"AutoCAD"
 90
        0
280
     0
281
     1
  0
CLASS
  1
HATCH
  2
AcDbHatch
  3
"ACAD_SEDONA"
 90
        0
280
     0
281
     1
  0
CLASS
  1
XRECORD
  2
AcDbXrecord
  3
"<Built In>"
 90
        0
280
     0
281
     0
  0
ENDSEC
  0
SECTION
  2
TABLES
  0
TABLE
  2
VPORT
  5
10D
100
AcDbSymbolTable
 70
     1
  0
VPORT
  5
218
102
{ACAD_XDICTIONARY
360
221
102
}
100
AcDbSymbolTableRecord
100
AcDbViewportTableRecord
  2
*ACTIVE
 70
     0
 10
0.0
 20
0.0
 11
1.0
 21
1.0
 12
297.000001
 22
315.433306
 13
0.0
 23
0.0
 14
10.0
 24
10.0
 15
0.0
 25
0.0
 16
0.0
 26
0.0
 36
1.0
 17
0.0
 27
0.0
 37
0.0
 40
692.616442
 41
1.530211
 42
50.0
 43
0.0
 44
0.0
 50
0.0
 51
0.0
 71
     0
 72
   100
 73
     1
 74
     0
 75
     0
 76
     0
 77
     0
 78
     1
  0
ENDTAB
  0
TABLE
  2
LTYPE
  5
10A
100
AcDbSymbolTable
 70
     2
  0
LTYPE
  5
118
102
{ACAD_XDICTIONARY
360
21D
102
}
100
AcDbSymbolTableRecord
100
AcDbLinetypeTableRecord
  2
BYBLOCK
 70
     0
  3

 72
    65
 73
     0
 40
0.0
  0
LTYPE
  5
119
102
{ACAD_XDICTIONARY
360
21F
102
}
100
AcDbSymbolTableRecord
100
AcDbLinetypeTableRecord
  2
BYLAYER
 70
     0
  3

 72
    65
 73
     0
 40
0.0
  0
LTYPE
  5
11A
100
AcDbSymbolTableRecord
100
AcDbLinetypeTableRecord
  2
CONTINUOUS
 70
     0
  3
Solid line
 72
    65
 73
     0
 40
0.0
  0
LTYPE
  5
127
100
AcDbSymbolTableRecord
100
AcDbLinetypeTableRecord
  2
CENTER
 70
     0
  3
____ _ ____ _ ____ _ ____ _ ____ _ ____ _ ____ 
 72
    65
 73
     4
 40
50.8
 49
31.75
 74
     0
 49
-6.35
 74
     0
 49
6.35
 74
     0
 49
-6.35
 74
     0
  0
ENDTAB
  0
TABLE
  2
LAYER
  5
107
100
AcDbSymbolTable
 70
     3
  0
LAYER
  5
115
100
AcDbSymbolTableRecord
100
AcDbLayerTableRecord
  2
0
 70
     0
 62
     7
  6
CONTINUOUS
  0
LAYER
  5
129
100
AcDbSymbolTableRecord
100
AcDbLayerTableRecord
  2
DIMENSION
 70
     0
 62
    -4
  6
CONTINUOUS
  0
LAYER
  5
12A
100
AcDbSymbolTableRecord
100
AcDbLayerTableRecord
  2
CENTER
 70
     0
 62
     1
  6
CENTER
  0
ENDTAB
  0
TABLE
  2
STYLE
  5
108
100
AcDbSymbolTable
 70
     1
  0
STYLE
  5
116
100
AcDbSymbolTableRecord
100
AcDbTextStyleTableRecord
  2
STANDARD
 70
     0
 40
0.0
 41
1.0
 50
0.0
 71
     0
 42
0.2
  3
txt
  4

  0
ENDTAB
  0
TABLE
  2
VIEW
  5
10B
100
AcDbSymbolTable
 70
     0
  0
ENDTAB
  0
TABLE
  2
UCS
  5
10C
100
AcDbSymbolTable
 70
     0
  0
ENDTAB
  0
TABLE
  2
APPID
  5
10E
100
AcDbSymbolTable
 70
     1
  0
APPID
  5
117
100
AcDbSymbolTableRecord
100
AcDbRegAppTableRecord
  2
ACAD
 70
     0
  0
ENDTAB
  0
TABLE
  2
DIMSTYLE
  5
10F
100
AcDbSymbolTable
 70
     1
  0
DIMSTYLE
105
12B
102
{ACAD_XDICTIONARY
360
24A
102
}
100
AcDbSymbolTableRecord
100
AcDbDimStyleTableRecord
  2
AA1
 70
     0
  3

  4

  5

  6

  7

 40
2.0
 41
3.0
 42
1.0
 43
10.0
 44
1.0
 45
0.0
 46
0.0
 47
0.0
 48
0.0
140
3.2
141
0.0
142
0.0
143
0.04
144
1.0
145
1.0
146
0.6
147
0.0
 71
     0
 72
     0
 73
     0
 74
     0
 75
     0
 76
     0
 77
     0
 78
     8
170
     0
171
     2
172
     1
173
     0
174
     0
175
     0
176
     0
177
     0
178
     0
270
     2
271
     2
272
     2
273
     2
274
     2
340
116
275
     0
280
     0
281
     0
282
     0
283
     1
284
     8
285
     8
286
     8
287
     5
288
     0
  0
ENDTAB
  0
TABLE
  2
BLOCK_RECORD
  5
106
100
AcDbSymbolTable
 70
     4
  0
BLOCK_RECORD
  5
123
102
{ACAD_XDICTIONARY
360
219
102
}
100
AcDbSymbolTableRecord
100
AcDbBlockTableRecord
  2
*MODEL_SPACE
  0
BLOCK_RECORD
  5
11F
102
{ACAD_XDICTIONARY
360
21B
102
}
100
AcDbSymbolTableRecord
100
AcDbBlockTableRecord
  2
*PAPER_SPACE
  0
BLOCK_RECORD
  5
12D
100
AcDbSymbolTableRecord
100
AcDbBlockTableRecord
  2
$MODEL_SPACE
  0
BLOCK_RECORD
  5
130
100
AcDbSymbolTableRecord
100
AcDbBlockTableRecord
  2
$PAPER_SPACE
  0
BLOCK_RECORD
  5
133
100
AcDbSymbolTableRecord
100
AcDbBlockTableRecord
  2
ARROW
  0
BLOCK_RECORD
  5
139
100
AcDbSymbolTableRecord
100
AcDbBlockTableRecord
  2
_OPEN
  0
ENDTAB
  0
ENDSEC
  0
SECTION
  2
BLOCKS
  0
BLOCK
  5
124
100
AcDbEntity
  8
0
100
AcDbBlockBegin
  2
*MODEL_SPACE
 70
     0
 10
0.0
 20
0.0
 30
0.0
  3
*MODEL_SPACE
  1

  0
ENDBLK
  5
125
100
AcDbEntity
  8
0
100
AcDbBlockEnd
  0
BLOCK
  5
120
100
AcDbEntity
 67
     1
  8
0
100
AcDbBlockBegin
  2
*PAPER_SPACE
 70
     0
 10
0.0
 20
0.0
 30
0.0
  3
*PAPER_SPACE
  1

  0
ENDBLK
  5
121
100
AcDbEntity
 67
     1
  8
0
100
AcDbBlockEnd
  0
BLOCK
  5
12E
100
AcDbEntity
  8
0
100
AcDbBlockBegin
  2
$MODEL_SPACE
 70
     0
 10
0.0
 20
0.0
 30
0.0
  3
$MODEL_SPACE
  1

  0
ENDBLK
  5
12F
100
AcDbEntity
  8
0
100
AcDbBlockEnd
  0
BLOCK
  5
131
100
AcDbEntity
  8
0
100
AcDbBlockBegin
  2
$PAPER_SPACE
 70
     0
 10
0.0
 20
0.0
 30
0.0
  3
$PAPER_SPACE
  1

  0
ENDBLK
  5
132
100
AcDbEntity
  8
0
100
AcDbBlockEnd
  0
BLOCK
  5
134
100
AcDbEntity
  8
0
100
AcDbBlockBegin
  2
ARROW
 70
     0
 10
0.0
 20
0.0
 30
0.0
  3
ARROW
  1

  0
LINE
  5
135
100
AcDbEntity
  8
DIMENSION
100
AcDbLine
 10
0.0
 20
0.0
 30
0.0
 11
-1.0
 21
0.176327
 31
0.0
  0
LINE
  5
136
100
AcDbEntity
  8
DIMENSION
100
AcDbLine
 10
0.0
 20
0.0
 30
0.0
 11
-1.0
 21
-0.176327
 31
0.0
  0
LINE
  5
137
100
AcDbEntity
  8
DIMENSION
100
AcDbLine
 10
-1.0
 20
0.0
 30
0.0
 11
0.0
 21
0.0
 31
0.0
  0
ENDBLK
  5
138
100
AcDbEntity
  8
0
100
AcDbBlockEnd
  0
BLOCK
  5
13A
100
AcDbEntity
  8
0
100
AcDbBlockBegin
  2
_OPEN
 70
     0
 10
0.0
 20
0.0
 30
0.0
  3
_OPEN
  1

  0
LINE
  5
13B
100
AcDbEntity
  8
0
  6
BYBLOCK
 62
     0
100
AcDbLine
 10
-1.0
 20
0.166667
 30
0.0
 11
0.0
 21
0.0
 31
0.0
  0
LINE
  5
13C
100
AcDbEntity
  8
0
  6
BYBLOCK
 62
     0
100
AcDbLine
 10
0.0
 20
0.0
 30
0.0
 11
-1.0
 21
-0.166667
 31
0.0
  0
LINE
  5
13D
100
AcDbEntity
  8
0
  6
BYBLOCK
 62
     0
100
AcDbLine
 10
0.0
 20
0.0
 30
0.0
 11
-1.0
 21
0.0
 31
0.0
  0
ENDBLK
  5
13E
100
AcDbEntity
  8
0
100
AcDbBlockEnd
  0
ENDSEC
  0
SECTION
  2
ENTITIES
  0
LINE
  5
13F
100
AcDbEntity
  8
CENTER
  6
CENTER
 62
     1
100
AcDbLine
 10
288.141003
 20
205.777798
 30
0.0
 11
382.610738
 21
205.777798
 31
0.0
  0
LWPOLYLINE
  5
140
100
AcDbEntity
  8
0
100
AcDbPolyline
 90
        2
 70
     0
 43
0.0
 10
295.026643
 20
202.286405
 10
331.884478
 20
165.42857
  0
LWPOLYLINE
  5
144
100
AcDbEntity
  8
0
100
AcDbPolyline
 90
        2
 70
     0
 43
0.0
 10
331.884478
 20
246.127025
 10
295.026643
 20
209.26919
  0
CIRCLE
  5
148
100
AcDbEntity
  8
0
100
AcDbCircle
 10
301.37587
 20
205.777798
 30
0.0
 40
5.5
  0
LINE
  5
149
100
AcDbEntity
  8
0
100
AcDbLine
 10
213.939324
 20
181.027798
 30
0.0
 11
213.939324
 21
230.527798
 31
0.0
  0
LINE
  5
14A
100
AcDbEntity
  8
0
100
AcDbLine
 10
211.989324
 20
181.027798
 30
0.0
 11
211.989324
 21
230.527798
 31
0.0
  0
LINE
  5
14B
100
AcDbEntity
  8
0
100
AcDbLine
 10
197.989324
 20
183.877798
 30
0.0
 11
197.989324
 21
227.677798
 31
0.0
  0
LINE
  5
14C
100
AcDbEntity
  8
0
100
AcDbLine
 10
215.989324
 20
246.277798
 30
0.0
 11
215.989324
 21
165.277798
 31
0.0
  0
LINE
  5
14D
100
AcDbEntity
  8
0
100
AcDbLine
 10
195.989324
 20
232.777798
 30
0.0
 11
195.989324
 21
178.777798
 31
0.0
  0
LINE
  5
150
100
AcDbEntity
  8
CENTER
  6
CENTER
 62
     1
100
AcDbLine
 10
216.989324
 20
205.777798
 30
0.0
 11
194.989324
 21
205.777798
 31
0.0
  0
LINE
  5
151
100
AcDbEntity
  8
CENTER
  6
CENTER
 62
     1
100
AcDbLine
 10
216.989324
 20
171.777798
 30
0.0
 11
194.989324
 21
171.777798
 31
0.0
  0
LINE
  5
152
100
AcDbEntity
  8
0
100
AcDbLine
 10
215.989324
 20
165.277798
 30
0.0
 11
197.989324
 21
165.277798
 31
0.0
  0
LINE
  5
153
100
AcDbEntity
  8
0
 62
     3
100
AcDbLine
 10
209.489324
 20
175.777798
 30
0.0
 11
197.989324
 21
175.777798
 31
0.0
  0
LINE
  5
154
100
AcDbEntity
  8
0
100
AcDbLine
 10
209.489324
 20
175.177798
 30
0.0
 11
197.989324
 21
175.177798
 31
0.0
  0
LINE
  5
155
100
AcDbEntity
  8
0
100
AcDbLine
 10
209.489324
 20
168.377798
 30
0.0
 11
197.989324
 21
168.377798
 31
0.0
  0
LINE
  5
156
100
AcDbEntity
  8
0
 62
     3
100
AcDbLine
 10
209.489324
 20
167.777798
 30
0.0
 11
197.989324
 21
167.777798
 31
0.0
  0
LINE
  5
157
100
AcDbEntity
  8
0
100
AcDbLine
 10
199.589324
 20
182.277798
 30
0.0
 11
211.989324
 21
182.277798
 31
0.0
  0
LINE
  5
158
100
AcDbEntity
  8
0
100
AcDbLine
 10
199.589324
 20
195.777798
 30
0.0
 11
210.389324
 21
195.777798
 31
0.0
  0
CIRCLE
  5
159
100
AcDbEntity
  8
0
100
AcDbCircle
 10
204.989324
 20
188.527798
 30
0.0
 40
3.96875
  0
LINE
  5
15A
100
AcDbEntity
  8
0
100
AcDbLine
 10
197.989324
 20
165.277798
 30
0.0
 11
197.989324
 21
178.777798
 31
0.0
  0
ARC
  5
15B
100
AcDbEntity
  8
0
100
AcDbCircle
 10
198.998581
 20
185.171337
 30
0.0
 40
0.3
100
AcDbArc
 50
130.003724
 51
220.090214
  0
LINE
  5
15C
100
AcDbEntity
  8
0
100
AcDbLine
 10
199.035325
 20
185.593817
 30
0.0
 11
199.228298
 21
185.363844
 31
0.0
  0
LINE
  5
15D
100
AcDbEntity
  8
0
100
AcDbLine
 10
199.567876
 20
185.03437
 30
0.0
 11
199.619292
 21
186.27385
 31
0.0
  0
LINE
  5
15E
100
AcDbEntity
  8
0
100
AcDbLine
 10
199.870713
 20
184.994112
 30
0.0
 11
199.949341
 21
185.895184
 31
0.0
  0
LINE
  5
15F
100
AcDbEntity
  8
0
100
AcDbLine
 10
198.189324
 20
184.977808
 30
0.0
 11
198.769351
 21
184.977808
 31
0.0
  0
ARC
  5
160
100
AcDbEntity
  8
0
100
AcDbCircle
 10
199.589324
 20
183.877798
 30
0.0
 40
1.6
100
AcDbArc
 50
180.0
 51
270.0
  0
LINE
  5
161
100
AcDbEntity
  8
0
100
AcDbLine
 10
197.989324
 20
178.777798
 30
0.0
 11
195.989324
 21
178.777798
 31
0.0
  0
ARC
  5
162
100
AcDbEntity
  8
0
100
AcDbCircle
 10
198.189324
 20
184.777808
 30
0.0
 40
0.2
100
AcDbArc
 50
90.0
 51
180.0
  0
LINE
  5
163
100
AcDbEntity
  8
0
100
AcDbLine
 10
198.769072
 20
184.978139
 30
0.0
 11
198.99009
 21
184.715581
 31
0.0
  0
ARC
  5
164
100
AcDbEntity
  8
0
100
AcDbCircle
 10
199.368048
 20
185.042659
 30
0.0
 40
0.2
100
AcDbArc
 50
220.007775
 51
357.62463
  0
ARC
  5
165
100
AcDbEntity
  8
0
100
AcDbCircle
 10
199.372606
 20
185.037577
 30
0.0
 40
0.5
100
AcDbArc
 50
220.090214
 51
355.01295
  0
LINE
  5
166
100
AcDbEntity
  8
0
100
AcDbLine
 10
199.228298
 20
185.363844
 30
0.0
 11
198.999326
 21
185.170869
 31
0.0
  0
LINE
  5
167
100
AcDbEntity
  8
0
100
AcDbLine
 10
198.999326
 20
185.170869
 30
0.0
 11
199.214857
 21
184.914081
 31
0.0
  0
LINE
  5
168
100
AcDbEntity
  8
0
100
AcDbLine
 10
198.189324
 20
191.777818
 30
0.0
 11
198.689304
 21
191.777818
 31
0.0
  0
LINE
  5
169
100
AcDbEntity
  8
0
100
AcDbLine
 10
197.989324
 20
185.777798
 30
0.0
 11
195.989324
 21
185.777798
 31
0.0
  0
ARC
  5
16A
100
AcDbEntity
  8
0
100
AcDbCircle
 10
198.189324
 20
191.977818
 30
0.0
 40
0.2
100
AcDbArc
 50
180.0
 51
270.0
  0
LINE
  5
16B
100
AcDbEntity
  8
0
100
AcDbLine
 10
200.148584
 20
186.077798
 30
0.0
 11
201.867069
 21
186.077798
 31
0.0
  0
LINE
  5
16C
100
AcDbEntity
  8
0
100
AcDbLine
 10
199.035325
 20
185.593817
 30
0.0
 11
198.80573
 21
185.401138
 31
0.0
  0
LINE
  5
16D
100
AcDbEntity
  8
0
100
AcDbLine
 10
199.919324
 20
186.397758
 30
0.0
 11
198.819324
 21
187.497768
 31
0.0
  0
LINE
  5
16E
100
AcDbEntity
  8
0
100
AcDbLine
 10
199.619292
 20
186.27385
 30
0.0
 11
198.519324
 21
187.373808
 31
0.0
  0
ARC
  5
16F
100
AcDbEntity
  8
0
100
AcDbCircle
 10
200.148584
 20
185.877798
 30
0.0
 40
0.2
100
AcDbArc
 50
90.0
 51
175.01295
  0
LINE
  5
170
100
AcDbEntity
  8
0
100
AcDbLine
 10
199.919324
 20
185.550808
 30
0.0
 11
199.919324
 21
186.397758
 31
0.0
  0
LINE
  5
171
100
AcDbEntity
  8
0
100
AcDbLine
 10
200.330367
 20
190.977808
 30
0.0
 11
201.867077
 21
190.977808
 31
0.0
  0
LINE
  5
172
100
AcDbEntity
  8
0
100
AcDbLine
 10
198.819324
 20
191.477808
 30
0.0
 11
199.439324
 21
191.477808
 31
0.0
  0
LINE
  5
173
100
AcDbEntity
  8
0
100
AcDbLine
 10
199.439324
 20
191.177808
 30
0.0
 11
198.819324
 21
191.177808
 31
0.0
  0
LINE
  5
174
100
AcDbEntity
  8
0
100
AcDbLine
 10
198.689304
 20
191.777818
 30
0.0
 11
199.063334
 21
192.151848
 31
0.0
  0
ARC
  5
175
100
AcDbEntity
  8
0
100
AcDbCircle
 10
198.819324
 20
191.177808
 30
0.0
 40
0.3
100
AcDbArc
 50
90.0
 51
180.0
  0
LINE
  5
176
100
AcDbEntity
  8
0
100
AcDbLine
 10
199.771314
 20
192.130688
 30
0.0
 11
200.142393
 21
191.109502
 31
0.0
  0
LINE
  5
177
100
AcDbEntity
  8
0
100
AcDbLine
 10
199.439324
 20
191.477808
 30
0.0
 11
199.439324
 21
191.177808
 31
0.0
  0
ARC
  5
178
100
AcDbEntity
  8
0
100
AcDbCircle
 10
199.489324
 20
192.027818
 30
0.0
 40
0.300167
100
AcDbArc
 50
19.970128
 51
94.462605
  0
ARC
  5
179
100
AcDbEntity
  8
0
100
AcDbCircle
 10
199.487324
 20
191.727808
 30
0.0
 40
0.599648
100
AcDbArc
 50
87.195159
 51
135.0
  0
ARC
  5
17A
100
AcDbEntity
  8
0
100
AcDbCircle
 10
200.330367
 20
191.177808
 30
0.0
 40
0.2
100
AcDbArc
 50
199.970128
 51
270.0
  0
LINE
  5
17B
100
AcDbEntity
  8
0
100
AcDbLine
 10
198.519324
 20
187.373808
 30
0.0
 11
198.519324
 21
191.177808
 31
0.0
  0
LINE
  5
17C
100
AcDbEntity
  8
0
100
AcDbLine
 10
198.819324
 20
187.497768
 30
0.0
 11
198.819324
 21
191.177808
 31
0.0
  0
ARC
  5
17D
100
AcDbEntity
  8
0
100
AcDbCircle
 10
199.589324
 20
194.177798
 30
0.0
 40
1.6
100
AcDbArc
 50
90.0
 51
180.0
  0
LINE
  5
17E
100
AcDbEntity
  8
0
100
AcDbLine
 10
209.489324
 20
166.277798
 30
0.0
 11
209.489324
 21
177.277798
 31
0.0
  0
LINE
  5
17F
100
AcDbEntity
  8
0
100
AcDbLine
 10
215.989324
 20
166.277798
 30
0.0
 11
209.489324
 21
166.277798
 31
0.0
  0
LINE
  5
180
100
AcDbEntity
  8
0
100
AcDbLine
 10
215.989324
 20
177.277798
 30
0.0
 11
209.489324
 21
177.277798
 31
0.0
  0
LINE
  5
181
100
AcDbEntity
  8
0
100
AcDbLine
 10
215.989324
 20
182.277798
 30
0.0
 11
213.939324
 21
182.277798
 31
0.0
  0
ARC
  5
182
100
AcDbEntity
  8
0
100
AcDbCircle
 10
210.980067
 20
185.171337
 30
0.0
 40
0.3
100
AcDbArc
 50
319.909786
 51
49.996276
  0
LINE
  5
183
100
AcDbEntity
  8
0
100
AcDbLine
 10
210.943323
 20
185.593817
 30
0.0
 11
210.75035
 21
185.363844
 31
0.0
  0
LINE
  5
184
100
AcDbEntity
  8
0
100
AcDbLine
 10
210.107935
 20
184.994112
 30
0.0
 11
210.029307
 21
185.895184
 31
0.0
  0
LINE
  5
185
100
AcDbEntity
  8
0
100
AcDbLine
 10
210.410772
 20
185.03437
 30
0.0
 11
210.359356
 21
186.27385
 31
0.0
  0
LINE
  5
186
100
AcDbEntity
  8
0
100
AcDbLine
 10
213.939324
 20
181.027798
 30
0.0
 11
211.989324
 21
181.027798
 31
0.0
  0
LINE
  5
187
100
AcDbEntity
  8
0
100
AcDbLine
 10
211.789324
 20
184.977808
 30
0.0
 11
211.209297
 21
184.977808
 31
0.0
  0
LINE
  5
188
100
AcDbEntity
  8
0
100
AcDbLine
 10
211.209577
 20
184.978139
 30
0.0
 11
210.988558
 21
184.715581
 31
0.0
  0
LINE
  5
189
100
AcDbEntity
  8
0
100
AcDbLine
 10
210.75035
 20
185.363844
 30
0.0
 11
210.979322
 21
185.170869
 31
0.0
  0
LINE
  5
18A
100
AcDbEntity
  8
0
100
AcDbLine
 10
210.979322
 20
185.170869
 30
0.0
 11
210.763792
 21
184.914081
 31
0.0
  0
ARC
  5
18B
100
AcDbEntity
  8
0
100
AcDbCircle
 10
211.789324
 20
184.777808
 30
0.0
 40
0.2
100
AcDbArc
 50
0.0
 51
90.0
  0
ARC
  5
18C
100
AcDbEntity
  8
0
100
AcDbCircle
 10
210.606043
 20
185.037577
 30
0.0
 40
0.5
100
AcDbArc
 50
184.98705
 51
319.909786
  0
ARC
  5
18D
100
AcDbEntity
  8
0
100
AcDbCircle
 10
210.6106
 20
185.042659
 30
0.0
 40
0.2
100
AcDbArc
 50
182.37537
 51
319.992225
  0
ARC
  5
18E
100
AcDbEntity
  8
0
100
AcDbCircle
 10
210.389324
 20
183.877798
 30
0.0
 40
1.6
100
AcDbArc
 50
270.0
 51
0.0
  0
ARC
  5
18F
100
AcDbEntity
  8
0
100
AcDbCircle
 10
209.830064
 20
185.877798
 30
0.0
 40
0.2
100
AcDbArc
 50
4.98705
 51
90.0
  0
LINE
  5
190
100
AcDbEntity
  8
0
100
AcDbLine
 10
210.207334
 20
192.130688
 30
0.0
 11
209.836256
 21
191.109502
 31
0.0
  0
LINE
  5
191
100
AcDbEntity
  8
0
100
AcDbLine
 10
209.830064
 20
186.077798
 30
0.0
 11
208.111579
 21
186.077798
 31
0.0
  0
LINE
  5
192
100
AcDbEntity
  8
0
100
AcDbLine
 10
209.648282
 20
190.977808
 30
0.0
 11
208.111571
 21
190.977808
 31
0.0
  0
ARC
  5
193
100
AcDbEntity
  8
0
100
AcDbCircle
 10
209.648282
 20
191.177808
 30
0.0
 40
0.2
100
AcDbArc
 50
270.0
 51
340.029872
  0
LINE
  5
194
100
AcDbEntity
  8
0
100
AcDbLine
 10
210.943323
 20
185.593817
 30
0.0
 11
211.172918
 21
185.401138
 31
0.0
  0
LINE
  5
195
100
AcDbEntity
  8
0
100
AcDbLine
 10
213.939324
 20
185.527798
 30
0.0
 11
211.989324
 21
185.527798
 31
0.0
  0
LINE
  5
196
100
AcDbEntity
  8
0
100
AcDbLine
 10
210.059324
 20
185.550808
 30
0.0
 11
210.059324
 21
186.397758
 31
0.0
  0
LINE
  5
197
100
AcDbEntity
  8
0
100
AcDbLine
 10
210.359356
 20
186.27385
 30
0.0
 11
211.459324
 21
187.373808
 31
0.0
  0
LINE
  5
198
100
AcDbEntity
  8
0
100
AcDbLine
 10
210.059324
 20
186.397758
 30
0.0
 11
211.159324
 21
187.497768
 31
0.0
  0
ARC
  5
199
100
AcDbEntity
  8
0
100
AcDbCircle
 10
211.159324
 20
191.177808
 30
0.0
 40
0.3
100
AcDbArc
 50
0.0
 51
90.0
  0
LINE
  5
19A
100
AcDbEntity
  8
0
100
AcDbLine
 10
211.289344
 20
191.777818
 30
0.0
 11
210.915314
 21
192.151848
 31
0.0
  0
LINE
  5
19B
100
AcDbEntity
  8
0
100
AcDbLine
 10
210.539324
 20
191.477808
 30
0.0
 11
210.539324
 21
191.177808
 31
0.0
  0
LINE
  5
19C
100
AcDbEntity
  8
0
100
AcDbLine
 10
210.539324
 20
191.177808
 30
0.0
 11
211.159324
 21
191.177808
 31
0.0
  0
LINE
  5
19D
100
AcDbEntity
  8
0
100
AcDbLine
 10
211.159324
 20
191.477808
 30
0.0
 11
210.539324
 21
191.477808
 31
0.0
  0
LINE
  5
19E
100
AcDbEntity
  8
0
100
AcDbLine
 10
211.789324
 20
191.777818
 30
0.0
 11
211.289344
 21
191.777818
 31
0.0
  0
ARC
  5
19F
100
AcDbEntity
  8
0
100
AcDbCircle
 10
211.789324
 20
191.977818
 30
0.0
 40
0.2
100
AcDbArc
 50
270.0
 51
0.0
  0
ARC
  5
1A0
100
AcDbEntity
  8
0
100
AcDbCircle
 10
210.489324
 20
192.027818
 30
0.0
 40
0.300167
100
AcDbArc
 50
85.537395
 51
160.029872
  0
ARC
  5
1A1
100
AcDbEntity
  8
0
100
AcDbCircle
 10
210.491324
 20
191.727808
 30
0.0
 40
0.599648
100
AcDbArc
 50
45.0
 51
92.804841
  0
LINE
  5
1A2
100
AcDbEntity
  8
0
100
AcDbLine
 10
211.159324
 20
187.497768
 30
0.0
 11
211.159324
 21
191.177808
 31
0.0
  0
LINE
  5
1A3
100
AcDbEntity
  8
0
100
AcDbLine
 10
211.459324
 20
187.373808
 30
0.0
 11
211.459324
 21
191.177808
 31
0.0
  0
ARC
  5
1A4
100
AcDbEntity
  8
0
100
AcDbCircle
 10
210.389324
 20
194.177798
 30
0.0
 40
1.6
100
AcDbArc
 50
0.0
 51
90.0
  0
ARC
  5
1A5
100
AcDbEntity
  8
0
100
AcDbCircle
 10
335.37587
 20
205.777798
 30
0.0
 40
40.5
100
AcDbArc
 50
175.054551
 51
184.945449
  0
LINE
  5
1A6
100
AcDbEntity
  8
CENTER
  6
CENTER
 62
     1
100
AcDbLine
 10
216.989324
 20
239.777798
 30
0.0
 11
194.989324
 21
239.777798
 31
0.0
  0
CIRCLE
  5
1A7
100
AcDbEntity
  8
0
100
AcDbCircle
 10
204.989324
 20
223.027798
 30
0.0
 40
3.96875
  0
LINE
  5
1A8
100
AcDbEntity
  8
0
100
AcDbLine
 10
199.589324
 20
215.777798
 30
0.0
 11
210.389324
 21
215.777798
 31
0.0
  0
LINE
  5
1A9
100
AcDbEntity
  8
0
100
AcDbLine
 10
199.589324
 20
229.277798
 30
0.0
 11
211.989324
 21
229.277798
 31
0.0
  0
LINE
  5
1AA
100
AcDbEntity
  8
0
 62
     3
100
AcDbLine
 10
209.489324
 20
243.777798
 30
0.0
 11
197.989324
 21
243.777798
 31
0.0
  0
LINE
  5
1AB
100
AcDbEntity
  8
0
100
AcDbLine
 10
209.489324
 20
243.177798
 30
0.0
 11
197.989324
 21
243.177798
 31
0.0
  0
LINE
  5
1AC
100
AcDbEntity
  8
0
100
AcDbLine
 10
209.489324
 20
236.377798
 30
0.0
 11
197.989324
 21
236.377798
 31
0.0
  0
LINE
  5
1AD
100
AcDbEntity
  8
0
 62
     3
100
AcDbLine
 10
209.489324
 20
235.777798
 30
0.0
 11
197.989324
 21
235.777798
 31
0.0
  0
LINE
  5
1AE
100
AcDbEntity
  8
0
100
AcDbLine
 10
215.989324
 20
246.277798
 30
0.0
 11
197.989324
 21
246.277798
 31
0.0
  0
LINE
  5
1AF
100
AcDbEntity
  8
0
100
AcDbLine
 10
197.989324
 20
246.277798
 30
0.0
 11
197.989324
 21
232.777798
 31
0.0
  0
LINE
  5
1B0
100
AcDbEntity
  8
0
100
AcDbLine
 10
198.999326
 20
226.384726
 30
0.0
 11
199.214857
 21
226.641515
 31
0.0
  0
LINE
  5
1B1
100
AcDbEntity
  8
0
100
AcDbLine
 10
199.870713
 20
226.561483
 30
0.0
 11
199.949341
 21
225.660411
 31
0.0
  0
LINE
  5
1B2
100
AcDbEntity
  8
0
100
AcDbLine
 10
199.567876
 20
226.521226
 30
0.0
 11
199.619292
 21
225.281746
 31
0.0
  0
ARC
  5
1B3
100
AcDbEntity
  8
0
100
AcDbCircle
 10
198.998581
 20
226.384258
 30
0.0
 40
0.3
100
AcDbArc
 50
139.909786
 51
229.996276
  0
ARC
  5
1B4
100
AcDbEntity
  8
0
100
AcDbCircle
 10
199.589324
 20
217.377798
 30
0.0
 40
1.6
100
AcDbArc
 50
180.0
 51
270.0
  0
LINE
  5
1B5
100
AcDbEntity
  8
0
100
AcDbLine
 10
198.189324
 20
219.777778
 30
0.0
 11
198.689304
 21
219.777778
 31
0.0
  0
LINE
  5
1B6
100
AcDbEntity
  8
0
100
AcDbLine
 10
197.989324
 20
225.777798
 30
0.0
 11
195.989324
 21
225.777798
 31
0.0
  0
ARC
  5
1B7
100
AcDbEntity
  8
0
100
AcDbCircle
 10
198.189324
 20
219.577778
 30
0.0
 40
0.2
100
AcDbArc
 50
90.0
 51
180.0
  0
LINE
  5
1B8
100
AcDbEntity
  8
0
100
AcDbLine
 10
199.035325
 20
225.961779
 30
0.0
 11
199.228298
 21
226.191751
 31
0.0
  0
LINE
  5
1B9
100
AcDbEntity
  8
0
100
AcDbLine
 10
199.228298
 20
226.191751
 30
0.0
 11
198.999326
 21
226.384726
 31
0.0
  0
LINE
  5
1BA
100
AcDbEntity
  8
0
100
AcDbLine
 10
199.919324
 20
226.004788
 30
0.0
 11
199.919324
 21
225.157838
 31
0.0
  0
ARC
  5
1BB
100
AcDbEntity
  8
0
100
AcDbCircle
 10
200.148584
 20
225.677798
 30
0.0
 40
0.2
100
AcDbArc
 50
184.98705
 51
270.0
  0
LINE
  5
1BC
100
AcDbEntity
  8
0
100
AcDbLine
 10
199.619292
 20
225.281746
 30
0.0
 11
198.519324
 21
224.181788
 31
0.0
  0
LINE
  5
1BD
100
AcDbEntity
  8
0
100
AcDbLine
 10
199.919324
 20
225.157838
 30
0.0
 11
198.819324
 21
224.057828
 31
0.0
  0
LINE
  5
1BE
100
AcDbEntity
  8
0
100
AcDbLine
 10
199.035325
 20
225.961779
 30
0.0
 11
198.80573
 21
226.154457
 31
0.0
  0
ARC
  5
1BF
100
AcDbEntity
  8
0
100
AcDbCircle
 10
200.330367
 20
220.377788
 30
0.0
 40
0.2
100
AcDbArc
 50
90.0
 51
160.029872
  0
ARC
  5
1C0
100
AcDbEntity
  8
0
100
AcDbCircle
 10
199.487324
 20
219.827788
 30
0.0
 40
0.599648
100
AcDbArc
 50
225.0
 51
272.804841
  0
ARC
  5
1C1
100
AcDbEntity
  8
0
100
AcDbCircle
 10
199.489324
 20
219.527778
 30
0.0
 40
0.300167
100
AcDbArc
 50
265.537395
 51
340.029872
  0
LINE
  5
1C2
100
AcDbEntity
  8
0
100
AcDbLine
 10
199.439324
 20
220.077788
 30
0.0
 11
199.439324
 21
220.377788
 31
0.0
  0
LINE
  5
1C3
100
AcDbEntity
  8
0
100
AcDbLine
 10
199.771314
 20
219.424908
 30
0.0
 11
200.142393
 21
220.446094
 31
0.0
  0
ARC
  5
1C4
100
AcDbEntity
  8
0
100
AcDbCircle
 10
198.819324
 20
220.377788
 30
0.0
 40
0.3
100
AcDbArc
 50
180.0
 51
270.0
  0
LINE
  5
1C5
100
AcDbEntity
  8
0
100
AcDbLine
 10
198.689304
 20
219.777778
 30
0.0
 11
199.063334
 21
219.403748
 31
0.0
  0
LINE
  5
1C6
100
AcDbEntity
  8
0
100
AcDbLine
 10
199.439324
 20
220.377788
 30
0.0
 11
198.819324
 21
220.377788
 31
0.0
  0
LINE
  5
1C7
100
AcDbEntity
  8
0
100
AcDbLine
 10
198.819324
 20
220.077788
 30
0.0
 11
199.439324
 21
220.077788
 31
0.0
  0
LINE
  5
1C8
100
AcDbEntity
  8
0
100
AcDbLine
 10
198.819324
 20
224.057828
 30
0.0
 11
198.819324
 21
220.377788
 31
0.0
  0
LINE
  5
1C9
100
AcDbEntity
  8
0
100
AcDbLine
 10
198.519324
 20
224.181788
 30
0.0
 11
198.519324
 21
220.377788
 31
0.0
  0
LINE
  5
1CA
100
AcDbEntity
  8
0
100
AcDbLine
 10
200.330367
 20
220.577788
 30
0.0
 11
201.867077
 21
220.577788
 31
0.0
  0
LINE
  5
1CB
100
AcDbEntity
  8
0
100
AcDbLine
 10
200.148584
 20
225.477798
 30
0.0
 11
201.867069
 21
225.477798
 31
0.0
  0
ARC
  5
1CC
100
AcDbEntity
  8
0
100
AcDbCircle
 10
199.589324
 20
227.677798
 30
0.0
 40
1.6
100
AcDbArc
 50
90.0
 51
180.0
  0
LINE
  5
1CD
100
AcDbEntity
  8
0
100
AcDbLine
 10
198.189324
 20
226.577788
 30
0.0
 11
198.769351
 21
226.577788
 31
0.0
  0
LINE
  5
1CE
100
AcDbEntity
  8
0
100
AcDbLine
 10
197.989324
 20
232.777798
 30
0.0
 11
195.989324
 21
232.777798
 31
0.0
  0
ARC
  5
1CF
100
AcDbEntity
  8
0
100
AcDbCircle
 10
198.189324
 20
226.777788
 30
0.0
 40
0.2
100
AcDbArc
 50
180.0
 51
270.0
  0
ARC
  5
1D0
100
AcDbEntity
  8
0
100
AcDbCircle
 10
199.372606
 20
226.518018
 30
0.0
 40
0.5
100
AcDbArc
 50
4.98705
 51
139.909786
  0
ARC
  5
1D1
100
AcDbEntity
  8
0
100
AcDbCircle
 10
199.368048
 20
226.512936
 30
0.0
 40
0.2
100
AcDbArc
 50
2.37537
 51
139.992225
  0
LINE
  5
1D2
100
AcDbEntity
  8
0
100
AcDbLine
 10
198.769072
 20
226.577456
 30
0.0
 11
198.99009
 21
226.840015
 31
0.0
  0
LINE
  5
1D3
100
AcDbEntity
  8
0
100
AcDbLine
 10
209.489324
 20
245.277798
 30
0.0
 11
209.489324
 21
234.277798
 31
0.0
  0
LINE
  5
1D4
100
AcDbEntity
  8
0
100
AcDbLine
 10
210.979322
 20
226.384726
 30
0.0
 11
210.763792
 21
226.641515
 31
0.0
  0
LINE
  5
1D5
100
AcDbEntity
  8
0
100
AcDbLine
 10
210.410772
 20
226.521226
 30
0.0
 11
210.359356
 21
225.281746
 31
0.0
  0
LINE
  5
1D6
100
AcDbEntity
  8
0
100
AcDbLine
 10
210.107935
 20
226.561483
 30
0.0
 11
210.029307
 21
225.660411
 31
0.0
  0
ARC
  5
1D7
100
AcDbEntity
  8
0
100
AcDbCircle
 10
210.980067
 20
226.384258
 30
0.0
 40
0.3
100
AcDbArc
 50
310.003724
 51
40.090214
  0
ARC
  5
1D8
100
AcDbEntity
  8
0
100
AcDbCircle
 10
210.389324
 20
217.377798
 30
0.0
 40
1.6
100
AcDbArc
 50
270.0
 51
0.0
  0
ARC
  5
1D9
100
AcDbEntity
  8
0
100
AcDbCircle
 10
209.830064
 20
225.677798
 30
0.0
 40
0.2
100
AcDbArc
 50
270.0
 51
355.01295
  0
LINE
  5
1DA
100
AcDbEntity
  8
0
100
AcDbLine
 10
210.207334
 20
219.424908
 30
0.0
 11
209.836256
 21
220.446094
 31
0.0
  0
ARC
  5
1DB
100
AcDbEntity
  8
0
100
AcDbCircle
 10
209.648282
 20
220.377788
 30
0.0
 40
0.2
100
AcDbArc
 50
19.970128
 51
90.0
  0
LINE
  5
1DC
100
AcDbEntity
  8
0
100
AcDbLine
 10
209.648282
 20
220.577788
 30
0.0
 11
208.111571
 21
220.577788
 31
0.0
  0
LINE
  5
1DD
100
AcDbEntity
  8
0
100
AcDbLine
 10
209.830064
 20
225.477798
 30
0.0
 11
208.111579
 21
225.477798
 31
0.0
  0
LINE
  5
1DE
100
AcDbEntity
  8
0
100
AcDbLine
 10
213.939324
 20
226.027798
 30
0.0
 11
211.989324
 21
226.027798
 31
0.0
  0
LINE
  5
1DF
100
AcDbEntity
  8
0
100
AcDbLine
 10
210.943323
 20
225.961779
 30
0.0
 11
211.172918
 21
226.154457
 31
0.0
  0
LINE
  5
1E0
100
AcDbEntity
  8
0
100
AcDbLine
 10
210.75035
 20
226.191751
 30
0.0
 11
210.979322
 21
226.384726
 31
0.0
  0
LINE
  5
1E1
100
AcDbEntity
  8
0
100
AcDbLine
 10
210.943323
 20
225.961779
 30
0.0
 11
210.75035
 21
226.191751
 31
0.0
  0
LINE
  5
1E2
100
AcDbEntity
  8
0
100
AcDbLine
 10
210.059324
 20
226.004788
 30
0.0
 11
210.059324
 21
225.157838
 31
0.0
  0
LINE
  5
1E3
100
AcDbEntity
  8
0
100
AcDbLine
 10
210.059324
 20
225.157838
 30
0.0
 11
211.159324
 21
224.057828
 31
0.0
  0
LINE
  5
1E4
100
AcDbEntity
  8
0
100
AcDbLine
 10
210.359356
 20
225.281746
 30
0.0
 11
211.459324
 21
224.181788
 31
0.0
  0
ARC
  5
1E5
100
AcDbEntity
  8
0
100
AcDbCircle
 10
211.789324
 20
219.577778
 30
0.0
 40
0.2
100
AcDbArc
 50
0.0
 51
90.0
  0
LINE
  5
1E6
100
AcDbEntity
  8
0
100
AcDbLine
 10
211.789324
 20
219.777778
 30
0.0
 11
211.289344
 21
219.777778
 31
0.0
  0
ARC
  5
1E7
100
AcDbEntity
  8
0
100
AcDbCircle
 10
210.491324
 20
219.827788
 30
0.0
 40
0.599648
100
AcDbArc
 50
267.195159
 51
315.0
  0
LINE
  5
1E8
100
AcDbEntity
  8
0
100
AcDbLine
 10
211.159324
 20
220.077788
 30
0.0
 11
210.539324
 21
220.077788
 31
0.0
  0
LINE
  5
1E9
100
AcDbEntity
  8
0
100
AcDbLine
 10
210.539324
 20
220.377788
 30
0.0
 11
211.159324
 21
220.377788
 31
0.0
  0
LINE
  5
1EA
100
AcDbEntity
  8
0
100
AcDbLine
 10
210.539324
 20
220.077788
 30
0.0
 11
210.539324
 21
220.377788
 31
0.0
  0
ARC
  5
1EB
100
AcDbEntity
  8
0
100
AcDbCircle
 10
210.489324
 20
219.527778
 30
0.0
 40
0.300167
100
AcDbArc
 50
199.970128
 51
274.462605
  0
LINE
  5
1EC
100
AcDbEntity
  8
0
100
AcDbLine
 10
211.289344
 20
219.777778
 30
0.0
 11
210.915314
 21
219.403748
 31
0.0
  0
ARC
  5
1ED
100
AcDbEntity
  8
0
100
AcDbCircle
 10
211.159324
 20
220.377788
 30
0.0
 40
0.3
100
AcDbArc
 50
270.0
 51
0.0
  0
LINE
  5
1EE
100
AcDbEntity
  8
0
100
AcDbLine
 10
211.459324
 20
224.181788
 30
0.0
 11
211.459324
 21
220.377788
 31
0.0
  0
LINE
  5
1EF
100
AcDbEntity
  8
0
100
AcDbLine
 10
211.159324
 20
224.057828
 30
0.0
 11
211.159324
 21
220.377788
 31
0.0
  0
LINE
  5
1F0
100
AcDbEntity
  8
0
100
AcDbLine
 10
215.989324
 20
229.277798
 30
0.0
 11
213.939324
 21
229.277798
 31
0.0
  0
LINE
  5
1F1
100
AcDbEntity
  8
0
100
AcDbLine
 10
215.989324
 20
234.277798
 30
0.0
 11
209.489324
 21
234.277798
 31
0.0
  0
LINE
  5
1F2
100
AcDbEntity
  8
0
100
AcDbLine
 10
213.939324
 20
230.527798
 30
0.0
 11
211.989324
 21
230.527798
 31
0.0
  0
ARC
  5
1F3
100
AcDbEntity
  8
0
100
AcDbCircle
 10
210.389324
 20
227.677798
 30
0.0
 40
1.6
100
AcDbArc
 50
0.0
 51
90.0
  0
ARC
  5
1F4
100
AcDbEntity
  8
0
100
AcDbCircle
 10
211.789324
 20
226.777788
 30
0.0
 40
0.2
100
AcDbArc
 50
270.0
 51
0.0
  0
LINE
  5
1F5
100
AcDbEntity
  8
0
100
AcDbLine
 10
211.209577
 20
226.577456
 30
0.0
 11
210.988558
 21
226.840015
 31
0.0
  0
ARC
  5
1F6
100
AcDbEntity
  8
0
100
AcDbCircle
 10
210.6106
 20
226.512936
 30
0.0
 40
0.2
100
AcDbArc
 50
40.007775
 51
177.62463
  0
ARC
  5
1F7
100
AcDbEntity
  8
0
100
AcDbCircle
 10
210.606043
 20
226.518018
 30
0.0
 40
0.5
100
AcDbArc
 50
40.090214
 51
175.01295
  0
LINE
  5
1F8
100
AcDbEntity
  8
0
100
AcDbLine
 10
211.789324
 20
226.577788
 30
0.0
 11
211.209297
 21
226.577788
 31
0.0
  0
LINE
  5
1F9
100
AcDbEntity
  8
0
100
AcDbLine
 10
215.989324
 20
245.277798
 30
0.0
 11
209.489324
 21
245.277798
 31
0.0
  0
LINE
  5
1FA
100
AcDbEntity
  8
0
100
AcDbLine
 10
206.989324
 20
246.277798
 30
0.0
 11
206.989424
 21
246.277798
 31
0.0
  0
LINE
  5
1FB
100
AcDbEntity
  8
0
100
AcDbLine
 10
211.489324
 20
246.277798
 30
0.0
 11
211.489324
 21
246.277898
 31
0.0
  0
LINE
  5
1FC
100
AcDbEntity
  8
CENTER
  6
CENTER
 62
     1
100
AcDbLine
 10
335.37587
 20
253.012665
 30
0.0
 11
335.37587
 21
158.54293
 31
0.0
  0
CIRCLE
  5
1FD
100
AcDbEntity
  8
CENTER
  6
CENTER
 62
     1
100
AcDbCircle
 10
335.37587
 20
205.777798
 30
0.0
 40
34.0
  0
CIRCLE
  5
1FE
100
AcDbEntity
  8
0
 62
     3
100
AcDbCircle
 10
335.37587
 20
205.777798
 30
0.0
 40
27.0
  0
LWPOLYLINE
  5
1FF
100
AcDbEntity
  8
0
100
AcDbPolyline
 90
        2
 70
     0
 43
0.0
 10
375.725098
 20
209.26919
 10
338.867263
 20
246.127025
  0
CIRCLE
  5
203
100
AcDbEntity
  8
0
100
AcDbCircle
 10
369.37587
 20
205.777798
 30
0.0
 40
5.5
  0
CIRCLE
  5
204
100
AcDbEntity
  8
0
100
AcDbCircle
 10
335.37587
 20
205.777798
 30
0.0
 40
23.5
  0
CIRCLE
  5
205
100
AcDbEntity
  8
0
100
AcDbCircle
 10
335.37587
 20
205.777798
 30
0.0
 40
10.0
  0
LWPOLYLINE
  5
206
100
AcDbEntity
  8
0
100
AcDbPolyline
 90
        2
 70
     0
 43
0.0
 10
338.867263
 20
165.42857
 10
375.725098
 20
202.286405
  0
CIRCLE
  5
20A
100
AcDbEntity
  8
0
100
AcDbCircle
 10
335.37587
 20
171.777798
 30
0.0
 40
5.5
  0
CIRCLE
  5
20B
100
AcDbEntity
  8
0
 62
     3
100
AcDbCircle
 10
335.37587
 20
171.777798
 30
0.0
 40
4.0
  0
CIRCLE
  5
20C
100
AcDbEntity
  8
0
100
AcDbCircle
 10
335.37587
 20
171.777798
 30
0.0
 40
3.4
  0
ARC
  5
20D
100
AcDbEntity
  8
0
100
AcDbCircle
 10
335.37587
 20
205.777798
 30
0.0
 40
40.5
100
AcDbArc
 50
265.054551
 51
274.945449
  0
CIRCLE
  5
20E
100
AcDbEntity
  8
0
 62
     3
100
AcDbCircle
 10
301.37587
 20
205.777798
 30
0.0
 40
4.0
  0
CIRCLE
  5
20F
100
AcDbEntity
  8
0
100
AcDbCircle
 10
301.37587
 20
205.777798
 30
0.0
 40
3.4
  0
CIRCLE
  5
210
100
AcDbEntity
  8
0
 62
     3
100
AcDbCircle
 10
369.37587
 20
205.777798
 30
0.0
 40
4.0
  0
CIRCLE
  5
211
100
AcDbEntity
  8
0
100
AcDbCircle
 10
369.37587
 20
205.777798
 30
0.0
 40
3.4
  0
ARC
  5
212
100
AcDbEntity
  8
0
100
AcDbCircle
 10
335.37587
 20
205.777798
 30
0.0
 40
40.5
100
AcDbArc
 50
355.054551
 51
4.945449
  0
CIRCLE
  5
213
100
AcDbEntity
  8
0
100
AcDbCircle
 10
335.37587
 20
239.777798
 30
0.0
 40
3.4
  0
CIRCLE
  5
214
100
AcDbEntity
  8
0
 62
     3
100
AcDbCircle
 10
335.37587
 20
239.777798
 30
0.0
 40
4.0
  0
CIRCLE
  5
215
100
AcDbEntity
  8
0
100
AcDbCircle
 10
335.37587
 20
239.777798
 30
0.0
 40
5.5
  0
ARC
  5
216
100
AcDbEntity
  8
0
100
AcDbCircle
 10
335.37587
 20
205.777798
 30
0.0
 40
40.5
100
AcDbArc
 50
85.054551
 51
94.945449
  0
ENDSEC
  0
SECTION
  2
OBJECTS
  0
DICTIONARY
  5
111
100
AcDbDictionary
  3
ACAD_GROUP
350
112
  3
ACAD_LAYOUT
350
11E
  3
ACAD_MLINESTYLE
350
11B
  3
ACAD_PLOTSETTINGS
350
11D
  3
ACAD_PLOTSTYLENAME
350
113
  3
ACDBHEADERROUNDTRIPXREC
350
223
  3
AcDbVariableDictionary
350
24C
  0
DICTIONARY
  5
221
100
AcDbDictionary
280
     1
  3
ACAD_XREC_ROUNDTRIP
360
222
  0
DICTIONARY
  5
21D
100
AcDbDictionary
280
     1
  3
ACAD_XREC_ROUNDTRIP
360
21E
  0
DICTIONARY
  5
21F
100
AcDbDictionary
280
     1
  3
ACAD_XREC_ROUNDTRIP
360
220
  0
DICTIONARY
  5
24A
100
AcDbDictionary
280
     1
  3
ACAD_XREC_ROUNDTRIP
360
24B
  0
DICTIONARY
  5
219
100
AcDbDictionary
280
     1
  3
ACAD_LAYOUTSELFREF
360
249
  3
ACAD_XREC_ROUNDTRIP
360
21A
  0
DICTIONARY
  5
21B
100
AcDbDictionary
280
     1
  3
ACAD_LAYOUTSELFREF
360
248
  3
ACAD_XREC_ROUNDTRIP
360
21C
  0
DICTIONARY
  5
112
102
{ACAD_REACTORS
330
111
102
}
100
AcDbDictionary
  0
DICTIONARY
  5
11E
102
{ACAD_XDICTIONARY
360
246
102
}
102
{ACAD_REACTORS
330
111
102
}
100
AcDbDictionary
  3
MODEL
350
126
  3
ﾚｲｱｳﾄ1
350
122
  0
DICTIONARY
  5
11B
102
{ACAD_XDICTIONARY
360
244
102
}
102
{ACAD_REACTORS
330
111
102
}
100
AcDbDictionary
  3
STANDARD
350
11C
  0
DICTIONARY
  5
11D
102
{ACAD_REACTORS
330
111
102
}
100
AcDbDictionary
  0
ACAD_PROXY_OBJECT
  5
113
102
{ACAD_REACTORS
330
111
102
}
100
AcDbProxyObject
 90
      499
 91
      500
 93
       86
310
405010041939BDC9B585B1
350
114
340
114
 94
        0
  0
DICTIONARY
  5
223
102
{ACAD_REACTORS
330
111
102
}
100
AcDbDictionary
  3
CEPSNTYPE
350
22D
  3
DIMSTYLEDATA
350
231
  3
FINGERPRINTGUID
350
22E
  3
HYPERLINKBASE
350
226
  3
INSUNITS
350
22C
  3
LAYOUTDICT
350
228
  3
LWETCUNION
350
22B
  3
PLOTSETDICT
350
229
  3
PLOTSTYLNAMDICT
350
22A
  3
PSVPSCALE
350
230
  3
PUCSBASE
350
234
  3
PUCSORGBACK
350
23A
  3
PUCSORGBOTTOM
350
236
  3
PUCSORGFRONT
350
239
  3
PUCSORGLEFT
350
237
  3
PUCSORGRIGHT
350
238
  3
PUCSORGTOP
350
235
  3
PUCSORTHOREF
350
232
  3
PUCSORTHOVIEW
350
233
  3
STYLESHEET
350
227
  3
TSTACKALIGN
350
224
  3
TSTACKSIZE
350
225
  3
UCSBASE
350
23D
  3
UCSORGBACK
350
243
  3
UCSORGBOTTOM
350
23F
  3
UCSORGFRONT
350
242
  3
UCSORGLEFT
350
240
  3
UCSORGRIGHT
350
241
  3
UCSORGTOP
350
23E
  3
UCSORTHOREF
350
23B
  3
UCSORTHOVIEW
350
23C
  3
VERSIONGUID
350
22F
  0
DICTIONARY
  5
24C
102
{ACAD_REACTORS
330
111
102
}
100
AcDbDictionary
  3
DIMASSOC
350
24D
  0
XRECORD
  5
222
102
{ACAD_REACTORS
330
221
102
}
100
AcDbXrecord
102
EXTNAMES
  1
*ACTIVE
  2
*Active
102
UCS
 74
     0
 71
     0
 10
0.0
 20
0.0
 30
0.0
 10
1.0
 20
0.0
 30
0.0
 10
0.0
 20
1.0
 30
0.0
146
0.0
 79
     0
102
VIEW
281
     0
  0
XRECORD
  5
21E
102
{ACAD_REACTORS
330
21D
102
}
100
AcDbXrecord
102
EXTNAMES
  1
BYBLOCK
  2
ByBlock
  0
XRECORD
  5
220
102
{ACAD_REACTORS
330
21F
102
}
100
AcDbXrecord
102
EXTNAMES
  1
BYLAYER
  2
ByLayer
  0
XRECORD
  5
24B
102
{ACAD_REACTORS
330
24A
102
}
100
AcDbXrecord
102
ACADR14ROUNDTRIP
1000
DSTYLE
1002
{
1070
   279
 70
     2
1002
}
  0
XRECORD
  5
249
102
{ACAD_REACTORS
330
219
102
}
100
AcDbXrecord
340
123
  0
XRECORD
  5
21A
102
{ACAD_REACTORS
330
219
102
}
100
AcDbXrecord
102
EXTNAMES
  1
*MODEL_SPACE
  2
*Model_Space
  0
XRECORD
  5
248
102
{ACAD_REACTORS
330
21B
102
}
100
AcDbXrecord
340
11F
  0
XRECORD
  5
21C
102
{ACAD_REACTORS
330
21B
102
}
100
AcDbXrecord
102
EXTNAMES
  1
*PAPER_SPACE
  2
*Paper_Space
  0
DICTIONARY
  5
246
100
AcDbDictionary
280
     1
  3
ACAD_XREC_ROUNDTRIP
360
247
  0
ACAD_PROXY_OBJECT
  5
126
102
{ACAD_REACTORS
330
11E
102
}
100
AcDbProxyObject
 90
      499
 91
      502
 93
      836
310
932433A5C50524F4752414D2046494C45535C4D4454365C706C6F74746572735C526F6C616E64204458592D313235302E7063332C01AAAAAAAAA5A69054D6F64656C901A800000000000000000000000000000000000000000000A1000000000000008902A6A6AAAA0
330
123
330
0
340
0
340
0
 94
        0
  0
ACAD_PROXY_OBJECT
  5
122
102
{ACAD_REACTORS
330
11E
102
}
100
AcDbProxyObject
 90
      499
 91
      502
 93
     1244
310
932433A5C50524F4752414D2046494C45535C4D4454365C706C6F74746572735C526F6C616E64204458592D313235302E7063332C00AAAAAA416AA59106906DAB2B1B3C431406A800000000000000000000000000000000000000000101E900000000000241C902A6A6A10232D5E076BC5510408CB5781DAF154410232D5E0
310
76BC5510408CB5781DAF15C410232D5E076BC5710408CB5781DAF15C40
330
11F
330
0
340
0
340
0
 94
        0
  0
DICTIONARY
  5
244
100
AcDbDictionary
280
     1
  3
ACAD_XREC_ROUNDTRIP
360
245
  0
MLINESTYLE
  5
11C
102
{ACAD_REACTORS
330
11B
102
}
100
AcDbMlineStyle
  2
STANDARD
 70
     0
  3

 62
   256
 51
90.0
 52
90.0
 71
     2
 49
0.5
 62
   256
  6
BYLAYER
 49
-0.5
 62
   256
  6
BYLAYER
  0
ACAD_PROXY_OBJECT
  5
114
102
{ACAD_REACTORS
330
113
102
}
100
AcDbProxyObject
 90
      499
 91
      501
 93
        0
 94
        0
  0
XRECORD
  5
22D
102
{ACAD_REACTORS
330
223
102
}
100
AcDbXrecord
 90
        0
  0
XRECORD
  5
231
102
{ACAD_REACTORS
330
223
102
}
100
AcDbXrecord
1000
DSTYLE
1002
{
1070
   341
340
139
1070
   342
340
133
1070
   343
340
139
1070
   344
340
139
1002
}
  0
XRECORD
  5
22E
102
{ACAD_REACTORS
330
223
102
}
100
AcDbXrecord
  1
{3D8B5905-707D-4AC1-8663-21282625797F}
  0
XRECORD
  5
226
102
{ACAD_REACTORS
330
223
102
}
100
AcDbXrecord
  1

  0
XRECORD
  5
22C
102
{ACAD_REACTORS
330
223
102
}
100
AcDbXrecord
 90
        0
  0
XRECORD
  5
228
102
{ACAD_REACTORS
330
223
102
}
100
AcDbXrecord
340
11E
  0
XRECORD
  5
22B
102
{ACAD_REACTORS
330
223
102
}
100
AcDbXrecord
 90
    10781
  0
XRECORD
  5
229
102
{ACAD_REACTORS
330
223
102
}
100
AcDbXrecord
340
11D
  0
XRECORD
  5
22A
102
{ACAD_REACTORS
330
223
102
}
100
AcDbXrecord
340
113
  0
XRECORD
  5
230
102
{ACAD_REACTORS
330
223
102
}
100
AcDbXrecord
 40
0.0
  0
XRECORD
  5
234
102
{ACAD_REACTORS
330
223
102
}
100
AcDbXrecord
340
0
  0
XRECORD
  5
23A
102
{ACAD_REACTORS
330
223
102
}
100
AcDbXrecord
 10
0.0
 20
0.0
 30
0.0
  0
XRECORD
  5
236
102
{ACAD_REACTORS
330
223
102
}
100
AcDbXrecord
 10
0.0
 20
0.0
 30
0.0
  0
XRECORD
  5
239
102
{ACAD_REACTORS
330
223
102
}
100
AcDbXrecord
 10
0.0
 20
0.0
 30
0.0
  0
XRECORD
  5
237
102
{ACAD_REACTORS
330
223
102
}
100
AcDbXrecord
 10
0.0
 20
0.0
 30
0.0
  0
XRECORD
  5
238
102
{ACAD_REACTORS
330
223
102
}
100
AcDbXrecord
 10
0.0
 20
0.0
 30
0.0
  0
XRECORD
  5
235
102
{ACAD_REACTORS
330
223
102
}
100
AcDbXrecord
 10
0.0
 20
0.0
 30
0.0
  0
XRECORD
  5
232
102
{ACAD_REACTORS
330
223
102
}
100
AcDbXrecord
340
0
  0
XRECORD
  5
233
102
{ACAD_REACTORS
330
223
102
}
100
AcDbXrecord
 70
     0
  0
XRECORD
  5
227
102
{ACAD_REACTORS
330
223
102
}
100
AcDbXrecord
  1

  0
XRECORD
  5
224
102
{ACAD_REACTORS
330
223
102
}
100
AcDbXrecord
 90
        1
  0
XRECORD
  5
225
102
{ACAD_REACTORS
330
223
102
}
100
AcDbXrecord
 90
       70
  0
XRECORD
  5
23D
102
{ACAD_REACTORS
330
223
102
}
100
AcDbXrecord
340
0
  0
XRECORD
  5
243
102
{ACAD_REACTORS
330
223
102
}
100
AcDbXrecord
 10
0.0
 20
0.0
 30
0.0
  0
XRECORD
  5
23F
102
{ACAD_REACTORS
330
223
102
}
100
AcDbXrecord
 10
0.0
 20
0.0
 30
0.0
  0
XRECORD
  5
242
102
{ACAD_REACTORS
330
223
102
}
100
AcDbXrecord
 10
0.0
 20
0.0
 30
0.0
  0
XRECORD
  5
240
102
{ACAD_REACTORS
330
223
102
}
100
AcDbXrecord
 10
0.0
 20
0.0
 30
0.0
  0
XRECORD
  5
241
102
{ACAD_REACTORS
330
223
102
}
100
AcDbXrecord
 10
0.0
 20
0.0
 30
0.0
  0
XRECORD
  5
23E
102
{ACAD_REACTORS
330
223
102
}
100
AcDbXrecord
 10
0.0
 20
0.0
 30
0.0
  0
XRECORD
  5
23B
102
{ACAD_REACTORS
330
223
102
}
100
AcDbXrecord
340
0
  0
XRECORD
  5
23C
102
{ACAD_REACTORS
330
223
102
}
100
AcDbXrecord
 70
     0
  0
XRECORD
  5
22F
102
{ACAD_REACTORS
330
223
102
}
100
AcDbXrecord
  1
{F88AC519-AB31-4D32-A4CE-D7AE8E910778}
  0
DICTIONARYVAR
  5
24D
102
{ACAD_REACTORS
330
24C
102
}
100
DictionaryVariables
280
     0
  1
1
  0
XRECORD
  5
247
102
{ACAD_REACTORS
330
246
102
}
100
AcDbXrecord
102
EXTNAMES
  1
MODEL
  2
Model
  0
XRECORD
  5
245
102
{ACAD_REACTORS
330
244
102
}
100
AcDbXrecord
102
EXTNAMES
  1
STANDARD
  2
Standard
  0
ENDSEC
  0
EOF
