  0
SECTION
  2
HEADER
  9
$ACADVER
  1
AC1014
  9
$ACADMAINTVER
 70
     0
  9
$DWGCODEPAGE
  3
ANSI_932
  9
$INSBASE
 10
0.0
 20
0.0
 30
0.0
  9
$EXTMIN
 10
91.525919
 20
63.769878
 30
0.0
  9
$EXTMAX
 10
222.655501
 20
138.463871
 30
0.0
  9
$LIMMIN
 10
0.0
 20
0.0
  9
$LIMMAX
 10
297.0
 20
210.0
  9
$ORTHOMODE
 70
     0
  9
$REGENMODE
 70
     1
  9
$FILLMODE
 70
     1
  9
$QTEXTMODE
 70
     0
  9
$MIRRTEXT
 70
     1
  9
$DRAGMODE
 70
     2
  9
$LTSCALE
 40
0.25
  9
$OSMODE
 70
    37
  9
$ATTMODE
 70
     1
  9
$TEXTSIZE
 40
4.0
  9
$TRACEWID
 40
1.0
  9
$TEXTSTYLE
  7
STANDARD
  9
$CLAYER
  8
0
  9
$CELTYPE
  6
BYLAYER
  9
$CECOLOR
 62
   256
  9
$CELTSCALE
 40
1.0
  9
$DELOBJ
 70
     1
  9
$DISPSILH
 70
     0
  9
$DIMSCALE
 40
1.0
  9
$DIMASZ
 40
3.0
  9
$DIMEXO
 40
1.0
  9
$DIMDLI
 40
10.0
  9
$DIMRND
 40
0.0
  9
$DIMDLE
 40
0.0
  9
$DIMEXE
 40
1.0
  9
$DIMTP
 40
0.0
  9
$DIMTM
 40
0.0
  9
$DIMTXT
 40
3.2
  9
$DIMCEN
 40
0.0
  9
$DIMTSZ
 40
0.0
  9
$DIMTOL
 70
     0
  9
$DIMLIM
 70
     0
  9
$DIMTIH
 70
     0
  9
$DIMTOH
 70
     0
  9
$DIMSE1
 70
     0
  9
$DIMSE2
 70
     0
  9
$DIMTAD
 70
     3
  9
$DIMZIN
 70
     8
  9
$DIMBLK
  1
ARROW
  9
$DIMASO
 70
     1
  9
$DIMSHO
 70
     1
  9
$DIMPOST
  1

  9
$DIMAPOST
  1

  9
$DIMALT
 70
     0
  9
$DIMALTD
 70
     2
  9
$DIMALTF
 40
0.04
  9
$DIMLFAC
 40
1.0
  9
$DIMTOFL
 70
     1
  9
$DIMTVP
 40
1.0
  9
$DIMTIX
 70
     0
  9
$DIMSOXD
 70
     0
  9
$DIMSAH
 70
     1
  9
$DIMBLK1
  1
OPEN
  9
$DIMBLK2
  1
OPEN
  9
$DIMSTYLE
  2
AA1
  9
$DIMCLRD
 70
     0
  9
$DIMCLRE
 70
     0
  9
$DIMCLRT
 70
     0
  9
$DIMTFAC
 40
0.6
  9
$DIMGAP
 40
1.0
  9
$DIMJUST
 70
     0
  9
$DIMSD1
 70
     0
  9
$DIMSD2
 70
     0
  9
$DIMTOLJ
 70
     1
  9
$DIMTZIN
 70
     0
  9
$DIMALTZ
 70
     0
  9
$DIMALTTZ
 70
     0
  9
$DIMFIT
 70
     3
  9
$DIMUPT
 70
     0
  9
$DIMUNIT
 70
     2
  9
$DIMDEC
 70
     4
  9
$DIMTDEC
 70
     4
  9
$DIMALTU
 70
     2
  9
$DIMALTTD
 70
     2
  9
$DIMTXSTY
  7
STANDARD
  9
$DIMAUNIT
 70
     0
  9
$LUNITS
 70
     2
  9
$LUPREC
 70
     2
  9
$SKETCHINC
 40
1.0
  9
$FILLETRAD
 40
10.0
  9
$AUNITS
 70
     0
  9
$AUPREC
 70
     0
  9
$MENU
  1
acad
  9
$ELEVATION
 40
0.0
  9
$PELEVATION
 40
0.0
  9
$THICKNESS
 40
0.0
  9
$LIMCHECK
 70
     0
  9
$BLIPMODE
 70
     0
  9
$CHAMFERA
 40
0.0
  9
$CHAMFERB
 40
0.0
  9
$CHAMFERC
 40
0.0
  9
$CHAMFERD
 40
0.0
  9
$SKPOLY
 70
     0
  9
$TDCREATE
 40
2451466.563133680
  9
$TDUPDATE
 40
2452821.767228935
  9
$TDINDWG
 40
0.0001658565
  9
$TDUSRTIMER
 40
0.0001658565
  9
$USRTIMER
 70
     1
  9
$ANGBASE
 50
0.0
  9
$ANGDIR
 70
     0
  9
$PDMODE
 70
     1
  9
$PDSIZE
 40
0.0
  9
$PLINEWID
 40
0.0
  9
$COORDS
 70
     1
  9
$SPLFRAME
 70
     0
  9
$SPLINETYPE
 70
     6
  9
$SPLINESEGS
 70
     8
  9
$ATTDIA
 70
     0
  9
$ATTREQ
 70
     1
  9
$HANDLING
 70
     1
  9
$HANDSEED
  5
25A
  9
$SURFTAB1
 70
     6
  9
$SURFTAB2
 70
     6
  9
$SURFTYPE
 70
     6
  9
$SURFU
 70
     6
  9
$SURFV
 70
     6
  9
$UCSNAME
  2

  9
$UCSORG
 10
0.0
 20
0.0
 30
0.0
  9
$UCSXDIR
 10
1.0
 20
0.0
 30
0.0
  9
$UCSYDIR
 10
0.0
 20
1.0
 30
0.0
  9
$PUCSNAME
  2

  9
$PUCSORG
 10
0.0
 20
0.0
 30
0.0
  9
$PUCSXDIR
 10
1.0
 20
0.0
 30
0.0
  9
$PUCSYDIR
 10
0.0
 20
1.0
 30
0.0
  9
$USERI1
 70
     0
  9
$USERI2
 70
     0
  9
$USERI3
 70
     0
  9
$USERI4
 70
     0
  9
$USERI5
 70
     0
  9
$USERR1
 40
0.0
  9
$USERR2
 40
0.0
  9
$USERR3
 40
0.0
  9
$USERR4
 40
0.0
  9
$USERR5
 40
0.0
  9
$WORLDVIEW
 70
     1
  9
$SHADEDGE
 70
     3
  9
$SHADEDIF
 70
    70
  9
$TILEMODE
 70
     1
  9
$MAXACTVP
 70
    16
  9
$PINSBASE
 10
0.0
 20
0.0
 30
0.0
  9
$PLIMCHECK
 70
     0
  9
$PEXTMIN
 10
1.000000E+20
 20
1.000000E+20
 30
1.000000E+20
  9
$PEXTMAX
 10
-1.000000E+20
 20
-1.000000E+20
 30
-1.000000E+20
  9
$PLIMMIN
 10
0.0
 20
0.0
  9
$PLIMMAX
 10
420.0
 20
297.0
  9
$UNITMODE
 70
     0
  9
$VISRETAIN
 70
     0
  9
$PLINEGEN
 70
     0
  9
$PSLTSCALE
 70
     0
  9
$TREEDEPTH
 70
  3020
  9
$PICKSTYLE
 70
     1
  9
$CMLSTYLE
  2
STANDARD
  9
$CMLJUST
 70
     0
  9
$CMLSCALE
 40
1.0
  9
$PROXYGRAPHICS
 70
     1
  9
$MEASUREMENT
 70
     0
  0
ENDSEC
  0
SECTION
  2
CLASSES
  0
CLASS
  1
ACDBDICTIONARYWDFLT
  2
AcDbDictionaryWithDefault
  3
AutoCAD 2000
 90
        0
280
     0
281
     0
  0
CLASS
  1
ACDBPLACEHOLDER
  2
AcDbPlaceHolder
  3
AutoCAD 2000
 90
        0
280
     0
281
     0
  0
CLASS
  1
LAYOUT
  2
AcDbLayout
  3
AutoCAD 2000
 90
        0
280
     0
281
     0
  0
CLASS
  1
DICTIONARYVAR
  2
AcDbDictionaryVar
  3
"AutoCAD"
 90
        0
280
     0
281
     0
  0
CLASS
  1
LONG_TRANSACTION
  2
AcDbLongTransaction
  3
AutoCAD 2000
 90
        0
280
     0
281
     0
  0
CLASS
  1
LWPOLYLINE
  2
AcDbPolyline
  3
"AutoCAD"
 90
        0
280
     0
281
     1
  0
CLASS
  1
HATCH
  2
AcDbHatch
  3
"ACAD_SEDONA"
 90
        0
280
     0
281
     1
  0
CLASS
  1
XRECORD
  2
AcDbXrecord
  3
"<Built In>"
 90
        0
280
     0
281
     0
  0
ENDSEC
  0
SECTION
  2
TABLES
  0
TABLE
  2
VPORT
  5
111
100
AcDbSymbolTable
 70
     1
  0
VPORT
  5
221
102
{ACAD_XDICTIONARY
360
22A
102
}
100
AcDbSymbolTableRecord
100
AcDbViewportTableRecord
  2
*ACTIVE
 70
     0
 10
0.0
 20
0.0
 11
1.0
 21
1.0
 12
148.500001
 22
157.716653
 13
0.0
 23
0.0
 14
10.0
 24
10.0
 15
0.0
 25
0.0
 16
0.0
 26
0.0
 36
1.0
 17
0.0
 27
0.0
 37
0.0
 40
346.308221
 41
1.530211
 42
50.0
 43
0.0
 44
0.0
 50
0.0
 51
0.0
 71
     0
 72
   100
 73
     1
 74
     0
 75
     0
 76
     0
 77
     0
 78
     1
  0
ENDTAB
  0
TABLE
  2
LTYPE
  5
10E
100
AcDbSymbolTable
 70
     3
  0
LTYPE
  5
11C
102
{ACAD_XDICTIONARY
360
226
102
}
100
AcDbSymbolTableRecord
100
AcDbLinetypeTableRecord
  2
BYBLOCK
 70
     0
  3

 72
    65
 73
     0
 40
0.0
  0
LTYPE
  5
11D
102
{ACAD_XDICTIONARY
360
228
102
}
100
AcDbSymbolTableRecord
100
AcDbLinetypeTableRecord
  2
BYLAYER
 70
     0
  3

 72
    65
 73
     0
 40
0.0
  0
LTYPE
  5
11E
100
AcDbSymbolTableRecord
100
AcDbLinetypeTableRecord
  2
CONTINUOUS
 70
     0
  3
Solid line
 72
    65
 73
     0
 40
0.0
  0
LTYPE
  5
12C
100
AcDbSymbolTableRecord
100
AcDbLinetypeTableRecord
  2
CENTER
 70
     0
  3
____ _ ____ _ ____ _ ____ _ ____ _ ____ _ ____ 
 72
    65
 73
     4
 40
50.8
 49
31.75
 74
     0
 49
-6.35
 74
     0
 49
6.35
 74
     0
 49
-6.35
 74
     0
  0
LTYPE
  5
12D
100
AcDbSymbolTableRecord
100
AcDbLinetypeTableRecord
  2
DASHED
 70
     0
  3
__ __ __ __ __ __ __ __ __ __ __ __ __ __ __ __
 72
    65
 73
     2
 40
0.75
 49
0.5
 74
     0
 49
-0.25
 74
     0
  0
ENDTAB
  0
TABLE
  2
LAYER
  5
10B
100
AcDbSymbolTable
 70
     3
  0
LAYER
  5
119
100
AcDbSymbolTableRecord
100
AcDbLayerTableRecord
  2
0
 70
     0
 62
     7
  6
CONTINUOUS
  0
LAYER
  5
12E
100
AcDbSymbolTableRecord
100
AcDbLayerTableRecord
  2
DIMENSION
 70
     0
 62
    -4
  6
CONTINUOUS
  0
LAYER
  5
12F
100
AcDbSymbolTableRecord
100
AcDbLayerTableRecord
  2
CENTER
 70
     0
 62
     1
  6
CENTER
  0
ENDTAB
  0
TABLE
  2
STYLE
  5
10C
100
AcDbSymbolTable
 70
     1
  0
STYLE
  5
11A
100
AcDbSymbolTableRecord
100
AcDbTextStyleTableRecord
  2
STANDARD
 70
     0
 40
0.0
 41
1.0
 50
0.0
 71
     0
 42
4.0
  3
txt
  4

  0
ENDTAB
  0
TABLE
  2
VIEW
  5
10F
100
AcDbSymbolTable
 70
     0
  0
ENDTAB
  0
TABLE
  2
UCS
  5
110
100
AcDbSymbolTable
 70
     0
  0
ENDTAB
  0
TABLE
  2
APPID
  5
112
100
AcDbSymbolTable
 70
     1
  0
APPID
  5
11B
100
AcDbSymbolTableRecord
100
AcDbRegAppTableRecord
  2
ACAD
 70
     0
  0
ENDTAB
  0
TABLE
  2
DIMSTYLE
  5
113
100
AcDbSymbolTable
 70
     1
  0
DIMSTYLE
105
130
102
{ACAD_XDICTIONARY
360
253
102
}
100
AcDbSymbolTableRecord
100
AcDbDimStyleTableRecord
  2
AA1
 70
     0
  3

  4

  5

  6

  7

 40
1.0
 41
3.0
 42
1.0
 43
10.0
 44
1.0
 45
0.0
 46
0.0
 47
0.0
 48
0.0
140
3.2
141
0.0
142
0.0
143
0.04
144
1.0
145
1.0
146
0.6
147
0.0
 71
     0
 72
     0
 73
     0
 74
     0
 75
     0
 76
     0
 77
     0
 78
     8
170
     0
171
     2
172
     1
173
     0
174
     0
175
     0
176
     0
177
     0
178
     0
270
     2
271
     2
272
     2
273
     2
274
     2
340
11A
275
     0
280
     0
281
     0
282
     0
283
     1
284
     8
285
     8
286
     8
287
     5
288
     0
  0
ENDTAB
  0
TABLE
  2
BLOCK_RECORD
  5
10A
100
AcDbSymbolTable
 70
     4
  0
BLOCK_RECORD
  5
127
102
{ACAD_XDICTIONARY
360
222
102
}
100
AcDbSymbolTableRecord
100
AcDbBlockTableRecord
  2
*MODEL_SPACE
  0
BLOCK_RECORD
  5
123
102
{ACAD_XDICTIONARY
360
224
102
}
100
AcDbSymbolTableRecord
100
AcDbBlockTableRecord
  2
*PAPER_SPACE
  0
BLOCK_RECORD
  5
132
100
AcDbSymbolTableRecord
100
AcDbBlockTableRecord
  2
$MODEL_SPACE
  0
BLOCK_RECORD
  5
135
100
AcDbSymbolTableRecord
100
AcDbBlockTableRecord
  2
$PAPER_SPACE
  0
BLOCK_RECORD
  5
138
100
AcDbSymbolTableRecord
100
AcDbBlockTableRecord
  2
ARROW
  0
BLOCK_RECORD
  5
13E
100
AcDbSymbolTableRecord
100
AcDbBlockTableRecord
  2
_OPEN
  0
ENDTAB
  0
ENDSEC
  0
SECTION
  2
BLOCKS
  0
BLOCK
  5
128
100
AcDbEntity
  8
0
100
AcDbBlockBegin
  2
*MODEL_SPACE
 70
     0
 10
0.0
 20
0.0
 30
0.0
  3
*MODEL_SPACE
  1

  0
ENDBLK
  5
129
100
AcDbEntity
  8
0
100
AcDbBlockEnd
  0
BLOCK
  5
124
100
AcDbEntity
 67
     1
  8
0
100
AcDbBlockBegin
  2
*PAPER_SPACE
 70
     0
 10
0.0
 20
0.0
 30
0.0
  3
*PAPER_SPACE
  1

  0
ENDBLK
  5
125
100
AcDbEntity
 67
     1
  8
0
100
AcDbBlockEnd
  0
BLOCK
  5
133
100
AcDbEntity
  8
0
100
AcDbBlockBegin
  2
$MODEL_SPACE
 70
     0
 10
0.0
 20
0.0
 30
0.0
  3
$MODEL_SPACE
  1

  0
ENDBLK
  5
134
100
AcDbEntity
  8
0
100
AcDbBlockEnd
  0
BLOCK
  5
136
100
AcDbEntity
  8
0
100
AcDbBlockBegin
  2
$PAPER_SPACE
 70
     0
 10
0.0
 20
0.0
 30
0.0
  3
$PAPER_SPACE
  1

  0
ENDBLK
  5
137
100
AcDbEntity
  8
0
100
AcDbBlockEnd
  0
BLOCK
  5
139
100
AcDbEntity
  8
0
100
AcDbBlockBegin
  2
ARROW
 70
     0
 10
0.0
 20
0.0
 30
0.0
  3
ARROW
  1

  0
LINE
  5
13A
100
AcDbEntity
  8
DIMENSION
100
AcDbLine
 10
0.0
 20
0.0
 30
0.0
 11
-1.0
 21
0.176327
 31
0.0
  0
LINE
  5
13B
100
AcDbEntity
  8
DIMENSION
100
AcDbLine
 10
0.0
 20
0.0
 30
0.0
 11
-1.0
 21
-0.176327
 31
0.0
  0
LINE
  5
13C
100
AcDbEntity
  8
DIMENSION
100
AcDbLine
 10
-1.0
 20
0.0
 30
0.0
 11
0.0
 21
0.0
 31
0.0
  0
ENDBLK
  5
13D
100
AcDbEntity
  8
0
100
AcDbBlockEnd
  0
BLOCK
  5
13F
100
AcDbEntity
  8
0
100
AcDbBlockBegin
  2
_OPEN
 70
     0
 10
0.0
 20
0.0
 30
0.0
  3
_OPEN
  1

  0
LINE
  5
140
100
AcDbEntity
  8
0
  6
BYBLOCK
 62
     0
100
AcDbLine
 10
-1.0
 20
0.166667
 30
0.0
 11
0.0
 21
0.0
 31
0.0
  0
LINE
  5
141
100
AcDbEntity
  8
0
  6
BYBLOCK
 62
     0
100
AcDbLine
 10
0.0
 20
0.0
 30
0.0
 11
-1.0
 21
-0.166667
 31
0.0
  0
LINE
  5
142
100
AcDbEntity
  8
0
  6
BYBLOCK
 62
     0
100
AcDbLine
 10
0.0
 20
0.0
 30
0.0
 11
-1.0
 21
0.0
 31
0.0
  0
ENDBLK
  5
143
100
AcDbEntity
  8
0
100
AcDbBlockEnd
  0
ENDSEC
  0
SECTION
  2
ENTITIES
  0
LINE
  5
144
100
AcDbEntity
  8
CENTER
  6
CENTER
 62
     1
100
AcDbLine
 10
147.961509
 20
101.116875
 30
0.0
 11
222.655501
 21
101.116875
 31
0.0
  0
LINE
  5
145
100
AcDbEntity
  8
0
100
AcDbLine
 10
94.525919
 20
84.616875
 30
0.0
 11
94.525919
 21
117.616875
 31
0.0
  0
LINE
  5
146
100
AcDbEntity
  8
0
100
AcDbLine
 10
107.275919
 20
82.616875
 30
0.0
 11
107.275919
 21
119.616875
 31
0.0
  0
LINE
  5
147
100
AcDbEntity
  8
0
100
AcDbLine
 10
105.525919
 20
82.616875
 30
0.0
 11
105.525919
 21
119.616875
 31
0.0
  0
LINE
  5
148
100
AcDbEntity
  8
0
100
AcDbLine
 10
109.525919
 20
133.116875
 30
0.0
 11
109.525919
 21
69.116875
 31
0.0
  0
LINE
  5
149
100
AcDbEntity
  8
0
100
AcDbLine
 10
92.525919
 20
122.116875
 30
0.0
 11
92.525919
 21
80.116875
 31
0.0
  0
LINE
  5
14C
100
AcDbEntity
  8
CENTER
  6
CENTER
 62
     1
100
AcDbLine
 10
110.525919
 20
101.116875
 30
0.0
 11
91.525919
 21
101.116875
 31
0.0
  0
LINE
  5
14D
100
AcDbEntity
  8
CENTER
  6
CENTER
 62
     1
100
AcDbLine
 10
110.525919
 20
75.116875
 30
0.0
 11
91.525919
 21
75.116875
 31
0.0
  0
LINE
  5
14E
100
AcDbEntity
  8
0
100
AcDbLine
 10
104.125919
 20
77.716875
 30
0.0
 11
94.525919
 21
77.716875
 31
0.0
  0
LINE
  5
14F
100
AcDbEntity
  8
0
 62
     3
100
AcDbLine
 10
104.125919
 20
78.116875
 30
0.0
 11
94.525919
 21
78.116875
 31
0.0
  0
LINE
  5
150
100
AcDbEntity
  8
0
 62
     3
100
AcDbLine
 10
104.125919
 20
72.116875
 30
0.0
 11
94.525919
 21
72.116875
 31
0.0
  0
LINE
  5
151
100
AcDbEntity
  8
0
100
AcDbLine
 10
104.125919
 20
72.516875
 30
0.0
 11
94.525919
 21
72.516875
 31
0.0
  0
LINE
  5
152
100
AcDbEntity
  8
0
100
AcDbLine
 10
109.525919
 20
69.116875
 30
0.0
 11
94.525919
 21
69.116875
 31
0.0
  0
LINE
  5
153
100
AcDbEntity
  8
0
100
AcDbLine
 10
95.525919
 20
83.616875
 30
0.0
 11
105.525919
 21
83.616875
 31
0.0
  0
LINE
  5
154
100
AcDbEntity
  8
0
100
AcDbLine
 10
95.525919
 20
93.616875
 30
0.0
 11
104.525919
 21
93.616875
 31
0.0
  0
CIRCLE
  5
155
100
AcDbEntity
  8
0
100
AcDbCircle
 10
100.025919
 20
88.616875
 30
0.0
 40
3.175
  0
LINE
  5
156
100
AcDbEntity
  8
0
100
AcDbLine
 10
94.525919
 20
69.116875
 30
0.0
 11
94.525919
 21
80.116875
 31
0.0
  0
LINE
  5
157
100
AcDbEntity
  8
0
100
AcDbLine
 10
94.867919
 20
87.992875
 30
0.0
 11
94.867919
 21
90.666895
 31
0.0
  0
LINE
  5
158
100
AcDbEntity
  8
0
100
AcDbLine
 10
95.167919
 20
88.116835
 30
0.0
 11
95.167919
 21
90.666895
 31
0.0
  0
LINE
  5
159
100
AcDbEntity
  8
0
100
AcDbLine
 10
94.525919
 20
80.116875
 30
0.0
 11
92.525919
 21
80.116875
 31
0.0
  0
ARC
  5
15A
100
AcDbEntity
  8
0
100
AcDbCircle
 10
96.497194
 20
86.466895
 30
0.0
 40
0.2
100
AcDbArc
 50
90.0
 51
174.934977
  0
LINE
  5
15B
100
AcDbEntity
  8
0
100
AcDbLine
 10
96.211865
 20
85.513015
 30
0.0
 11
96.297975
 21
86.484552
 31
0.0
  0
ARC
  5
15C
100
AcDbEntity
  8
0
100
AcDbCircle
 10
95.713818
 20
85.557158
 30
0.0
 40
0.5
100
AcDbArc
 50
215.064447
 51
354.934977
  0
ARC
  5
15D
100
AcDbEntity
  8
0
100
AcDbCircle
 10
95.525919
 20
84.616875
 30
0.0
 40
1.0
100
AcDbArc
 50
180.0
 51
270.0
  0
LINE
  5
15E
100
AcDbEntity
  8
0
100
AcDbLine
 10
94.525919
 20
86.616875
 30
0.0
 11
92.525919
 21
86.616875
 31
0.0
  0
LINE
  5
15F
100
AcDbEntity
  8
0
100
AcDbLine
 10
96.267919
 20
86.145895
 30
0.0
 11
96.267919
 21
87.016845
 31
0.0
  0
ARC
  5
160
100
AcDbEntity
  8
0
100
AcDbCircle
 10
95.717861
 20
85.551696
 30
0.0
 40
0.2
100
AcDbArc
 50
215.063255
 51
357.86882
  0
LINE
  5
161
100
AcDbEntity
  8
0
100
AcDbLine
 10
95.917723
 20
85.544259
 30
0.0
 11
95.96791
 21
86.892884
 31
0.0
  0
ARC
  5
162
100
AcDbEntity
  8
0
100
AcDbCircle
 10
94.725919
 20
85.466895
 30
0.0
 40
0.2
100
AcDbArc
 50
90.0
 51
180.0
  0
LINE
  5
163
100
AcDbEntity
  8
0
100
AcDbLine
 10
94.725919
 20
85.666895
 30
0.0
 11
95.025926
 21
85.666895
 31
0.0
  0
LINE
  5
164
100
AcDbEntity
  8
0
100
AcDbLine
 10
95.025811
 20
85.667059
 30
0.0
 11
95.304564
 21
85.269909
 31
0.0
  0
ARC
  5
165
100
AcDbEntity
  8
0
100
AcDbCircle
 10
95.271363
 20
85.839408
 30
0.0
 40
0.3
100
AcDbArc
 50
124.96231
 51
215.064447
  0
LINE
  5
166
100
AcDbEntity
  8
0
100
AcDbLine
 10
95.344953
 20
86.256929
 30
0.0
 11
95.099451
 21
86.085267
 31
0.0
  0
LINE
  5
167
100
AcDbEntity
  8
0
100
AcDbLine
 10
95.516963
 20
86.011906
 30
0.0
 11
95.27194
 21
85.838903
 31
0.0
  0
LINE
  5
168
100
AcDbEntity
  8
0
100
AcDbLine
 10
95.344953
 20
86.256929
 30
0.0
 11
95.516963
 21
86.011906
 31
0.0
  0
LINE
  5
169
100
AcDbEntity
  8
0
100
AcDbLine
 10
95.96791
 20
86.892884
 30
0.0
 11
94.867919
 21
87.992875
 31
0.0
  0
LINE
  5
16A
100
AcDbEntity
  8
0
100
AcDbLine
 10
96.267919
 20
87.016845
 30
0.0
 11
95.167919
 21
88.116835
 31
0.0
  0
LINE
  5
16B
100
AcDbEntity
  8
0
100
AcDbLine
 10
95.27194
 20
85.838903
 30
0.0
 11
95.554158
 21
85.4368
 31
0.0
  0
LINE
  5
16C
100
AcDbEntity
  8
0
100
AcDbLine
 10
96.497194
 20
86.666895
 30
0.0
 11
97.520299
 21
86.666895
 31
0.0
  0
ARC
  5
16D
100
AcDbEntity
  8
0
100
AcDbCircle
 10
96.47101
 20
90.766885
 30
0.0
 40
0.2
100
AcDbArc
 50
200.029669
 51
270.0
  0
ARC
  5
16E
100
AcDbEntity
  8
0
100
AcDbCircle
 10
95.525919
 20
92.616875
 30
0.0
 40
1.0
100
AcDbArc
 50
90.0
 51
180.0
  0
LINE
  5
16F
100
AcDbEntity
  8
0
100
AcDbLine
 10
95.95974
 20
91.585396
 30
0.0
 11
96.283106
 21
90.698383
 31
0.0
  0
ARC
  5
170
100
AcDbEntity
  8
0
100
AcDbCircle
 10
95.771837
 20
91.516895
 30
0.0
 40
0.2
100
AcDbArc
 50
20.029669
 51
90.0
  0
LINE
  5
171
100
AcDbEntity
  8
0
100
AcDbLine
 10
95.596742
 20
91.716895
 30
0.0
 11
95.771837
 21
91.716895
 31
0.0
  0
LINE
  5
172
100
AcDbEntity
  8
0
100
AcDbLine
 10
95.687919
 20
90.966895
 30
0.0
 11
95.687919
 21
90.666895
 31
0.0
  0
ARC
  5
173
100
AcDbEntity
  8
0
100
AcDbCircle
 10
94.725919
 20
91.466885
 30
0.0
 40
0.2
100
AcDbArc
 50
180.0
 51
270.0
  0
LINE
  5
174
100
AcDbEntity
  8
0
100
AcDbLine
 10
95.125911
 20
91.266885
 30
0.0
 11
95.443526
 21
91.645444
 31
0.0
  0
ARC
  5
175
100
AcDbEntity
  8
0
100
AcDbCircle
 10
95.167919
 20
90.666895
 30
0.0
 40
0.3
100
AcDbArc
 50
90.0
 51
180.0
  0
LINE
  5
176
100
AcDbEntity
  8
0
100
AcDbLine
 10
94.725919
 20
91.266885
 30
0.0
 11
95.125911
 21
91.266885
 31
0.0
  0
ARC
  5
177
100
AcDbEntity
  8
0
100
AcDbCircle
 10
95.596742
 20
91.516895
 30
0.0
 40
0.2
100
AcDbArc
 50
90.0
 51
140.00301
  0
LINE
  5
178
100
AcDbEntity
  8
0
100
AcDbLine
 10
95.167919
 20
90.966895
 30
0.0
 11
95.687919
 21
90.966895
 31
0.0
  0
LINE
  5
179
100
AcDbEntity
  8
0
100
AcDbLine
 10
95.687919
 20
90.666895
 30
0.0
 11
95.167919
 21
90.666895
 31
0.0
  0
LINE
  5
17A
100
AcDbEntity
  8
0
100
AcDbLine
 10
96.47101
 20
90.566885
 30
0.0
 11
97.520308
 21
90.566885
 31
0.0
  0
LINE
  5
17B
100
AcDbEntity
  8
0
100
AcDbLine
 10
104.125919
 20
70.366875
 30
0.0
 11
104.125919
 21
79.866875
 31
0.0
  0
LINE
  5
17C
100
AcDbEntity
  8
0
100
AcDbLine
 10
109.525919
 20
70.366875
 30
0.0
 11
104.125919
 21
70.366875
 31
0.0
  0
LINE
  5
17D
100
AcDbEntity
  8
0
100
AcDbLine
 10
104.883919
 20
88.116835
 30
0.0
 11
104.883919
 21
90.666895
 31
0.0
  0
LINE
  5
17E
100
AcDbEntity
  8
0
100
AcDbLine
 10
105.183919
 20
87.992875
 30
0.0
 11
105.183919
 21
90.666895
 31
0.0
  0
LINE
  5
17F
100
AcDbEntity
  8
0
100
AcDbLine
 10
109.525919
 20
79.866875
 30
0.0
 11
104.125919
 21
79.866875
 31
0.0
  0
LINE
  5
180
100
AcDbEntity
  8
0
100
AcDbLine
 10
109.525919
 20
83.616875
 30
0.0
 11
107.275919
 21
83.616875
 31
0.0
  0
ARC
  5
181
100
AcDbEntity
  8
0
100
AcDbCircle
 10
104.525919
 20
84.616875
 30
0.0
 40
1.0
100
AcDbArc
 50
270.0
 51
360.0
  0
LINE
  5
182
100
AcDbEntity
  8
0
100
AcDbLine
 10
107.275919
 20
82.616875
 30
0.0
 11
105.525919
 21
82.616875
 31
0.0
  0
LINE
  5
183
100
AcDbEntity
  8
0
100
AcDbLine
 10
104.083928
 20
86.892884
 30
0.0
 11
105.183919
 21
87.992875
 31
0.0
  0
LINE
  5
184
100
AcDbEntity
  8
0
100
AcDbLine
 10
105.026027
 20
85.667059
 30
0.0
 11
104.747274
 21
85.269909
 31
0.0
  0
ARC
  5
185
100
AcDbEntity
  8
0
100
AcDbCircle
 10
104.780475
 20
85.839408
 30
0.0
 40
0.3
100
AcDbArc
 50
324.935553
 51
55.03769
  0
LINE
  5
186
100
AcDbEntity
  8
0
100
AcDbLine
 10
103.783919
 20
87.016845
 30
0.0
 11
104.883919
 21
88.116835
 31
0.0
  0
LINE
  5
187
100
AcDbEntity
  8
0
100
AcDbLine
 10
104.534875
 20
86.011906
 30
0.0
 11
104.779898
 21
85.838903
 31
0.0
  0
LINE
  5
188
100
AcDbEntity
  8
0
100
AcDbLine
 10
104.706885
 20
86.256929
 30
0.0
 11
104.952387
 21
86.085267
 31
0.0
  0
LINE
  5
189
100
AcDbEntity
  8
0
100
AcDbLine
 10
104.779898
 20
85.838903
 30
0.0
 11
104.49768
 21
85.4368
 31
0.0
  0
LINE
  5
18A
100
AcDbEntity
  8
0
100
AcDbLine
 10
103.783919
 20
86.145895
 30
0.0
 11
103.783919
 21
87.016845
 31
0.0
  0
ARC
  5
18B
100
AcDbEntity
  8
0
100
AcDbCircle
 10
103.554644
 20
86.466895
 30
0.0
 40
0.2
100
AcDbArc
 50
5.065023
 51
90.0
  0
LINE
  5
18C
100
AcDbEntity
  8
0
100
AcDbLine
 10
104.706885
 20
86.256929
 30
0.0
 11
104.534875
 21
86.011906
 31
0.0
  0
ARC
  5
18D
100
AcDbEntity
  8
0
100
AcDbCircle
 10
104.338021
 20
85.557158
 30
0.0
 40
0.5
100
AcDbArc
 50
185.065023
 51
324.935553
  0
ARC
  5
18E
100
AcDbEntity
  8
0
100
AcDbCircle
 10
104.333977
 20
85.551696
 30
0.0
 40
0.2
100
AcDbArc
 50
182.13118
 51
324.936745
  0
LINE
  5
18F
100
AcDbEntity
  8
0
100
AcDbLine
 10
104.134115
 20
85.544259
 30
0.0
 11
104.083928
 21
86.892884
 31
0.0
  0
LINE
  5
190
100
AcDbEntity
  8
0
100
AcDbLine
 10
103.839973
 20
85.513015
 30
0.0
 11
103.753863
 21
86.484552
 31
0.0
  0
LINE
  5
191
100
AcDbEntity
  8
0
100
AcDbLine
 10
103.554644
 20
86.666895
 30
0.0
 11
102.531539
 21
86.666895
 31
0.0
  0
LINE
  5
192
100
AcDbEntity
  8
0
100
AcDbLine
 10
105.325919
 20
85.666895
 30
0.0
 11
105.025912
 21
85.666895
 31
0.0
  0
ARC
  5
193
100
AcDbEntity
  8
0
100
AcDbCircle
 10
105.325919
 20
85.466895
 30
0.0
 40
0.2
100
AcDbArc
 50
0.0
 51
90.0
  0
LINE
  5
194
100
AcDbEntity
  8
0
100
AcDbLine
 10
107.275919
 20
86.116875
 30
0.0
 11
105.525919
 21
86.116875
 31
0.0
  0
ARC
  5
195
100
AcDbEntity
  8
0
100
AcDbCircle
 10
104.525919
 20
92.616875
 30
0.0
 40
1.0
100
AcDbArc
 50
360.0
 51
90.0
  0
LINE
  5
196
100
AcDbEntity
  8
0
100
AcDbLine
 10
105.325919
 20
91.266885
 30
0.0
 11
104.925927
 21
91.266885
 31
0.0
  0
ARC
  5
197
100
AcDbEntity
  8
0
100
AcDbCircle
 10
104.883919
 20
90.666895
 30
0.0
 40
0.3
100
AcDbArc
 50
0.0
 51
90.0
  0
LINE
  5
198
100
AcDbEntity
  8
0
100
AcDbLine
 10
104.363919
 20
90.666895
 30
0.0
 11
104.883919
 21
90.666895
 31
0.0
  0
LINE
  5
199
100
AcDbEntity
  8
0
100
AcDbLine
 10
104.883919
 20
90.966895
 30
0.0
 11
104.363919
 21
90.966895
 31
0.0
  0
LINE
  5
19A
100
AcDbEntity
  8
0
100
AcDbLine
 10
104.925927
 20
91.266885
 30
0.0
 11
104.608312
 21
91.645444
 31
0.0
  0
ARC
  5
19B
100
AcDbEntity
  8
0
100
AcDbCircle
 10
103.580829
 20
90.766885
 30
0.0
 40
0.2
100
AcDbArc
 50
270.0
 51
339.970331
  0
LINE
  5
19C
100
AcDbEntity
  8
0
100
AcDbLine
 10
104.363919
 20
90.966895
 30
0.0
 11
104.363919
 21
90.666895
 31
0.0
  0
ARC
  5
19D
100
AcDbEntity
  8
0
100
AcDbCircle
 10
104.455097
 20
91.516895
 30
0.0
 40
0.2
100
AcDbArc
 50
39.99699
 51
90.0
  0
LINE
  5
19E
100
AcDbEntity
  8
0
100
AcDbLine
 10
104.455097
 20
91.716895
 30
0.0
 11
104.280001
 21
91.716895
 31
0.0
  0
ARC
  5
19F
100
AcDbEntity
  8
0
100
AcDbCircle
 10
104.280001
 20
91.516895
 30
0.0
 40
0.2
100
AcDbArc
 50
90.0
 51
159.970331
  0
LINE
  5
1A0
100
AcDbEntity
  8
0
100
AcDbLine
 10
104.092098
 20
91.585396
 30
0.0
 11
103.768732
 21
90.698383
 31
0.0
  0
LINE
  5
1A1
100
AcDbEntity
  8
0
100
AcDbLine
 10
103.580829
 20
90.566885
 30
0.0
 11
102.53153
 21
90.566885
 31
0.0
  0
ARC
  5
1A2
100
AcDbEntity
  8
0
100
AcDbCircle
 10
105.325919
 20
91.466885
 30
0.0
 40
0.2
100
AcDbArc
 50
270.0
 51
0.0
  0
LINE
  5
1A3
100
AcDbEntity
  8
CENTER
  6
CENTER
 62
     1
100
AcDbLine
 10
110.525919
 20
127.116875
 30
0.0
 11
91.525919
 21
127.116875
 31
0.0
  0
LINE
  5
1A4
100
AcDbEntity
  8
0
100
AcDbLine
 10
95.525919
 20
118.616875
 30
0.0
 11
105.525919
 21
118.616875
 31
0.0
  0
LINE
  5
1A5
100
AcDbEntity
  8
0
100
AcDbLine
 10
95.525919
 20
108.616875
 30
0.0
 11
104.525919
 21
108.616875
 31
0.0
  0
CIRCLE
  5
1A6
100
AcDbEntity
  8
0
100
AcDbCircle
 10
100.025919
 20
113.616875
 30
0.0
 40
3.175
  0
LINE
  5
1A7
100
AcDbEntity
  8
0
 62
     3
100
AcDbLine
 10
104.125919
 20
130.116875
 30
0.0
 11
94.525919
 21
130.116875
 31
0.0
  0
LINE
  5
1A8
100
AcDbEntity
  8
0
100
AcDbLine
 10
104.125919
 20
129.716875
 30
0.0
 11
94.525919
 21
129.716875
 31
0.0
  0
LINE
  5
1A9
100
AcDbEntity
  8
0
100
AcDbLine
 10
104.125919
 20
124.516875
 30
0.0
 11
94.525919
 21
124.516875
 31
0.0
  0
LINE
  5
1AA
100
AcDbEntity
  8
0
 62
     3
100
AcDbLine
 10
104.125919
 20
124.116875
 30
0.0
 11
94.525919
 21
124.116875
 31
0.0
  0
LINE
  5
1AB
100
AcDbEntity
  8
0
100
AcDbLine
 10
109.525919
 20
133.116875
 30
0.0
 11
94.525919
 21
133.116875
 31
0.0
  0
LINE
  5
1AC
100
AcDbEntity
  8
0
100
AcDbLine
 10
95.167919
 20
114.116915
 30
0.0
 11
95.167919
 21
111.566855
 31
0.0
  0
LINE
  5
1AD
100
AcDbEntity
  8
0
100
AcDbLine
 10
94.867919
 20
114.240875
 30
0.0
 11
94.867919
 21
111.566855
 31
0.0
  0
ARC
  5
1AE
100
AcDbEntity
  8
0
100
AcDbCircle
 10
96.47101
 20
111.466865
 30
0.0
 40
0.2
100
AcDbArc
 50
90.0
 51
159.970331
  0
ARC
  5
1AF
100
AcDbEntity
  8
0
100
AcDbCircle
 10
95.525919
 20
109.616875
 30
0.0
 40
1.0
100
AcDbArc
 50
180.0
 51
270.0
  0
LINE
  5
1B0
100
AcDbEntity
  8
0
100
AcDbLine
 10
95.687919
 20
111.266855
 30
0.0
 11
95.687919
 21
111.566855
 31
0.0
  0
LINE
  5
1B1
100
AcDbEntity
  8
0
100
AcDbLine
 10
95.596742
 20
110.516855
 30
0.0
 11
95.771837
 21
110.516855
 31
0.0
  0
ARC
  5
1B2
100
AcDbEntity
  8
0
100
AcDbCircle
 10
95.771837
 20
110.716855
 30
0.0
 40
0.2
100
AcDbArc
 50
270.0
 51
339.970331
  0
LINE
  5
1B3
100
AcDbEntity
  8
0
100
AcDbLine
 10
95.95974
 20
110.648353
 30
0.0
 11
96.283106
 21
111.535366
 31
0.0
  0
LINE
  5
1B4
100
AcDbEntity
  8
0
100
AcDbLine
 10
94.725919
 20
110.966865
 30
0.0
 11
95.125911
 21
110.966865
 31
0.0
  0
ARC
  5
1B5
100
AcDbEntity
  8
0
100
AcDbCircle
 10
95.167919
 20
111.566855
 30
0.0
 40
0.3
100
AcDbArc
 50
180.0
 51
270.0
  0
LINE
  5
1B6
100
AcDbEntity
  8
0
100
AcDbLine
 10
95.125911
 20
110.966865
 30
0.0
 11
95.443526
 21
110.588305
 31
0.0
  0
LINE
  5
1B7
100
AcDbEntity
  8
0
100
AcDbLine
 10
95.687919
 20
111.566855
 30
0.0
 11
95.167919
 21
111.566855
 31
0.0
  0
LINE
  5
1B8
100
AcDbEntity
  8
0
100
AcDbLine
 10
95.167919
 20
111.266855
 30
0.0
 11
95.687919
 21
111.266855
 31
0.0
  0
ARC
  5
1B9
100
AcDbEntity
  8
0
100
AcDbCircle
 10
95.596742
 20
110.716855
 30
0.0
 40
0.2
100
AcDbArc
 50
219.99699
 51
270.0
  0
ARC
  5
1BA
100
AcDbEntity
  8
0
100
AcDbCircle
 10
94.725919
 20
110.766865
 30
0.0
 40
0.2
100
AcDbArc
 50
90.0
 51
180.0
  0
LINE
  5
1BB
100
AcDbEntity
  8
0
100
AcDbLine
 10
96.47101
 20
111.666865
 30
0.0
 11
97.520308
 21
111.666865
 31
0.0
  0
LINE
  5
1BC
100
AcDbEntity
  8
0
100
AcDbLine
 10
96.211865
 20
116.720735
 30
0.0
 11
96.297975
 21
115.749197
 31
0.0
  0
ARC
  5
1BD
100
AcDbEntity
  8
0
100
AcDbCircle
 10
96.497194
 20
115.766855
 30
0.0
 40
0.2
100
AcDbArc
 50
185.065023
 51
270.0
  0
ARC
  5
1BE
100
AcDbEntity
  8
0
100
AcDbCircle
 10
95.713818
 20
116.676591
 30
0.0
 40
0.5
100
AcDbArc
 50
5.065023
 51
144.935553
  0
LINE
  5
1BF
100
AcDbEntity
  8
0
100
AcDbLine
 10
94.525919
 20
115.616875
 30
0.0
 11
92.525919
 21
115.616875
 31
0.0
  0
LINE
  5
1C0
100
AcDbEntity
  8
0
100
AcDbLine
 10
95.917723
 20
116.689491
 30
0.0
 11
95.96791
 21
115.340865
 31
0.0
  0
ARC
  5
1C1
100
AcDbEntity
  8
0
100
AcDbCircle
 10
95.717861
 20
116.682053
 30
0.0
 40
0.2
100
AcDbArc
 50
2.13118
 51
144.936745
  0
LINE
  5
1C2
100
AcDbEntity
  8
0
100
AcDbLine
 10
95.344953
 20
115.976821
 30
0.0
 11
95.516963
 21
116.221843
 31
0.0
  0
LINE
  5
1C3
100
AcDbEntity
  8
0
100
AcDbLine
 10
95.516963
 20
116.221843
 30
0.0
 11
95.27194
 21
116.394847
 31
0.0
  0
LINE
  5
1C4
100
AcDbEntity
  8
0
100
AcDbLine
 10
95.344953
 20
115.976821
 30
0.0
 11
95.099451
 21
116.148482
 31
0.0
  0
ARC
  5
1C5
100
AcDbEntity
  8
0
100
AcDbCircle
 10
95.271363
 20
116.394341
 30
0.0
 40
0.3
100
AcDbArc
 50
144.935553
 51
235.03769
  0
LINE
  5
1C6
100
AcDbEntity
  8
0
100
AcDbLine
 10
95.025811
 20
116.56669
 30
0.0
 11
95.304564
 21
116.96384
 31
0.0
  0
LINE
  5
1C7
100
AcDbEntity
  8
0
100
AcDbLine
 10
94.725919
 20
116.566855
 30
0.0
 11
95.025926
 21
116.566855
 31
0.0
  0
LINE
  5
1C8
100
AcDbEntity
  8
0
100
AcDbLine
 10
95.27194
 20
116.394847
 30
0.0
 11
95.554158
 21
116.796949
 31
0.0
  0
LINE
  5
1C9
100
AcDbEntity
  8
0
100
AcDbLine
 10
96.267919
 20
115.216905
 30
0.0
 11
95.167919
 21
114.116915
 31
0.0
  0
LINE
  5
1CA
100
AcDbEntity
  8
0
100
AcDbLine
 10
96.267919
 20
116.087855
 30
0.0
 11
96.267919
 21
115.216905
 31
0.0
  0
LINE
  5
1CB
100
AcDbEntity
  8
0
100
AcDbLine
 10
95.96791
 20
115.340865
 30
0.0
 11
94.867919
 21
114.240875
 31
0.0
  0
ARC
  5
1CC
100
AcDbEntity
  8
0
100
AcDbCircle
 10
94.725919
 20
116.766855
 30
0.0
 40
0.2
100
AcDbArc
 50
180.0
 51
270.0
  0
ARC
  5
1CD
100
AcDbEntity
  8
0
100
AcDbCircle
 10
95.525919
 20
117.616875
 30
0.0
 40
1.0
100
AcDbArc
 50
90.0
 51
180.0
  0
LINE
  5
1CE
100
AcDbEntity
  8
0
100
AcDbLine
 10
96.497194
 20
115.566855
 30
0.0
 11
97.520299
 21
115.566855
 31
0.0
  0
LINE
  5
1CF
100
AcDbEntity
  8
0
100
AcDbLine
 10
94.525919
 20
133.116875
 30
0.0
 11
94.525919
 21
122.116875
 31
0.0
  0
LINE
  5
1D0
100
AcDbEntity
  8
0
100
AcDbLine
 10
94.525919
 20
122.116875
 30
0.0
 11
92.525919
 21
122.116875
 31
0.0
  0
LINE
  5
1D1
100
AcDbEntity
  8
0
100
AcDbLine
 10
102.025919
 20
133.116875
 30
0.0
 11
102.026019
 21
133.116875
 31
0.0
  0
LINE
  5
1D2
100
AcDbEntity
  8
0
100
AcDbLine
 10
105.183919
 20
114.240875
 30
0.0
 11
105.183919
 21
111.566855
 31
0.0
  0
LINE
  5
1D3
100
AcDbEntity
  8
0
100
AcDbLine
 10
104.883919
 20
114.116915
 30
0.0
 11
104.883919
 21
111.566855
 31
0.0
  0
ARC
  5
1D4
100
AcDbEntity
  8
0
100
AcDbCircle
 10
104.525919
 20
109.616875
 30
0.0
 40
1.0
100
AcDbArc
 50
270.0
 51
0.0
  0
ARC
  5
1D5
100
AcDbEntity
  8
0
100
AcDbCircle
 10
104.883919
 20
111.566855
 30
0.0
 40
0.3
100
AcDbArc
 50
270.0
 51
0.0
  0
LINE
  5
1D6
100
AcDbEntity
  8
0
100
AcDbLine
 10
105.325919
 20
110.966865
 30
0.0
 11
104.925927
 21
110.966865
 31
0.0
  0
LINE
  5
1D7
100
AcDbEntity
  8
0
100
AcDbLine
 10
104.092098
 20
110.648353
 30
0.0
 11
103.768732
 21
111.535366
 31
0.0
  0
ARC
  5
1D8
100
AcDbEntity
  8
0
100
AcDbCircle
 10
104.280001
 20
110.716855
 30
0.0
 40
0.2
100
AcDbArc
 50
200.029669
 51
270.0
  0
LINE
  5
1D9
100
AcDbEntity
  8
0
100
AcDbLine
 10
104.455097
 20
110.516855
 30
0.0
 11
104.280001
 21
110.516855
 31
0.0
  0
ARC
  5
1DA
100
AcDbEntity
  8
0
100
AcDbCircle
 10
104.455097
 20
110.716855
 30
0.0
 40
0.2
100
AcDbArc
 50
270.0
 51
320.00301
  0
LINE
  5
1DB
100
AcDbEntity
  8
0
100
AcDbLine
 10
104.363919
 20
111.266855
 30
0.0
 11
104.363919
 21
111.566855
 31
0.0
  0
ARC
  5
1DC
100
AcDbEntity
  8
0
100
AcDbCircle
 10
103.580829
 20
111.466865
 30
0.0
 40
0.2
100
AcDbArc
 50
20.029669
 51
90.0
  0
LINE
  5
1DD
100
AcDbEntity
  8
0
100
AcDbLine
 10
104.925927
 20
110.966865
 30
0.0
 11
104.608312
 21
110.588305
 31
0.0
  0
LINE
  5
1DE
100
AcDbEntity
  8
0
100
AcDbLine
 10
104.883919
 20
111.266855
 30
0.0
 11
104.363919
 21
111.266855
 31
0.0
  0
LINE
  5
1DF
100
AcDbEntity
  8
0
100
AcDbLine
 10
104.363919
 20
111.566855
 30
0.0
 11
104.883919
 21
111.566855
 31
0.0
  0
LINE
  5
1E0
100
AcDbEntity
  8
0
100
AcDbLine
 10
103.580829
 20
111.666865
 30
0.0
 11
102.53153
 21
111.666865
 31
0.0
  0
ARC
  5
1E1
100
AcDbEntity
  8
0
100
AcDbCircle
 10
105.325919
 20
110.766865
 30
0.0
 40
0.2
100
AcDbArc
 50
0.0
 51
90.0
  0
LINE
  5
1E2
100
AcDbEntity
  8
0
100
AcDbLine
 10
109.525919
 20
118.616875
 30
0.0
 11
107.275919
 21
118.616875
 31
0.0
  0
ARC
  5
1E3
100
AcDbEntity
  8
0
100
AcDbCircle
 10
104.780475
 20
116.394341
 30
0.0
 40
0.3
100
AcDbArc
 50
304.96231
 51
35.064447
  0
LINE
  5
1E4
100
AcDbEntity
  8
0
100
AcDbLine
 10
105.026027
 20
116.56669
 30
0.0
 11
104.747274
 21
116.96384
 31
0.0
  0
LINE
  5
1E5
100
AcDbEntity
  8
0
100
AcDbLine
 10
104.083928
 20
115.340865
 30
0.0
 11
105.183919
 21
114.240875
 31
0.0
  0
LINE
  5
1E6
100
AcDbEntity
  8
0
100
AcDbLine
 10
103.839973
 20
116.720735
 30
0.0
 11
103.753863
 21
115.749197
 31
0.0
  0
LINE
  5
1E7
100
AcDbEntity
  8
0
100
AcDbLine
 10
104.134115
 20
116.689491
 30
0.0
 11
104.083928
 21
115.340865
 31
0.0
  0
ARC
  5
1E8
100
AcDbEntity
  8
0
100
AcDbCircle
 10
104.333977
 20
116.682053
 30
0.0
 40
0.2
100
AcDbArc
 50
35.063255
 51
177.86882
  0
ARC
  5
1E9
100
AcDbEntity
  8
0
100
AcDbCircle
 10
104.338021
 20
116.676591
 30
0.0
 40
0.5
100
AcDbArc
 50
35.064447
 51
174.934977
  0
LINE
  5
1EA
100
AcDbEntity
  8
0
100
AcDbLine
 10
104.706885
 20
115.976821
 30
0.0
 11
104.534875
 21
116.221843
 31
0.0
  0
ARC
  5
1EB
100
AcDbEntity
  8
0
100
AcDbCircle
 10
103.554644
 20
115.766855
 30
0.0
 40
0.2
100
AcDbArc
 50
270.0
 51
354.934977
  0
LINE
  5
1EC
100
AcDbEntity
  8
0
100
AcDbLine
 10
103.783919
 20
116.087855
 30
0.0
 11
103.783919
 21
115.216905
 31
0.0
  0
LINE
  5
1ED
100
AcDbEntity
  8
0
100
AcDbLine
 10
104.779898
 20
116.394847
 30
0.0
 11
104.49768
 21
116.796949
 31
0.0
  0
LINE
  5
1EE
100
AcDbEntity
  8
0
100
AcDbLine
 10
104.706885
 20
115.976821
 30
0.0
 11
104.952387
 21
116.148482
 31
0.0
  0
LINE
  5
1EF
100
AcDbEntity
  8
0
100
AcDbLine
 10
104.534875
 20
116.221843
 30
0.0
 11
104.779898
 21
116.394847
 31
0.0
  0
LINE
  5
1F0
100
AcDbEntity
  8
0
100
AcDbLine
 10
103.783919
 20
115.216905
 30
0.0
 11
104.883919
 21
114.116915
 31
0.0
  0
LINE
  5
1F1
100
AcDbEntity
  8
0
100
AcDbLine
 10
103.554644
 20
115.566855
 30
0.0
 11
102.531539
 21
115.566855
 31
0.0
  0
LINE
  5
1F2
100
AcDbEntity
  8
0
100
AcDbLine
 10
107.275919
 20
116.116875
 30
0.0
 11
105.525919
 21
116.116875
 31
0.0
  0
ARC
  5
1F3
100
AcDbEntity
  8
0
100
AcDbCircle
 10
105.325919
 20
116.766855
 30
0.0
 40
0.2
100
AcDbArc
 50
270.0
 51
0.0
  0
LINE
  5
1F4
100
AcDbEntity
  8
0
100
AcDbLine
 10
105.325919
 20
116.566855
 30
0.0
 11
105.025912
 21
116.566855
 31
0.0
  0
ARC
  5
1F5
100
AcDbEntity
  8
0
100
AcDbCircle
 10
104.525919
 20
117.616875
 30
0.0
 40
1.0
100
AcDbArc
 50
0.0
 51
90.0
  0
LINE
  5
1F6
100
AcDbEntity
  8
0
100
AcDbLine
 10
107.275919
 20
119.616875
 30
0.0
 11
105.525919
 21
119.616875
 31
0.0
  0
LINE
  5
1F7
100
AcDbEntity
  8
0
100
AcDbLine
 10
104.125919
 20
131.866875
 30
0.0
 11
104.125919
 21
122.366875
 31
0.0
  0
LINE
  5
1F8
100
AcDbEntity
  8
0
100
AcDbLine
 10
109.525919
 20
122.366875
 30
0.0
 11
104.125919
 21
122.366875
 31
0.0
  0
LINE
  5
1F9
100
AcDbEntity
  8
0
100
AcDbLine
 10
109.525919
 20
131.866875
 30
0.0
 11
104.125919
 21
131.866875
 31
0.0
  0
LINE
  5
1FA
100
AcDbEntity
  8
0
100
AcDbLine
 10
105.775919
 20
133.116875
 30
0.0
 11
105.775919
 21
133.116975
 31
0.0
  0
LINE
  5
1FB
100
AcDbEntity
  8
CENTER
  6
CENTER
 62
     1
100
AcDbLine
 10
185.308505
 20
138.463871
 30
0.0
 11
185.308505
 21
63.769878
 31
0.0
  0
CIRCLE
  5
1FC
100
AcDbEntity
  8
CENTER
  6
CENTER
 62
     1
100
AcDbCircle
 10
185.308505
 20
101.116875
 30
0.0
 40
26.0
  0
LWPOLYLINE
  5
1FD
100
AcDbEntity
  8
0
100
AcDbPolyline
 90
        2
 70
     0
 43
0.0
 10
182.540316
 20
132.996917
 10
153.428462
 20
103.885064
  0
LWPOLYLINE
  5
201
100
AcDbEntity
  8
0
100
AcDbPolyline
 90
        2
 70
     0
 43
0.0
 10
217.188548
 20
103.885064
 10
188.076695
 20
132.996917
  0
CIRCLE
  5
205
100
AcDbEntity
  8
0
  6
DASHED
 62
     3
100
AcDbCircle
 10
185.308505
 20
101.116875
 30
0.0
 40
21.0
  0
CIRCLE
  5
206
100
AcDbEntity
  8
0
100
AcDbCircle
 10
211.308505
 20
101.116875
 30
0.0
 40
4.75
  0
CIRCLE
  5
207
100
AcDbEntity
  8
0
100
AcDbCircle
 10
159.308505
 20
101.116875
 30
0.0
 40
4.75
  0
CIRCLE
  5
208
100
AcDbEntity
  8
0
100
AcDbCircle
 10
185.308505
 20
101.116875
 30
0.0
 40
17.5
  0
CIRCLE
  5
209
100
AcDbEntity
  8
0
100
AcDbCircle
 10
185.308505
 20
101.116875
 30
0.0
 40
7.5
  0
LWPOLYLINE
  5
20A
100
AcDbEntity
  8
0
100
AcDbPolyline
 90
        2
 70
     0
 43
0.0
 10
188.076695
 20
69.236832
 10
217.188548
 20
98.348685
  0
LWPOLYLINE
  5
20E
100
AcDbEntity
  8
0
100
AcDbPolyline
 90
        2
 70
     0
 43
0.0
 10
153.428462
 20
98.348685
 10
182.540316
 20
69.236832
  0
CIRCLE
  5
212
100
AcDbEntity
  8
0
100
AcDbCircle
 10
185.308505
 20
75.116875
 30
0.0
 40
4.75
  0
CIRCLE
  5
213
100
AcDbEntity
  8
0
 62
     3
100
AcDbCircle
 10
185.308505
 20
75.116875
 30
0.0
 40
3.0
  0
ARC
  5
214
100
AcDbEntity
  8
0
100
AcDbCircle
 10
185.308505
 20
101.116875
 30
0.0
 40
32.0
100
AcDbArc
 50
265.037373
 51
274.962627
  0
CIRCLE
  5
215
100
AcDbEntity
  8
0
 62
     3
100
AcDbCircle
 10
159.308505
 20
101.116875
 30
0.0
 40
3.0
  0
CIRCLE
  5
216
100
AcDbEntity
  8
0
100
AcDbCircle
 10
159.308505
 20
101.116875
 30
0.0
 40
2.6
  0
ARC
  5
217
100
AcDbEntity
  8
0
100
AcDbCircle
 10
185.308505
 20
101.116875
 30
0.0
 40
32.0
100
AcDbArc
 50
175.037373
 51
184.962627
  0
CIRCLE
  5
218
100
AcDbEntity
  8
0
100
AcDbCircle
 10
185.308505
 20
75.116875
 30
0.0
 40
2.6
  0
CIRCLE
  5
219
100
AcDbEntity
  8
0
 62
     3
100
AcDbCircle
 10
211.308505
 20
101.116875
 30
0.0
 40
3.0
  0
CIRCLE
  5
21A
100
AcDbEntity
  8
0
100
AcDbCircle
 10
211.308505
 20
101.116875
 30
0.0
 40
2.6
  0
ARC
  5
21B
100
AcDbEntity
  8
0
100
AcDbCircle
 10
185.308505
 20
101.116875
 30
0.0
 40
32.0
100
AcDbArc
 50
355.037373
 51
4.962627
  0
ARC
  5
21C
100
AcDbEntity
  8
0
100
AcDbCircle
 10
185.308505
 20
101.116875
 30
0.0
 40
32.0
100
AcDbArc
 50
85.037373
 51
94.962627
  0
CIRCLE
  5
21D
100
AcDbEntity
  8
0
100
AcDbCircle
 10
185.308505
 20
127.116875
 30
0.0
 40
4.75
  0
CIRCLE
  5
21E
100
AcDbEntity
  8
0
 62
     3
100
AcDbCircle
 10
185.308505
 20
127.116875
 30
0.0
 40
3.0
  0
CIRCLE
  5
21F
100
AcDbEntity
  8
0
100
AcDbCircle
 10
185.308505
 20
127.116875
 30
0.0
 40
2.6
  0
ENDSEC
  0
SECTION
  2
OBJECTS
  0
DICTIONARY
  5
115
100
AcDbDictionary
  3
ACAD_GROUP
350
116
  3
ACAD_LAYOUT
350
122
  3
ACAD_MLINESTYLE
350
11F
  3
ACAD_PLOTSETTINGS
350
121
  3
ACAD_PLOTSTYLENAME
350
117
  3
ACDBHEADERROUNDTRIPXREC
350
22C
  3
AcDbVariableDictionary
350
255
  0
DICTIONARY
  5
22A
100
AcDbDictionary
280
     1
  3
ACAD_XREC_ROUNDTRIP
360
22B
  0
DICTIONARY
  5
226
100
AcDbDictionary
280
     1
  3
ACAD_XREC_ROUNDTRIP
360
227
  0
DICTIONARY
  5
228
100
AcDbDictionary
280
     1
  3
ACAD_XREC_ROUNDTRIP
360
229
  0
DICTIONARY
  5
253
100
AcDbDictionary
280
     1
  3
ACAD_XREC_ROUNDTRIP
360
254
  0
DICTIONARY
  5
222
100
AcDbDictionary
280
     1
  3
ACAD_LAYOUTSELFREF
360
252
  3
ACAD_XREC_ROUNDTRIP
360
223
  0
DICTIONARY
  5
224
100
AcDbDictionary
280
     1
  3
ACAD_LAYOUTSELFREF
360
251
  3
ACAD_XREC_ROUNDTRIP
360
225
  0
DICTIONARY
  5
116
102
{ACAD_REACTORS
330
115
102
}
100
AcDbDictionary
  0
DICTIONARY
  5
122
102
{ACAD_XDICTIONARY
360
24F
102
}
102
{ACAD_REACTORS
330
115
102
}
100
AcDbDictionary
  3
MODEL
350
12A
  3
ﾚｲｱｳﾄ1
350
126
  0
DICTIONARY
  5
11F
102
{ACAD_XDICTIONARY
360
24D
102
}
102
{ACAD_REACTORS
330
115
102
}
100
AcDbDictionary
  3
STANDARD
350
120
  0
DICTIONARY
  5
121
102
{ACAD_REACTORS
330
115
102
}
100
AcDbDictionary
  0
ACAD_PROXY_OBJECT
  5
117
102
{ACAD_REACTORS
330
115
102
}
100
AcDbProxyObject
 90
      499
 91
      500
 93
       86
310
405010041939BDC9B585B0
350
118
340
118
 94
        0
  0
DICTIONARY
  5
22C
102
{ACAD_REACTORS
330
115
102
}
100
AcDbDictionary
  3
CEPSNTYPE
350
236
  3
DIMSTYLEDATA
350
23A
  3
FINGERPRINTGUID
350
237
  3
HYPERLINKBASE
350
22F
  3
INSUNITS
350
235
  3
LAYOUTDICT
350
231
  3
LWETCUNION
350
234
  3
PLOTSETDICT
350
232
  3
PLOTSTYLNAMDICT
350
233
  3
PSVPSCALE
350
239
  3
PUCSBASE
350
23D
  3
PUCSORGBACK
350
243
  3
PUCSORGBOTTOM
350
23F
  3
PUCSORGFRONT
350
242
  3
PUCSORGLEFT
350
240
  3
PUCSORGRIGHT
350
241
  3
PUCSORGTOP
350
23E
  3
PUCSORTHOREF
350
23B
  3
PUCSORTHOVIEW
350
23C
  3
STYLESHEET
350
230
  3
TSTACKALIGN
350
22D
  3
TSTACKSIZE
350
22E
  3
UCSBASE
350
246
  3
UCSORGBACK
350
24C
  3
UCSORGBOTTOM
350
248
  3
UCSORGFRONT
350
24B
  3
UCSORGLEFT
350
249
  3
UCSORGRIGHT
350
24A
  3
UCSORGTOP
350
247
  3
UCSORTHOREF
350
244
  3
UCSORTHOVIEW
350
245
  3
VERSIONGUID
350
238
  0
DICTIONARY
  5
255
102
{ACAD_REACTORS
330
115
102
}
100
AcDbDictionary
  3
DIMASSOC
350
256
  0
XRECORD
  5
22B
102
{ACAD_REACTORS
330
22A
102
}
100
AcDbXrecord
102
EXTNAMES
  1
*ACTIVE
  2
*Active
102
UCS
 74
     0
 71
     0
 10
0.0
 20
0.0
 30
0.0
 10
1.0
 20
0.0
 30
0.0
 10
0.0
 20
1.0
 30
0.0
146
0.0
 79
     0
102
VIEW
281
     0
  0
XRECORD
  5
227
102
{ACAD_REACTORS
330
226
102
}
100
AcDbXrecord
102
EXTNAMES
  1
BYBLOCK
  2
ByBlock
  0
XRECORD
  5
229
102
{ACAD_REACTORS
330
228
102
}
100
AcDbXrecord
102
EXTNAMES
  1
BYLAYER
  2
ByLayer
  0
XRECORD
  5
254
102
{ACAD_REACTORS
330
253
102
}
100
AcDbXrecord
102
ACADR14ROUNDTRIP
1000
DSTYLE
1002
{
1070
   279
 70
     2
1002
}
  0
XRECORD
  5
252
102
{ACAD_REACTORS
330
222
102
}
100
AcDbXrecord
340
127
  0
XRECORD
  5
223
102
{ACAD_REACTORS
330
222
102
}
100
AcDbXrecord
102
EXTNAMES
  1
*MODEL_SPACE
  2
*Model_Space
  0
XRECORD
  5
251
102
{ACAD_REACTORS
330
224
102
}
100
AcDbXrecord
340
123
  0
XRECORD
  5
225
102
{ACAD_REACTORS
330
224
102
}
100
AcDbXrecord
102
EXTNAMES
  1
*PAPER_SPACE
  2
*Paper_Space
  0
DICTIONARY
  5
24F
100
AcDbDictionary
280
     1
  3
ACAD_XREC_ROUNDTRIP
360
250
  0
ACAD_PROXY_OBJECT
  5
12A
102
{ACAD_REACTORS
330
122
102
}
100
AcDbProxyObject
 90
      499
 91
      502
 93
      836
310
932433A5C50524F4752414D2046494C45535C4D4454365C706C6F74746572735C526F6C616E64204458592D313235302E7063332C01AAAAAAAAA5A69054D6F64656C901A800000000000000000000000000000000000000000000A1000000000000008902A6A6AAAA0
330
127
330
0
340
0
340
0
 94
        0
  0
ACAD_PROXY_OBJECT
  5
126
102
{ACAD_REACTORS
330
122
102
}
100
AcDbProxyObject
 90
      499
 91
      502
 93
     1244
310
932433A5C50524F4752414D2046494C45535C4D4454365C706C6F74746572735C526F6C616E64204458592D313235302E7063332C00AAAAAA416AA59106906DAB2B1B3C431406A800000000000000000000000000000000000000000101E900000000000241C902A6A6A10232D5E076BC5510408CB5781DAF154410232D5E0
310
76BC5510408CB5781DAF15C410232D5E076BC5710408CB5781DAF15C40
330
123
330
0
340
0
340
0
 94
        0
  0
DICTIONARY
  5
24D
100
AcDbDictionary
280
     1
  3
ACAD_XREC_ROUNDTRIP
360
24E
  0
MLINESTYLE
  5
120
102
{ACAD_REACTORS
330
11F
102
}
100
AcDbMlineStyle
  2
STANDARD
 70
     0
  3

 62
   256
 51
90.0
 52
90.0
 71
     2
 49
0.5
 62
   256
  6
BYLAYER
 49
-0.5
 62
   256
  6
BYLAYER
  0
ACAD_PROXY_OBJECT
  5
118
102
{ACAD_REACTORS
330
117
102
}
100
AcDbProxyObject
 90
      499
 91
      501
 93
        0
 94
        0
  0
XRECORD
  5
236
102
{ACAD_REACTORS
330
22C
102
}
100
AcDbXrecord
 90
        0
  0
XRECORD
  5
23A
102
{ACAD_REACTORS
330
22C
102
}
100
AcDbXrecord
1000
DSTYLE
1002
{
1070
   341
340
13E
1070
   342
340
138
1070
   343
340
13E
1070
   344
340
13E
1002
}
  0
XRECORD
  5
237
102
{ACAD_REACTORS
330
22C
102
}
100
AcDbXrecord
  1
{F7CBF398-020D-4E19-AB04-CFF7DEFB186B}
  0
XRECORD
  5
22F
102
{ACAD_REACTORS
330
22C
102
}
100
AcDbXrecord
  1

  0
XRECORD
  5
235
102
{ACAD_REACTORS
330
22C
102
}
100
AcDbXrecord
 90
        0
  0
XRECORD
  5
231
102
{ACAD_REACTORS
330
22C
102
}
100
AcDbXrecord
340
122
  0
XRECORD
  5
234
102
{ACAD_REACTORS
330
22C
102
}
100
AcDbXrecord
 90
    10781
  0
XRECORD
  5
232
102
{ACAD_REACTORS
330
22C
102
}
100
AcDbXrecord
340
121
  0
XRECORD
  5
233
102
{ACAD_REACTORS
330
22C
102
}
100
AcDbXrecord
340
117
  0
XRECORD
  5
239
102
{ACAD_REACTORS
330
22C
102
}
100
AcDbXrecord
 40
0.0
  0
XRECORD
  5
23D
102
{ACAD_REACTORS
330
22C
102
}
100
AcDbXrecord
340
0
  0
XRECORD
  5
243
102
{ACAD_REACTORS
330
22C
102
}
100
AcDbXrecord
 10
0.0
 20
0.0
 30
0.0
  0
XRECORD
  5
23F
102
{ACAD_REACTORS
330
22C
102
}
100
AcDbXrecord
 10
0.0
 20
0.0
 30
0.0
  0
XRECORD
  5
242
102
{ACAD_REACTORS
330
22C
102
}
100
AcDbXrecord
 10
0.0
 20
0.0
 30
0.0
  0
XRECORD
  5
240
102
{ACAD_REACTORS
330
22C
102
}
100
AcDbXrecord
 10
0.0
 20
0.0
 30
0.0
  0
XRECORD
  5
241
102
{ACAD_REACTORS
330
22C
102
}
100
AcDbXrecord
 10
0.0
 20
0.0
 30
0.0
  0
XRECORD
  5
23E
102
{ACAD_REACTORS
330
22C
102
}
100
AcDbXrecord
 10
0.0
 20
0.0
 30
0.0
  0
XRECORD
  5
23B
102
{ACAD_REACTORS
330
22C
102
}
100
AcDbXrecord
340
0
  0
XRECORD
  5
23C
102
{ACAD_REACTORS
330
22C
102
}
100
AcDbXrecord
 70
     0
  0
XRECORD
  5
230
102
{ACAD_REACTORS
330
22C
102
}
100
AcDbXrecord
  1

  0
XRECORD
  5
22D
102
{ACAD_REACTORS
330
22C
102
}
100
AcDbXrecord
 90
        1
  0
XRECORD
  5
22E
102
{ACAD_REACTORS
330
22C
102
}
100
AcDbXrecord
 90
       70
  0
XRECORD
  5
246
102
{ACAD_REACTORS
330
22C
102
}
100
AcDbXrecord
340
0
  0
XRECORD
  5
24C
102
{ACAD_REACTORS
330
22C
102
}
100
AcDbXrecord
 10
0.0
 20
0.0
 30
0.0
  0
XRECORD
  5
248
102
{ACAD_REACTORS
330
22C
102
}
100
AcDbXrecord
 10
0.0
 20
0.0
 30
0.0
  0
XRECORD
  5
24B
102
{ACAD_REACTORS
330
22C
102
}
100
AcDbXrecord
 10
0.0
 20
0.0
 30
0.0
  0
XRECORD
  5
249
102
{ACAD_REACTORS
330
22C
102
}
100
AcDbXrecord
 10
0.0
 20
0.0
 30
0.0
  0
XRECORD
  5
24A
102
{ACAD_REACTORS
330
22C
102
}
100
AcDbXrecord
 10
0.0
 20
0.0
 30
0.0
  0
XRECORD
  5
247
102
{ACAD_REACTORS
330
22C
102
}
100
AcDbXrecord
 10
0.0
 20
0.0
 30
0.0
  0
XRECORD
  5
244
102
{ACAD_REACTORS
330
22C
102
}
100
AcDbXrecord
340
0
  0
XRECORD
  5
245
102
{ACAD_REACTORS
330
22C
102
}
100
AcDbXrecord
 70
     0
  0
XRECORD
  5
238
102
{ACAD_REACTORS
330
22C
102
}
100
AcDbXrecord
  1
{41487F72-272C-430B-8E3E-B41953AF2A93}
  0
DICTIONARYVAR
  5
256
102
{ACAD_REACTORS
330
255
102
}
100
DictionaryVariables
280
     0
  1
1
  0
XRECORD
  5
250
102
{ACAD_REACTORS
330
24F
102
}
100
AcDbXrecord
102
EXTNAMES
  1
MODEL
  2
Model
  0
XRECORD
  5
24E
102
{ACAD_REACTORS
330
24D
102
}
100
AcDbXrecord
102
EXTNAMES
  1
STANDARD
  2
Standard
  0
ENDSEC
  0
EOF
