  0
SECTION
  2
HEADER
  9
$ACADVER
  1
AC1014
  9
$ACADMAINTVER
 70
     0
  9
$DWGCODEPAGE
  3
ANSI_932
  9
$INSBASE
 10
0.0
 20
0.0
 30
0.0
  9
$EXTMIN
 10
91.694324
 20
69.76209
 30
0.0
  9
$EXTMAX
 10
215.066411
 20
133.634088
 30
0.0
  9
$LIMMIN
 10
0.0
 20
0.0
  9
$LIMMAX
 10
297.0
 20
210.0
  9
$ORTHOMODE
 70
     0
  9
$REGENMODE
 70
     1
  9
$FILLMODE
 70
     1
  9
$QTEXTMODE
 70
     0
  9
$MIRRTEXT
 70
     1
  9
$DRAGMODE
 70
     2
  9
$LTSCALE
 40
0.25
  9
$OSMODE
 70
    37
  9
$ATTMODE
 70
     1
  9
$TEXTSIZE
 40
4.0
  9
$TRACEWID
 40
1.0
  9
$TEXTSTYLE
  7
STANDARD
  9
$CLAYER
  8
0
  9
$CELTYPE
  6
BYLAYER
  9
$CECOLOR
 62
   256
  9
$CELTSCALE
 40
1.0
  9
$DELOBJ
 70
     1
  9
$DISPSILH
 70
     0
  9
$DIMSCALE
 40
1.0
  9
$DIMASZ
 40
3.0
  9
$DIMEXO
 40
1.0
  9
$DIMDLI
 40
10.0
  9
$DIMRND
 40
0.0
  9
$DIMDLE
 40
0.0
  9
$DIMEXE
 40
1.0
  9
$DIMTP
 40
0.0
  9
$DIMTM
 40
0.0
  9
$DIMTXT
 40
3.2
  9
$DIMCEN
 40
0.0
  9
$DIMTSZ
 40
0.0
  9
$DIMTOL
 70
     0
  9
$DIMLIM
 70
     0
  9
$DIMTIH
 70
     0
  9
$DIMTOH
 70
     0
  9
$DIMSE1
 70
     0
  9
$DIMSE2
 70
     0
  9
$DIMTAD
 70
     3
  9
$DIMZIN
 70
     8
  9
$DIMBLK
  1
ARROW
  9
$DIMASO
 70
     1
  9
$DIMSHO
 70
     1
  9
$DIMPOST
  1

  9
$DIMAPOST
  1

  9
$DIMALT
 70
     0
  9
$DIMALTD
 70
     2
  9
$DIMALTF
 40
0.04
  9
$DIMLFAC
 40
1.0
  9
$DIMTOFL
 70
     1
  9
$DIMTVP
 40
1.0
  9
$DIMTIX
 70
     0
  9
$DIMSOXD
 70
     0
  9
$DIMSAH
 70
     1
  9
$DIMBLK1
  1
OPEN
  9
$DIMBLK2
  1
OPEN
  9
$DIMSTYLE
  2
AA1
  9
$DIMCLRD
 70
     0
  9
$DIMCLRE
 70
     0
  9
$DIMCLRT
 70
     0
  9
$DIMTFAC
 40
0.6
  9
$DIMGAP
 40
1.0
  9
$DIMJUST
 70
     0
  9
$DIMSD1
 70
     0
  9
$DIMSD2
 70
     0
  9
$DIMTOLJ
 70
     1
  9
$DIMTZIN
 70
     0
  9
$DIMALTZ
 70
     0
  9
$DIMALTTZ
 70
     0
  9
$DIMFIT
 70
     3
  9
$DIMUPT
 70
     0
  9
$DIMUNIT
 70
     2
  9
$DIMDEC
 70
     4
  9
$DIMTDEC
 70
     4
  9
$DIMALTU
 70
     2
  9
$DIMALTTD
 70
     2
  9
$DIMTXSTY
  7
STANDARD
  9
$DIMAUNIT
 70
     0
  9
$LUNITS
 70
     2
  9
$LUPREC
 70
     2
  9
$SKETCHINC
 40
1.0
  9
$FILLETRAD
 40
10.0
  9
$AUNITS
 70
     0
  9
$AUPREC
 70
     0
  9
$MENU
  1
acad
  9
$ELEVATION
 40
0.0
  9
$PELEVATION
 40
0.0
  9
$THICKNESS
 40
0.0
  9
$LIMCHECK
 70
     0
  9
$BLIPMODE
 70
     0
  9
$CHAMFERA
 40
0.0
  9
$CHAMFERB
 40
0.0
  9
$CHAMFERC
 40
0.0
  9
$CHAMFERD
 40
0.0
  9
$SKPOLY
 70
     0
  9
$TDCREATE
 40
2451466.562949421
  9
$TDUPDATE
 40
2452821.758060069
  9
$TDINDWG
 40
0.0006877315
  9
$TDUSRTIMER
 40
0.0006877315
  9
$USRTIMER
 70
     1
  9
$ANGBASE
 50
0.0
  9
$ANGDIR
 70
     0
  9
$PDMODE
 70
     1
  9
$PDSIZE
 40
0.0
  9
$PLINEWID
 40
0.0
  9
$COORDS
 70
     1
  9
$SPLFRAME
 70
     0
  9
$SPLINETYPE
 70
     6
  9
$SPLINESEGS
 70
     8
  9
$ATTDIA
 70
     0
  9
$ATTREQ
 70
     1
  9
$HANDLING
 70
     1
  9
$HANDSEED
  5
25A
  9
$SURFTAB1
 70
     6
  9
$SURFTAB2
 70
     6
  9
$SURFTYPE
 70
     6
  9
$SURFU
 70
     6
  9
$SURFV
 70
     6
  9
$UCSNAME
  2

  9
$UCSORG
 10
0.0
 20
0.0
 30
0.0
  9
$UCSXDIR
 10
1.0
 20
0.0
 30
0.0
  9
$UCSYDIR
 10
0.0
 20
1.0
 30
0.0
  9
$PUCSNAME
  2

  9
$PUCSORG
 10
0.0
 20
0.0
 30
0.0
  9
$PUCSXDIR
 10
1.0
 20
0.0
 30
0.0
  9
$PUCSYDIR
 10
0.0
 20
1.0
 30
0.0
  9
$USERI1
 70
     0
  9
$USERI2
 70
     0
  9
$USERI3
 70
     0
  9
$USERI4
 70
     0
  9
$USERI5
 70
     0
  9
$USERR1
 40
0.0
  9
$USERR2
 40
0.0
  9
$USERR3
 40
0.0
  9
$USERR4
 40
0.0
  9
$USERR5
 40
0.0
  9
$WORLDVIEW
 70
     1
  9
$SHADEDGE
 70
     3
  9
$SHADEDIF
 70
    70
  9
$TILEMODE
 70
     1
  9
$MAXACTVP
 70
    16
  9
$PINSBASE
 10
0.0
 20
0.0
 30
0.0
  9
$PLIMCHECK
 70
     0
  9
$PEXTMIN
 10
1.000000E+20
 20
1.000000E+20
 30
1.000000E+20
  9
$PEXTMAX
 10
-1.000000E+20
 20
-1.000000E+20
 30
-1.000000E+20
  9
$PLIMMIN
 10
0.0
 20
0.0
  9
$PLIMMAX
 10
420.0
 20
297.0
  9
$UNITMODE
 70
     0
  9
$VISRETAIN
 70
     0
  9
$PLINEGEN
 70
     0
  9
$PSLTSCALE
 70
     0
  9
$TREEDEPTH
 70
  3020
  9
$PICKSTYLE
 70
     1
  9
$CMLSTYLE
  2
STANDARD
  9
$CMLJUST
 70
     0
  9
$CMLSCALE
 40
1.0
  9
$PROXYGRAPHICS
 70
     1
  9
$MEASUREMENT
 70
     0
  0
ENDSEC
  0
SECTION
  2
CLASSES
  0
CLASS
  1
ACDBDICTIONARYWDFLT
  2
AcDbDictionaryWithDefault
  3
AutoCAD 2000
 90
        0
280
     0
281
     0
  0
CLASS
  1
ACDBPLACEHOLDER
  2
AcDbPlaceHolder
  3
AutoCAD 2000
 90
        0
280
     0
281
     0
  0
CLASS
  1
LAYOUT
  2
AcDbLayout
  3
AutoCAD 2000
 90
        0
280
     0
281
     0
  0
CLASS
  1
DICTIONARYVAR
  2
AcDbDictionaryVar
  3
"AutoCAD"
 90
        0
280
     0
281
     0
  0
CLASS
  1
LONG_TRANSACTION
  2
AcDbLongTransaction
  3
AutoCAD 2000
 90
        0
280
     0
281
     0
  0
CLASS
  1
LWPOLYLINE
  2
AcDbPolyline
  3
"AutoCAD"
 90
        0
280
     0
281
     1
  0
CLASS
  1
HATCH
  2
AcDbHatch
  3
"ACAD_SEDONA"
 90
        0
280
     0
281
     1
  0
CLASS
  1
XRECORD
  2
AcDbXrecord
  3
"<Built In>"
 90
        0
280
     0
281
     0
  0
ENDSEC
  0
SECTION
  2
TABLES
  0
TABLE
  2
VPORT
  5
111
100
AcDbSymbolTable
 70
     1
  0
VPORT
  5
221
102
{ACAD_XDICTIONARY
360
22A
102
}
100
AcDbSymbolTableRecord
100
AcDbViewportTableRecord
  2
*ACTIVE
 70
     0
 10
0.0
 20
0.0
 11
1.0
 21
1.0
 12
148.500001
 22
157.716653
 13
0.0
 23
0.0
 14
10.0
 24
10.0
 15
0.0
 25
0.0
 16
0.0
 26
0.0
 36
1.0
 17
0.0
 27
0.0
 37
0.0
 40
346.308221
 41
1.530211
 42
50.0
 43
0.0
 44
0.0
 50
0.0
 51
0.0
 71
     0
 72
   100
 73
     1
 74
     0
 75
     0
 76
     0
 77
     0
 78
     1
  0
ENDTAB
  0
TABLE
  2
LTYPE
  5
10E
100
AcDbSymbolTable
 70
     3
  0
LTYPE
  5
11C
102
{ACAD_XDICTIONARY
360
226
102
}
100
AcDbSymbolTableRecord
100
AcDbLinetypeTableRecord
  2
BYBLOCK
 70
     0
  3

 72
    65
 73
     0
 40
0.0
  0
LTYPE
  5
11D
102
{ACAD_XDICTIONARY
360
228
102
}
100
AcDbSymbolTableRecord
100
AcDbLinetypeTableRecord
  2
BYLAYER
 70
     0
  3

 72
    65
 73
     0
 40
0.0
  0
LTYPE
  5
11E
100
AcDbSymbolTableRecord
100
AcDbLinetypeTableRecord
  2
CONTINUOUS
 70
     0
  3
Solid line
 72
    65
 73
     0
 40
0.0
  0
LTYPE
  5
12C
100
AcDbSymbolTableRecord
100
AcDbLinetypeTableRecord
  2
CENTER
 70
     0
  3
____ _ ____ _ ____ _ ____ _ ____ _ ____ _ ____ 
 72
    65
 73
     4
 40
50.8
 49
31.75
 74
     0
 49
-6.35
 74
     0
 49
6.35
 74
     0
 49
-6.35
 74
     0
  0
LTYPE
  5
12D
100
AcDbSymbolTableRecord
100
AcDbLinetypeTableRecord
  2
DASHED
 70
     0
  3
__ __ __ __ __ __ __ __ __ __ __ __ __ __ __ __
 72
    65
 73
     2
 40
0.75
 49
0.5
 74
     0
 49
-0.25
 74
     0
  0
ENDTAB
  0
TABLE
  2
LAYER
  5
10B
100
AcDbSymbolTable
 70
     3
  0
LAYER
  5
119
100
AcDbSymbolTableRecord
100
AcDbLayerTableRecord
  2
0
 70
     0
 62
     7
  6
CONTINUOUS
  0
LAYER
  5
12E
100
AcDbSymbolTableRecord
100
AcDbLayerTableRecord
  2
DIMENSION
 70
     0
 62
    -4
  6
CONTINUOUS
  0
LAYER
  5
12F
100
AcDbSymbolTableRecord
100
AcDbLayerTableRecord
  2
CENTER
 70
     0
 62
     1
  6
CENTER
  0
ENDTAB
  0
TABLE
  2
STYLE
  5
10C
100
AcDbSymbolTable
 70
     1
  0
STYLE
  5
11A
100
AcDbSymbolTableRecord
100
AcDbTextStyleTableRecord
  2
STANDARD
 70
     0
 40
0.0
 41
1.0
 50
0.0
 71
     0
 42
4.0
  3
txt
  4

  0
ENDTAB
  0
TABLE
  2
VIEW
  5
10F
100
AcDbSymbolTable
 70
     0
  0
ENDTAB
  0
TABLE
  2
UCS
  5
110
100
AcDbSymbolTable
 70
     0
  0
ENDTAB
  0
TABLE
  2
APPID
  5
112
100
AcDbSymbolTable
 70
     1
  0
APPID
  5
11B
100
AcDbSymbolTableRecord
100
AcDbRegAppTableRecord
  2
ACAD
 70
     0
  0
ENDTAB
  0
TABLE
  2
DIMSTYLE
  5
113
100
AcDbSymbolTable
 70
     1
  0
DIMSTYLE
105
130
102
{ACAD_XDICTIONARY
360
253
102
}
100
AcDbSymbolTableRecord
100
AcDbDimStyleTableRecord
  2
AA1
 70
     0
  3

  4

  5

  6

  7

 40
1.0
 41
3.0
 42
1.0
 43
10.0
 44
1.0
 45
0.0
 46
0.0
 47
0.0
 48
0.0
140
3.2
141
0.0
142
0.0
143
0.04
144
1.0
145
1.0
146
0.6
147
0.0
 71
     0
 72
     0
 73
     0
 74
     0
 75
     0
 76
     0
 77
     0
 78
     8
170
     0
171
     2
172
     1
173
     0
174
     0
175
     0
176
     0
177
     0
178
     0
270
     2
271
     2
272
     2
273
     2
274
     2
340
11A
275
     0
280
     0
281
     0
282
     0
283
     1
284
     8
285
     8
286
     8
287
     5
288
     0
  0
ENDTAB
  0
TABLE
  2
BLOCK_RECORD
  5
10A
100
AcDbSymbolTable
 70
     4
  0
BLOCK_RECORD
  5
127
102
{ACAD_XDICTIONARY
360
222
102
}
100
AcDbSymbolTableRecord
100
AcDbBlockTableRecord
  2
*MODEL_SPACE
  0
BLOCK_RECORD
  5
123
102
{ACAD_XDICTIONARY
360
224
102
}
100
AcDbSymbolTableRecord
100
AcDbBlockTableRecord
  2
*PAPER_SPACE
  0
BLOCK_RECORD
  5
132
100
AcDbSymbolTableRecord
100
AcDbBlockTableRecord
  2
$MODEL_SPACE
  0
BLOCK_RECORD
  5
135
100
AcDbSymbolTableRecord
100
AcDbBlockTableRecord
  2
$PAPER_SPACE
  0
BLOCK_RECORD
  5
138
100
AcDbSymbolTableRecord
100
AcDbBlockTableRecord
  2
ARROW
  0
BLOCK_RECORD
  5
13E
100
AcDbSymbolTableRecord
100
AcDbBlockTableRecord
  2
_OPEN
  0
ENDTAB
  0
ENDSEC
  0
SECTION
  2
BLOCKS
  0
BLOCK
  5
128
100
AcDbEntity
  8
0
100
AcDbBlockBegin
  2
*MODEL_SPACE
 70
     0
 10
0.0
 20
0.0
 30
0.0
  3
*MODEL_SPACE
  1

  0
ENDBLK
  5
129
100
AcDbEntity
  8
0
100
AcDbBlockEnd
  0
BLOCK
  5
124
100
AcDbEntity
 67
     1
  8
0
100
AcDbBlockBegin
  2
*PAPER_SPACE
 70
     0
 10
0.0
 20
0.0
 30
0.0
  3
*PAPER_SPACE
  1

  0
ENDBLK
  5
125
100
AcDbEntity
 67
     1
  8
0
100
AcDbBlockEnd
  0
BLOCK
  5
133
100
AcDbEntity
  8
0
100
AcDbBlockBegin
  2
$MODEL_SPACE
 70
     0
 10
0.0
 20
0.0
 30
0.0
  3
$MODEL_SPACE
  1

  0
ENDBLK
  5
134
100
AcDbEntity
  8
0
100
AcDbBlockEnd
  0
BLOCK
  5
136
100
AcDbEntity
  8
0
100
AcDbBlockBegin
  2
$PAPER_SPACE
 70
     0
 10
0.0
 20
0.0
 30
0.0
  3
$PAPER_SPACE
  1

  0
ENDBLK
  5
137
100
AcDbEntity
  8
0
100
AcDbBlockEnd
  0
BLOCK
  5
139
100
AcDbEntity
  8
0
100
AcDbBlockBegin
  2
ARROW
 70
     0
 10
0.0
 20
0.0
 30
0.0
  3
ARROW
  1

  0
LINE
  5
13A
100
AcDbEntity
  8
DIMENSION
100
AcDbLine
 10
0.0
 20
0.0
 30
0.0
 11
-1.0
 21
0.176327
 31
0.0
  0
LINE
  5
13B
100
AcDbEntity
  8
DIMENSION
100
AcDbLine
 10
0.0
 20
0.0
 30
0.0
 11
-1.0
 21
-0.176327
 31
0.0
  0
LINE
  5
13C
100
AcDbEntity
  8
DIMENSION
100
AcDbLine
 10
-1.0
 20
0.0
 30
0.0
 11
0.0
 21
0.0
 31
0.0
  0
ENDBLK
  5
13D
100
AcDbEntity
  8
0
100
AcDbBlockEnd
  0
BLOCK
  5
13F
100
AcDbEntity
  8
0
100
AcDbBlockBegin
  2
_OPEN
 70
     0
 10
0.0
 20
0.0
 30
0.0
  3
_OPEN
  1

  0
LINE
  5
140
100
AcDbEntity
  8
0
  6
BYBLOCK
 62
     0
100
AcDbLine
 10
-1.0
 20
0.166667
 30
0.0
 11
0.0
 21
0.0
 31
0.0
  0
LINE
  5
141
100
AcDbEntity
  8
0
  6
BYBLOCK
 62
     0
100
AcDbLine
 10
0.0
 20
0.0
 30
0.0
 11
-1.0
 21
-0.166667
 31
0.0
  0
LINE
  5
142
100
AcDbEntity
  8
0
  6
BYBLOCK
 62
     0
100
AcDbLine
 10
0.0
 20
0.0
 30
0.0
 11
-1.0
 21
0.0
 31
0.0
  0
ENDBLK
  5
143
100
AcDbEntity
  8
0
100
AcDbBlockEnd
  0
ENDSEC
  0
SECTION
  2
ENTITIES
  0
LINE
  5
144
100
AcDbEntity
  8
0
100
AcDbLine
 10
105.044324
 20
117.398089
 30
0.0
 11
105.044324
 21
85.998089
 31
0.0
  0
LINE
  5
145
100
AcDbEntity
  8
0
100
AcDbLine
 10
103.694324
 20
117.398089
 30
0.0
 11
103.694324
 21
85.998089
 31
0.0
  0
LINE
  5
146
100
AcDbEntity
  8
0
100
AcDbLine
 10
94.694324
 20
87.698089
 30
0.0
 11
94.694324
 21
115.698089
 31
0.0
  0
LINE
  5
147
100
AcDbEntity
  8
0
100
AcDbLine
 10
106.694324
 20
128.698089
 30
0.0
 11
106.694324
 21
74.698089
 31
0.0
  0
LINE
  5
148
100
AcDbEntity
  8
0
100
AcDbLine
 10
92.694324
 20
83.698089
 30
0.0
 11
92.694324
 21
119.698089
 31
0.0
  0
LINE
  5
14B
100
AcDbEntity
  8
CENTER
  6
CENTER
 62
     1
100
AcDbLine
 10
91.694324
 20
101.698089
 30
0.0
 11
107.694324
 21
101.698089
 31
0.0
  0
LINE
  5
14C
100
AcDbEntity
  8
CENTER
  6
CENTER
 62
     1
100
AcDbLine
 10
91.694324
 20
79.698089
 30
0.0
 11
107.694324
 21
79.698089
 31
0.0
  0
LINE
  5
14D
100
AcDbEntity
  8
0
100
AcDbLine
 10
94.694324
 20
81.848089
 30
0.0
 11
102.294324
 21
81.848089
 31
0.0
  0
LINE
  5
14E
100
AcDbEntity
  8
0
 62
     3
100
AcDbLine
 10
94.694324
 20
82.198089
 30
0.0
 11
102.294324
 21
82.198089
 31
0.0
  0
LINE
  5
14F
100
AcDbEntity
  8
0
 62
     3
100
AcDbLine
 10
94.694324
 20
77.198089
 30
0.0
 11
102.294324
 21
77.198089
 31
0.0
  0
LINE
  5
150
100
AcDbEntity
  8
0
100
AcDbLine
 10
94.694324
 20
77.548089
 30
0.0
 11
102.294324
 21
77.548089
 31
0.0
  0
LINE
  5
151
100
AcDbEntity
  8
0
100
AcDbLine
 10
94.694324
 20
74.698089
 30
0.0
 11
106.694324
 21
74.698089
 31
0.0
  0
ARC
  5
152
100
AcDbEntity
  8
0
100
AcDbCircle
 10
102.056226
 20
93.148089
 30
0.0
 40
0.2
100
AcDbArc
 50
270.0
 51
339.991395
  0
LINE
  5
153
100
AcDbEntity
  8
0
100
AcDbLine
 10
102.191733
 20
89.948109
 30
0.0
 11
101.043744
 21
89.948119
 31
0.0
  0
LINE
  5
154
100
AcDbEntity
  8
0
100
AcDbLine
 10
95.694324
 20
96.698089
 30
0.0
 11
102.694324
 21
96.698089
 31
0.0
  0
LINE
  5
155
100
AcDbEntity
  8
0
100
AcDbLine
 10
95.694324
 20
86.698089
 30
0.0
 11
103.694324
 21
86.698089
 31
0.0
  0
LINE
  5
156
100
AcDbEntity
  8
0
100
AcDbLine
 10
94.694324
 20
74.698089
 30
0.0
 11
94.694324
 21
83.698089
 31
0.0
  0
LINE
  5
157
100
AcDbEntity
  8
0
100
AcDbLine
 10
92.694324
 20
83.698089
 30
0.0
 11
94.694324
 21
83.698089
 31
0.0
  0
ARC
  5
158
100
AcDbEntity
  8
0
100
AcDbCircle
 10
95.694324
 20
87.698089
 30
0.0
 40
1.0
100
AcDbArc
 50
180.0
 51
270.0
  0
ARC
  5
159
100
AcDbEntity
  8
0
100
AcDbCircle
 10
95.694324
 20
95.698089
 30
0.0
 40
1.0
100
AcDbArc
 50
90.0
 51
180.0
  0
ARC
  5
15A
100
AcDbEntity
  8
0
100
AcDbCircle
 10
96.332421
 20
93.148089
 30
0.0
 40
0.2
100
AcDbArc
 50
200.008605
 51
270.0
  0
LINE
  5
15B
100
AcDbEntity
  8
0
100
AcDbLine
 10
96.196914
 20
89.948109
 30
0.0
 11
97.344904
 21
89.948119
 31
0.0
  0
LINE
  5
15C
100
AcDbEntity
  8
0
100
AcDbLine
 10
95.127324
 20
90.765109
 30
0.0
 11
95.127324
 21
93.148099
 31
0.0
  0
LINE
  5
15D
100
AcDbEntity
  8
0
100
AcDbLine
 10
95.327324
 20
90.848099
 30
0.0
 11
95.327324
 21
93.148099
 31
0.0
  0
LINE
  5
15E
100
AcDbEntity
  8
0
100
AcDbLine
 10
92.694324
 20
89.698089
 30
0.0
 11
94.694324
 21
89.698089
 31
0.0
  0
ARC
  5
15F
100
AcDbEntity
  8
0
100
AcDbCircle
 10
96.196915
 20
89.848109
 30
0.0
 40
0.1
100
AcDbArc
 50
90.000499
 51
175.003239
  0
LINE
  5
160
100
AcDbEntity
  8
0
100
AcDbLine
 10
96.077304
 20
90.098099
 30
0.0
 11
95.327304
 21
90.848099
 31
0.0
  0
LINE
  5
161
100
AcDbEntity
  8
0
100
AcDbLine
 10
95.877304
 20
90.015029
 30
0.0
 11
95.127304
 21
90.765019
 31
0.0
  0
LINE
  5
162
100
AcDbEntity
  8
0
100
AcDbLine
 10
94.794324
 20
89.248109
 30
0.0
 11
95.254339
 21
89.248109
 31
0.0
  0
ARC
  5
163
100
AcDbEntity
  8
0
100
AcDbCircle
 10
95.407564
 20
89.376647
 30
0.0
 40
0.2
100
AcDbArc
 50
129.912973
 51
219.997066
  0
LINE
  5
164
100
AcDbEntity
  8
0
100
AcDbLine
 10
95.254348
 20
89.248098
 30
0.0
 11
95.503954
 21
88.950599
 31
0.0
  0
LINE
  5
165
100
AcDbEntity
  8
0
100
AcDbLine
 10
95.432324
 20
89.658109
 30
0.0
 11
95.279239
 21
89.530051
 31
0.0
  0
LINE
  5
166
100
AcDbEntity
  8
0
100
AcDbLine
 10
95.407324
 20
89.377119
 30
0.0
 11
95.65765
 21
89.078769
 31
0.0
  0
LINE
  5
167
100
AcDbEntity
  8
0
100
AcDbLine
 10
95.432324
 20
89.658109
 30
0.0
 11
95.560314
 21
89.505129
 31
0.0
  0
LINE
  5
168
100
AcDbEntity
  8
0
100
AcDbLine
 10
95.560334
 20
89.505129
 30
0.0
 11
95.407344
 21
89.377139
 31
0.0
  0
ARC
  5
169
100
AcDbEntity
  8
0
100
AcDbCircle
 10
95.734257
 20
89.143045
 30
0.0
 40
0.1
100
AcDbArc
 50
219.997846
 51
357.180182
  0
ARC
  5
16A
100
AcDbEntity
  8
0
100
AcDbCircle
 10
95.733777
 20
89.143423
 30
0.0
 40
0.3
100
AcDbArc
 50
219.997066
 51
355.003239
  0
LINE
  5
16B
100
AcDbEntity
  8
0
100
AcDbLine
 10
96.032637
 20
89.117293
 30
0.0
 11
96.097295
 21
89.856819
 31
0.0
  0
LINE
  5
16C
100
AcDbEntity
  8
0
100
AcDbLine
 10
95.834136
 20
89.138125
 30
0.0
 11
95.877334
 21
90.015149
 31
0.0
  0
LINE
  5
16D
100
AcDbEntity
  8
0
100
AcDbLine
 10
96.077324
 20
89.628099
 30
0.0
 11
96.077324
 21
90.098099
 31
0.0
  0
ARC
  5
16E
100
AcDbEntity
  8
0
100
AcDbCircle
 10
94.794324
 20
89.148109
 30
0.0
 40
0.1
100
AcDbArc
 50
90.0
 51
180.0
  0
LINE
  5
16F
100
AcDbEntity
  8
0
100
AcDbLine
 10
92.694324
 20
92.698089
 30
0.0
 11
92.694324
 21
92.698189
 31
0.0
  0
LINE
  5
170
100
AcDbEntity
  8
0
100
AcDbLine
 10
95.876171
 20
93.816521
 30
0.0
 11
96.144493
 21
93.079657
 31
0.0
  0
LINE
  5
171
100
AcDbEntity
  8
0
100
AcDbLine
 10
95.777324
 20
93.348099
 30
0.0
 11
95.777324
 21
93.148119
 31
0.0
  0
ARC
  5
172
100
AcDbEntity
  8
0
100
AcDbCircle
 10
95.623155
 20
93.748089
 30
0.0
 40
0.2
100
AcDbArc
 50
90.0
 51
140.004968
  0
LINE
  5
173
100
AcDbEntity
  8
0
100
AcDbLine
 10
95.194344
 20
93.548139
 30
0.0
 11
95.469935
 21
93.876633
 31
0.0
  0
LINE
  5
174
100
AcDbEntity
  8
0
100
AcDbLine
 10
95.623155
 20
93.948089
 30
0.0
 11
95.688243
 21
93.948089
 31
0.0
  0
LINE
  5
175
100
AcDbEntity
  8
0
100
AcDbLine
 10
94.894324
 20
93.548109
 30
0.0
 11
95.194324
 21
93.548109
 31
0.0
  0
ARC
  5
176
100
AcDbEntity
  8
0
100
AcDbCircle
 10
95.327324
 20
93.148099
 30
0.0
 40
0.2
100
AcDbArc
 50
90.0
 51
180.0
  0
ARC
  5
177
100
AcDbEntity
  8
0
100
AcDbCircle
 10
95.688243
 20
93.748089
 30
0.0
 40
0.2
100
AcDbArc
 50
20.008605
 51
90.0
  0
LINE
  5
178
100
AcDbEntity
  8
0
100
AcDbLine
 10
95.327324
 20
93.348099
 30
0.0
 11
95.777324
 21
93.348099
 31
0.0
  0
LINE
  5
179
100
AcDbEntity
  8
0
100
AcDbLine
 10
95.777324
 20
93.148099
 30
0.0
 11
95.327324
 21
93.148099
 31
0.0
  0
ARC
  5
17A
100
AcDbEntity
  8
0
100
AcDbCircle
 10
94.894324
 20
93.748109
 30
0.0
 40
0.2
100
AcDbArc
 50
180.0
 51
270.0
  0
CIRCLE
  5
17B
100
AcDbEntity
  8
0
100
AcDbCircle
 10
99.194324
 20
91.448089
 30
0.0
 40
2.38125
  0
LINE
  5
17C
100
AcDbEntity
  8
0
100
AcDbLine
 10
96.332421
 20
92.948089
 30
0.0
 11
97.344904
 21
92.948089
 31
0.0
  0
LINE
  5
17D
100
AcDbEntity
  8
0
100
AcDbLine
 10
102.056226
 20
92.948089
 30
0.0
 11
101.043743
 21
92.948089
 31
0.0
  0
LINE
  5
17E
100
AcDbEntity
  8
0
100
AcDbLine
 10
92.694324
 20
101.698089
 30
0.0
 11
92.694424
 21
101.698089
 31
0.0
  0
LINE
  5
17F
100
AcDbEntity
  8
0
100
AcDbLine
 10
102.294324
 20
75.698089
 30
0.0
 11
102.294324
 21
83.698089
 31
0.0
  0
LINE
  5
180
100
AcDbEntity
  8
0
100
AcDbLine
 10
102.294324
 20
75.698089
 30
0.0
 11
106.694324
 21
75.698089
 31
0.0
  0
LINE
  5
181
100
AcDbEntity
  8
0
100
AcDbLine
 10
102.294324
 20
83.698089
 30
0.0
 11
106.694324
 21
83.698089
 31
0.0
  0
LINE
  5
182
100
AcDbEntity
  8
0
100
AcDbLine
 10
103.694324
 20
85.998089
 30
0.0
 11
105.044324
 21
85.998089
 31
0.0
  0
ARC
  5
183
100
AcDbEntity
  8
0
100
AcDbCircle
 10
102.694324
 20
87.698089
 30
0.0
 40
1.0
100
AcDbArc
 50
270.0
 51
0.0
  0
LINE
  5
184
100
AcDbEntity
  8
0
100
AcDbLine
 10
105.044324
 20
86.698089
 30
0.0
 11
106.694324
 21
86.698089
 31
0.0
  0
ARC
  5
185
100
AcDbEntity
  8
0
100
AcDbCircle
 10
102.694324
 20
95.698089
 30
0.0
 40
1.0
100
AcDbArc
 50
0.0
 51
90.0
  0
LINE
  5
186
100
AcDbEntity
  8
0
100
AcDbLine
 10
103.061324
 20
90.848099
 30
0.0
 11
103.061324
 21
93.148099
 31
0.0
  0
LINE
  5
187
100
AcDbEntity
  8
0
100
AcDbLine
 10
103.261324
 20
90.765109
 30
0.0
 11
103.261324
 21
93.148099
 31
0.0
  0
LINE
  5
188
100
AcDbEntity
  8
0
100
AcDbLine
 10
103.694324
 20
88.998089
 30
0.0
 11
105.044324
 21
88.998089
 31
0.0
  0
ARC
  5
189
100
AcDbEntity
  8
0
100
AcDbCircle
 10
102.191733
 20
89.848109
 30
0.0
 40
0.1
100
AcDbArc
 50
4.996761
 51
89.999501
  0
LINE
  5
18A
100
AcDbEntity
  8
0
100
AcDbLine
 10
102.511344
 20
90.015029
 30
0.0
 11
103.261344
 21
90.765019
 31
0.0
  0
LINE
  5
18B
100
AcDbEntity
  8
0
100
AcDbLine
 10
102.311344
 20
90.098099
 30
0.0
 11
103.061344
 21
90.848099
 31
0.0
  0
ARC
  5
18C
100
AcDbEntity
  8
0
100
AcDbCircle
 10
103.594324
 20
89.148109
 30
0.0
 40
0.1
100
AcDbArc
 50
0.0
 51
90.0
  0
LINE
  5
18D
100
AcDbEntity
  8
0
100
AcDbLine
 10
102.956324
 20
89.658109
 30
0.0
 11
103.109408
 21
89.530051
 31
0.0
  0
LINE
  5
18E
100
AcDbEntity
  8
0
100
AcDbLine
 10
103.134299
 20
89.248098
 30
0.0
 11
102.884694
 21
88.950599
 31
0.0
  0
ARC
  5
18F
100
AcDbEntity
  8
0
100
AcDbCircle
 10
102.981084
 20
89.376647
 30
0.0
 40
0.2
100
AcDbArc
 50
320.002934
 51
50.087027
  0
LINE
  5
190
100
AcDbEntity
  8
0
100
AcDbLine
 10
103.594324
 20
89.248109
 30
0.0
 11
103.134308
 21
89.248109
 31
0.0
  0
ARC
  5
191
100
AcDbEntity
  8
0
100
AcDbCircle
 10
102.65439
 20
89.143045
 30
0.0
 40
0.1
100
AcDbArc
 50
182.819818
 51
320.002154
  0
LINE
  5
192
100
AcDbEntity
  8
0
100
AcDbLine
 10
102.828314
 20
89.505129
 30
0.0
 11
102.981304
 21
89.377139
 31
0.0
  0
LINE
  5
193
100
AcDbEntity
  8
0
100
AcDbLine
 10
102.956324
 20
89.658109
 30
0.0
 11
102.828334
 21
89.505129
 31
0.0
  0
ARC
  5
194
100
AcDbEntity
  8
0
100
AcDbCircle
 10
102.65487
 20
89.143423
 30
0.0
 40
0.3
100
AcDbArc
 50
184.996761
 51
320.002934
  0
LINE
  5
195
100
AcDbEntity
  8
0
100
AcDbLine
 10
102.981324
 20
89.377119
 30
0.0
 11
102.730997
 21
89.078769
 31
0.0
  0
LINE
  5
196
100
AcDbEntity
  8
0
100
AcDbLine
 10
102.311324
 20
89.628099
 30
0.0
 11
102.311324
 21
90.098099
 31
0.0
  0
LINE
  5
197
100
AcDbEntity
  8
0
100
AcDbLine
 10
102.554511
 20
89.138125
 30
0.0
 11
102.511314
 21
90.015149
 31
0.0
  0
LINE
  5
198
100
AcDbEntity
  8
0
100
AcDbLine
 10
102.35601
 20
89.117293
 30
0.0
 11
102.291353
 21
89.856819
 31
0.0
  0
ARC
  5
199
100
AcDbEntity
  8
0
100
AcDbCircle
 10
103.061324
 20
93.148099
 30
0.0
 40
0.2
100
AcDbArc
 50
0.0
 51
90.0
  0
ARC
  5
19A
100
AcDbEntity
  8
0
100
AcDbCircle
 10
103.494324
 20
93.748109
 30
0.0
 40
0.2
100
AcDbArc
 50
270.0
 51
0.0
  0
LINE
  5
19B
100
AcDbEntity
  8
0
100
AcDbLine
 10
103.494324
 20
93.548109
 30
0.0
 11
103.194324
 21
93.548109
 31
0.0
  0
LINE
  5
19C
100
AcDbEntity
  8
0
100
AcDbLine
 10
103.194304
 20
93.548139
 30
0.0
 11
102.918713
 21
93.876633
 31
0.0
  0
LINE
  5
19D
100
AcDbEntity
  8
0
100
AcDbLine
 10
102.611324
 20
93.348099
 30
0.0
 11
102.611324
 21
93.148119
 31
0.0
  0
ARC
  5
19E
100
AcDbEntity
  8
0
100
AcDbCircle
 10
102.700405
 20
93.748089
 30
0.0
 40
0.2
100
AcDbArc
 50
90.0
 51
159.991395
  0
LINE
  5
19F
100
AcDbEntity
  8
0
100
AcDbLine
 10
102.765493
 20
93.948089
 30
0.0
 11
102.700405
 21
93.948089
 31
0.0
  0
LINE
  5
1A0
100
AcDbEntity
  8
0
100
AcDbLine
 10
102.512476
 20
93.816521
 30
0.0
 11
102.244154
 21
93.079657
 31
0.0
  0
LINE
  5
1A1
100
AcDbEntity
  8
0
100
AcDbLine
 10
102.611324
 20
93.148099
 30
0.0
 11
103.061324
 21
93.148099
 31
0.0
  0
LINE
  5
1A2
100
AcDbEntity
  8
0
100
AcDbLine
 10
103.061324
 20
93.348099
 30
0.0
 11
102.611324
 21
93.348099
 31
0.0
  0
ARC
  5
1A3
100
AcDbEntity
  8
0
100
AcDbCircle
 10
102.765493
 20
93.748089
 30
0.0
 40
0.2
100
AcDbArc
 50
39.995032
 51
90.0
  0
LINE
  5
1A4
100
AcDbEntity
  8
CENTER
  6
CENTER
 62
     1
100
AcDbLine
 10
91.694324
 20
123.698089
 30
0.0
 11
107.694324
 21
123.698089
 31
0.0
  0
LINE
  5
1A5
100
AcDbEntity
  8
0
100
AcDbLine
 10
94.694324
 20
121.548089
 30
0.0
 11
102.294324
 21
121.548089
 31
0.0
  0
LINE
  5
1A6
100
AcDbEntity
  8
0
 62
     3
100
AcDbLine
 10
94.694324
 20
121.198089
 30
0.0
 11
102.294324
 21
121.198089
 31
0.0
  0
LINE
  5
1A7
100
AcDbEntity
  8
0
 62
     3
100
AcDbLine
 10
94.694324
 20
126.198089
 30
0.0
 11
102.294324
 21
126.198089
 31
0.0
  0
LINE
  5
1A8
100
AcDbEntity
  8
0
100
AcDbLine
 10
94.694324
 20
125.848089
 30
0.0
 11
102.294324
 21
125.848089
 31
0.0
  0
LINE
  5
1A9
100
AcDbEntity
  8
0
100
AcDbLine
 10
102.191733
 20
113.448069
 30
0.0
 11
101.043744
 21
113.448059
 31
0.0
  0
LINE
  5
1AA
100
AcDbEntity
  8
0
100
AcDbLine
 10
95.694324
 20
116.698089
 30
0.0
 11
103.694324
 21
116.698089
 31
0.0
  0
ARC
  5
1AB
100
AcDbEntity
  8
0
100
AcDbCircle
 10
102.056226
 20
110.248089
 30
0.0
 40
0.2
100
AcDbArc
 50
20.008605
 51
90.0
  0
LINE
  5
1AC
100
AcDbEntity
  8
0
100
AcDbLine
 10
95.694324
 20
106.698089
 30
0.0
 11
102.694324
 21
106.698089
 31
0.0
  0
LINE
  5
1AD
100
AcDbEntity
  8
0
100
AcDbLine
 10
94.694324
 20
128.698089
 30
0.0
 11
106.694324
 21
128.698089
 31
0.0
  0
LINE
  5
1AE
100
AcDbEntity
  8
0
100
AcDbLine
 10
94.694324
 20
128.698089
 30
0.0
 11
94.694324
 21
119.698089
 31
0.0
  0
CIRCLE
  5
1AF
100
AcDbEntity
  8
0
100
AcDbCircle
 10
99.194324
 20
111.948089
 30
0.0
 40
2.38125
  0
LINE
  5
1B0
100
AcDbEntity
  8
0
100
AcDbLine
 10
95.877304
 20
113.381149
 30
0.0
 11
95.127304
 21
112.631159
 31
0.0
  0
LINE
  5
1B1
100
AcDbEntity
  8
0
100
AcDbLine
 10
96.077304
 20
113.298079
 30
0.0
 11
95.327304
 21
112.548079
 31
0.0
  0
ARC
  5
1B2
100
AcDbEntity
  8
0
100
AcDbCircle
 10
96.332421
 20
110.248089
 30
0.0
 40
0.2
100
AcDbArc
 50
90.0
 51
159.991395
  0
ARC
  5
1B3
100
AcDbEntity
  8
0
100
AcDbCircle
 10
95.694324
 20
107.698089
 30
0.0
 40
1.0
100
AcDbArc
 50
180.0
 51
270.0
  0
LINE
  5
1B4
100
AcDbEntity
  8
0
100
AcDbLine
 10
95.327324
 20
112.548079
 30
0.0
 11
95.327324
 21
110.248079
 31
0.0
  0
LINE
  5
1B5
100
AcDbEntity
  8
0
100
AcDbLine
 10
95.127324
 20
112.631069
 30
0.0
 11
95.127324
 21
110.248079
 31
0.0
  0
LINE
  5
1B6
100
AcDbEntity
  8
0
100
AcDbLine
 10
95.777324
 20
110.248079
 30
0.0
 11
95.327324
 21
110.248079
 31
0.0
  0
LINE
  5
1B7
100
AcDbEntity
  8
0
100
AcDbLine
 10
94.894324
 20
109.848069
 30
0.0
 11
95.194324
 21
109.848069
 31
0.0
  0
LINE
  5
1B8
100
AcDbEntity
  8
0
100
AcDbLine
 10
95.623155
 20
109.448089
 30
0.0
 11
95.688243
 21
109.448089
 31
0.0
  0
LINE
  5
1B9
100
AcDbEntity
  8
0
100
AcDbLine
 10
95.194344
 20
109.848039
 30
0.0
 11
95.469935
 21
109.519545
 31
0.0
  0
ARC
  5
1BA
100
AcDbEntity
  8
0
100
AcDbCircle
 10
95.623155
 20
109.648089
 30
0.0
 40
0.2
100
AcDbArc
 50
219.995032
 51
270.0
  0
LINE
  5
1BB
100
AcDbEntity
  8
0
100
AcDbLine
 10
95.327324
 20
110.048079
 30
0.0
 11
95.777324
 21
110.048079
 31
0.0
  0
ARC
  5
1BC
100
AcDbEntity
  8
0
100
AcDbCircle
 10
95.688243
 20
109.648089
 30
0.0
 40
0.2
100
AcDbArc
 50
270.0
 51
339.991395
  0
ARC
  5
1BD
100
AcDbEntity
  8
0
100
AcDbCircle
 10
95.327324
 20
110.248079
 30
0.0
 40
0.2
100
AcDbArc
 50
180.0
 51
270.0
  0
LINE
  5
1BE
100
AcDbEntity
  8
0
100
AcDbLine
 10
95.777324
 20
110.048079
 30
0.0
 11
95.777324
 21
110.248059
 31
0.0
  0
LINE
  5
1BF
100
AcDbEntity
  8
0
100
AcDbLine
 10
95.876171
 20
109.579657
 30
0.0
 11
96.144493
 21
110.316521
 31
0.0
  0
ARC
  5
1C0
100
AcDbEntity
  8
0
100
AcDbCircle
 10
94.894324
 20
109.648069
 30
0.0
 40
0.2
100
AcDbArc
 50
90.0
 51
180.0
  0
LINE
  5
1C1
100
AcDbEntity
  8
0
100
AcDbLine
 10
96.332421
 20
110.448089
 30
0.0
 11
97.344904
 21
110.448089
 31
0.0
  0
LINE
  5
1C2
100
AcDbEntity
  8
0
100
AcDbLine
 10
102.056226
 20
110.448089
 30
0.0
 11
101.043743
 21
110.448089
 31
0.0
  0
LINE
  5
1C3
100
AcDbEntity
  8
0
100
AcDbLine
 10
96.196914
 20
113.448069
 30
0.0
 11
97.344904
 21
113.448059
 31
0.0
  0
LINE
  5
1C4
100
AcDbEntity
  8
0
100
AcDbLine
 10
92.694324
 20
113.698089
 30
0.0
 11
94.694324
 21
113.698089
 31
0.0
  0
LINE
  5
1C5
100
AcDbEntity
  8
0
100
AcDbLine
 10
96.077324
 20
113.768079
 30
0.0
 11
96.077324
 21
113.298079
 31
0.0
  0
LINE
  5
1C6
100
AcDbEntity
  8
0
100
AcDbLine
 10
95.834136
 20
114.258053
 30
0.0
 11
95.877334
 21
113.381029
 31
0.0
  0
LINE
  5
1C7
100
AcDbEntity
  8
0
100
AcDbLine
 10
96.032637
 20
114.278885
 30
0.0
 11
96.097295
 21
113.539359
 31
0.0
  0
ARC
  5
1C8
100
AcDbEntity
  8
0
100
AcDbCircle
 10
96.196915
 20
113.548069
 30
0.0
 40
0.1
100
AcDbArc
 50
184.996761
 51
269.999501
  0
LINE
  5
1C9
100
AcDbEntity
  8
0
100
AcDbLine
 10
95.560334
 20
113.891049
 30
0.0
 11
95.407344
 21
114.019039
 31
0.0
  0
LINE
  5
1CA
100
AcDbEntity
  8
0
100
AcDbLine
 10
95.432324
 20
113.738069
 30
0.0
 11
95.560314
 21
113.891049
 31
0.0
  0
LINE
  5
1CB
100
AcDbEntity
  8
0
100
AcDbLine
 10
95.407324
 20
114.019059
 30
0.0
 11
95.65765
 21
114.317409
 31
0.0
  0
LINE
  5
1CC
100
AcDbEntity
  8
0
100
AcDbLine
 10
95.432324
 20
113.738069
 30
0.0
 11
95.279239
 21
113.866126
 31
0.0
  0
LINE
  5
1CD
100
AcDbEntity
  8
0
100
AcDbLine
 10
95.254348
 20
114.14808
 30
0.0
 11
95.503954
 21
114.445579
 31
0.0
  0
ARC
  5
1CE
100
AcDbEntity
  8
0
100
AcDbCircle
 10
95.407564
 20
114.01953
 30
0.0
 40
0.2
100
AcDbArc
 50
140.002934
 51
230.087027
  0
LINE
  5
1CF
100
AcDbEntity
  8
0
100
AcDbLine
 10
94.794324
 20
114.148069
 30
0.0
 11
95.254339
 21
114.148069
 31
0.0
  0
ARC
  5
1D0
100
AcDbEntity
  8
0
100
AcDbCircle
 10
95.733777
 20
114.252755
 30
0.0
 40
0.3
100
AcDbArc
 50
4.996761
 51
140.002934
  0
ARC
  5
1D1
100
AcDbEntity
  8
0
100
AcDbCircle
 10
95.734257
 20
114.253133
 30
0.0
 40
0.1
100
AcDbArc
 50
2.819818
 51
140.002154
  0
ARC
  5
1D2
100
AcDbEntity
  8
0
100
AcDbCircle
 10
95.694324
 20
115.698089
 30
0.0
 40
1.0
100
AcDbArc
 50
90.0
 51
180.0
  0
ARC
  5
1D3
100
AcDbEntity
  8
0
100
AcDbCircle
 10
94.794324
 20
114.248069
 30
0.0
 40
0.1
100
AcDbArc
 50
180.0
 51
270.0
  0
LINE
  5
1D4
100
AcDbEntity
  8
0
100
AcDbLine
 10
92.694324
 20
119.698089
 30
0.0
 11
94.694324
 21
119.698089
 31
0.0
  0
LINE
  5
1D5
100
AcDbEntity
  8
0
100
AcDbLine
 10
102.294324
 20
127.698089
 30
0.0
 11
102.294324
 21
119.698089
 31
0.0
  0
LINE
  5
1D6
100
AcDbEntity
  8
0
100
AcDbLine
 10
102.311344
 20
113.298079
 30
0.0
 11
103.061344
 21
112.548079
 31
0.0
  0
LINE
  5
1D7
100
AcDbEntity
  8
0
100
AcDbLine
 10
102.511344
 20
113.381149
 30
0.0
 11
103.261344
 21
112.631159
 31
0.0
  0
ARC
  5
1D8
100
AcDbEntity
  8
0
100
AcDbCircle
 10
102.694324
 20
107.698089
 30
0.0
 40
1.0
100
AcDbArc
 50
270.0
 51
0.0
  0
LINE
  5
1D9
100
AcDbEntity
  8
0
100
AcDbLine
 10
103.261324
 20
112.631069
 30
0.0
 11
103.261324
 21
110.248079
 31
0.0
  0
LINE
  5
1DA
100
AcDbEntity
  8
0
100
AcDbLine
 10
103.061324
 20
112.548079
 30
0.0
 11
103.061324
 21
110.248079
 31
0.0
  0
LINE
  5
1DB
100
AcDbEntity
  8
0
100
AcDbLine
 10
103.194304
 20
109.848039
 30
0.0
 11
102.918713
 21
109.519545
 31
0.0
  0
LINE
  5
1DC
100
AcDbEntity
  8
0
100
AcDbLine
 10
103.494324
 20
109.848069
 30
0.0
 11
103.194324
 21
109.848069
 31
0.0
  0
ARC
  5
1DD
100
AcDbEntity
  8
0
100
AcDbCircle
 10
103.494324
 20
109.648069
 30
0.0
 40
0.2
100
AcDbArc
 50
0.0
 51
90.0
  0
ARC
  5
1DE
100
AcDbEntity
  8
0
100
AcDbCircle
 10
103.061324
 20
110.248079
 30
0.0
 40
0.2
100
AcDbArc
 50
270.0
 51
0.0
  0
LINE
  5
1DF
100
AcDbEntity
  8
0
100
AcDbLine
 10
102.765493
 20
109.448089
 30
0.0
 11
102.700405
 21
109.448089
 31
0.0
  0
ARC
  5
1E0
100
AcDbEntity
  8
0
100
AcDbCircle
 10
102.700405
 20
109.648089
 30
0.0
 40
0.2
100
AcDbArc
 50
200.008605
 51
270.0
  0
LINE
  5
1E1
100
AcDbEntity
  8
0
100
AcDbLine
 10
102.512476
 20
109.579657
 30
0.0
 11
102.244154
 21
110.316521
 31
0.0
  0
LINE
  5
1E2
100
AcDbEntity
  8
0
100
AcDbLine
 10
102.611324
 20
110.048079
 30
0.0
 11
102.611324
 21
110.248059
 31
0.0
  0
ARC
  5
1E3
100
AcDbEntity
  8
0
100
AcDbCircle
 10
102.765493
 20
109.648089
 30
0.0
 40
0.2
100
AcDbArc
 50
270.0
 51
320.004968
  0
LINE
  5
1E4
100
AcDbEntity
  8
0
100
AcDbLine
 10
103.061324
 20
110.048079
 30
0.0
 11
102.611324
 21
110.048079
 31
0.0
  0
LINE
  5
1E5
100
AcDbEntity
  8
0
100
AcDbLine
 10
102.611324
 20
110.248079
 30
0.0
 11
103.061324
 21
110.248079
 31
0.0
  0
LINE
  5
1E6
100
AcDbEntity
  8
0
100
AcDbLine
 10
103.694324
 20
114.398089
 30
0.0
 11
105.044324
 21
114.398089
 31
0.0
  0
LINE
  5
1E7
100
AcDbEntity
  8
0
100
AcDbLine
 10
103.594324
 20
114.148069
 30
0.0
 11
103.134308
 21
114.148069
 31
0.0
  0
ARC
  5
1E8
100
AcDbEntity
  8
0
100
AcDbCircle
 10
102.981084
 20
114.01953
 30
0.0
 40
0.2
100
AcDbArc
 50
309.912973
 51
39.997066
  0
LINE
  5
1E9
100
AcDbEntity
  8
0
100
AcDbLine
 10
103.134299
 20
114.14808
 30
0.0
 11
102.884694
 21
114.445579
 31
0.0
  0
LINE
  5
1EA
100
AcDbEntity
  8
0
100
AcDbLine
 10
102.956324
 20
113.738069
 30
0.0
 11
103.109408
 21
113.866126
 31
0.0
  0
ARC
  5
1EB
100
AcDbEntity
  8
0
100
AcDbCircle
 10
103.594324
 20
114.248069
 30
0.0
 40
0.1
100
AcDbArc
 50
270.0
 51
0.0
  0
LINE
  5
1EC
100
AcDbEntity
  8
0
100
AcDbLine
 10
102.35601
 20
114.278885
 30
0.0
 11
102.291353
 21
113.539359
 31
0.0
  0
LINE
  5
1ED
100
AcDbEntity
  8
0
100
AcDbLine
 10
102.554511
 20
114.258053
 30
0.0
 11
102.511314
 21
113.381029
 31
0.0
  0
LINE
  5
1EE
100
AcDbEntity
  8
0
100
AcDbLine
 10
102.311324
 20
113.768079
 30
0.0
 11
102.311324
 21
113.298079
 31
0.0
  0
ARC
  5
1EF
100
AcDbEntity
  8
0
100
AcDbCircle
 10
102.65439
 20
114.253133
 30
0.0
 40
0.1
100
AcDbArc
 50
39.997846
 51
177.180182
  0
ARC
  5
1F0
100
AcDbEntity
  8
0
100
AcDbCircle
 10
102.191733
 20
113.548069
 30
0.0
 40
0.1
100
AcDbArc
 50
270.000499
 51
355.003239
  0
ARC
  5
1F1
100
AcDbEntity
  8
0
100
AcDbCircle
 10
102.694324
 20
115.698089
 30
0.0
 40
1.0
100
AcDbArc
 50
0.0
 51
90.0
  0
LINE
  5
1F2
100
AcDbEntity
  8
0
100
AcDbLine
 10
102.981324
 20
114.019059
 30
0.0
 11
102.730997
 21
114.317409
 31
0.0
  0
ARC
  5
1F3
100
AcDbEntity
  8
0
100
AcDbCircle
 10
102.65487
 20
114.252755
 30
0.0
 40
0.3
100
AcDbArc
 50
39.997066
 51
175.003239
  0
LINE
  5
1F4
100
AcDbEntity
  8
0
100
AcDbLine
 10
102.956324
 20
113.738069
 30
0.0
 11
102.828334
 21
113.891049
 31
0.0
  0
LINE
  5
1F5
100
AcDbEntity
  8
0
100
AcDbLine
 10
102.828314
 20
113.891049
 30
0.0
 11
102.981304
 21
114.019039
 31
0.0
  0
LINE
  5
1F6
100
AcDbEntity
  8
0
100
AcDbLine
 10
105.044324
 20
116.698089
 30
0.0
 11
106.694324
 21
116.698089
 31
0.0
  0
LINE
  5
1F7
100
AcDbEntity
  8
0
100
AcDbLine
 10
102.294324
 20
119.698089
 30
0.0
 11
106.694324
 21
119.698089
 31
0.0
  0
LINE
  5
1F8
100
AcDbEntity
  8
0
100
AcDbLine
 10
103.694324
 20
117.398089
 30
0.0
 11
105.044324
 21
117.398089
 31
0.0
  0
LINE
  5
1F9
100
AcDbEntity
  8
0
100
AcDbLine
 10
102.294324
 20
127.698089
 30
0.0
 11
106.694324
 21
127.698089
 31
0.0
  0
LINE
  5
1FA
100
AcDbEntity
  8
CENTER
  6
CENTER
 62
     1
100
AcDbLine
 10
183.130413
 20
133.634088
 30
0.0
 11
183.130413
 21
69.76209
 31
0.0
  0
CIRCLE
  5
1FB
100
AcDbEntity
  8
CENTER
  6
CENTER
 62
     1
100
AcDbCircle
 10
183.130413
 20
101.698089
 30
0.0
 40
22.0
  0
LWPOLYLINE
  5
1FC
100
AcDbEntity
  8
0
100
AcDbPolyline
 90
        2
 70
     0
 43
0.0
 10
180.28117
 20
128.547331
 10
156.28117
 20
104.547331
  0
LWPOLYLINE
  5
200
100
AcDbEntity
  8
0
100
AcDbPolyline
 90
        2
 70
     0
 43
0.0
 10
209.979655
 20
104.547331
 10
185.979655
 20
128.547331
  0
CIRCLE
  5
204
100
AcDbEntity
  8
0
  6
DASHED
 62
     3
100
AcDbCircle
 10
183.130413
 20
101.698089
 30
0.0
 40
18.0
  0
CIRCLE
  5
205
100
AcDbEntity
  8
0
100
AcDbCircle
 10
161.130413
 20
101.698089
 30
0.0
 40
4.0
  0
CIRCLE
  5
206
100
AcDbEntity
  8
0
100
AcDbCircle
 10
205.130413
 20
101.698089
 30
0.0
 40
4.0
  0
CIRCLE
  5
207
100
AcDbEntity
  8
0
100
AcDbCircle
 10
183.130413
 20
101.698089
 30
0.0
 40
15.0
  0
CIRCLE
  5
208
100
AcDbEntity
  8
0
100
AcDbCircle
 10
183.130413
 20
101.698089
 30
0.0
 40
5.0
  0
LINE
  5
209
100
AcDbEntity
  8
CENTER
  6
CENTER
 62
     1
100
AcDbLine
 10
151.194414
 20
101.698089
 30
0.0
 11
215.066411
 21
101.698089
 31
0.0
  0
LWPOLYLINE
  5
20A
100
AcDbEntity
  8
0
100
AcDbPolyline
 90
        2
 70
     0
 43
0.0
 10
185.979655
 20
74.848847
 10
209.979655
 20
98.848847
  0
LWPOLYLINE
  5
20E
100
AcDbEntity
  8
0
100
AcDbPolyline
 90
        2
 70
     0
 43
0.0
 10
156.28117
 20
98.848847
 10
180.28117
 20
74.848847
  0
CIRCLE
  5
212
100
AcDbEntity
  8
0
 62
     3
100
AcDbCircle
 10
161.130413
 20
101.698089
 30
0.0
 40
2.5
  0
CIRCLE
  5
213
100
AcDbEntity
  8
0
100
AcDbCircle
 10
161.130413
 20
101.698089
 30
0.0
 40
2.15
  0
ARC
  5
214
100
AcDbEntity
  8
0
100
AcDbCircle
 10
183.130413
 20
101.698089
 30
0.0
 40
27.0
100
AcDbArc
 50
173.942441
 51
186.057559
  0
ARC
  5
215
100
AcDbEntity
  8
0
100
AcDbCircle
 10
183.130413
 20
101.698089
 30
0.0
 40
27.0
100
AcDbArc
 50
263.942441
 51
276.057559
  0
CIRCLE
  5
216
100
AcDbEntity
  8
0
 62
     3
100
AcDbCircle
 10
183.130413
 20
79.698089
 30
0.0
 40
2.5
  0
CIRCLE
  5
217
100
AcDbEntity
  8
0
100
AcDbCircle
 10
183.130413
 20
79.698089
 30
0.0
 40
2.15
  0
CIRCLE
  5
218
100
AcDbEntity
  8
0
100
AcDbCircle
 10
183.130413
 20
79.698089
 30
0.0
 40
4.0
  0
CIRCLE
  5
219
100
AcDbEntity
  8
0
 62
     3
100
AcDbCircle
 10
205.130413
 20
101.698089
 30
0.0
 40
2.5
  0
CIRCLE
  5
21A
100
AcDbEntity
  8
0
100
AcDbCircle
 10
205.130413
 20
101.698089
 30
0.0
 40
2.15
  0
ARC
  5
21B
100
AcDbEntity
  8
0
100
AcDbCircle
 10
183.130413
 20
101.698089
 30
0.0
 40
27.0
100
AcDbArc
 50
353.942441
 51
6.057559
  0
CIRCLE
  5
21C
100
AcDbEntity
  8
0
 62
     3
100
AcDbCircle
 10
183.130413
 20
123.698089
 30
0.0
 40
2.5
  0
CIRCLE
  5
21D
100
AcDbEntity
  8
0
100
AcDbCircle
 10
183.130413
 20
123.698089
 30
0.0
 40
4.0
  0
CIRCLE
  5
21E
100
AcDbEntity
  8
0
100
AcDbCircle
 10
183.130413
 20
123.698089
 30
0.0
 40
2.15
  0
ARC
  5
21F
100
AcDbEntity
  8
0
100
AcDbCircle
 10
183.130413
 20
101.698089
 30
0.0
 40
27.0
100
AcDbArc
 50
83.942441
 51
96.057559
  0
ENDSEC
  0
SECTION
  2
OBJECTS
  0
DICTIONARY
  5
115
100
AcDbDictionary
  3
ACAD_GROUP
350
116
  3
ACAD_LAYOUT
350
122
  3
ACAD_MLINESTYLE
350
11F
  3
ACAD_PLOTSETTINGS
350
121
  3
ACAD_PLOTSTYLENAME
350
117
  3
ACDBHEADERROUNDTRIPXREC
350
22C
  3
AcDbVariableDictionary
350
255
  0
DICTIONARY
  5
22A
100
AcDbDictionary
280
     1
  3
ACAD_XREC_ROUNDTRIP
360
22B
  0
DICTIONARY
  5
226
100
AcDbDictionary
280
     1
  3
ACAD_XREC_ROUNDTRIP
360
227
  0
DICTIONARY
  5
228
100
AcDbDictionary
280
     1
  3
ACAD_XREC_ROUNDTRIP
360
229
  0
DICTIONARY
  5
253
100
AcDbDictionary
280
     1
  3
ACAD_XREC_ROUNDTRIP
360
254
  0
DICTIONARY
  5
222
100
AcDbDictionary
280
     1
  3
ACAD_LAYOUTSELFREF
360
252
  3
ACAD_XREC_ROUNDTRIP
360
223
  0
DICTIONARY
  5
224
100
AcDbDictionary
280
     1
  3
ACAD_LAYOUTSELFREF
360
251
  3
ACAD_XREC_ROUNDTRIP
360
225
  0
DICTIONARY
  5
116
102
{ACAD_REACTORS
330
115
102
}
100
AcDbDictionary
  0
DICTIONARY
  5
122
102
{ACAD_XDICTIONARY
360
24F
102
}
102
{ACAD_REACTORS
330
115
102
}
100
AcDbDictionary
  3
MODEL
350
12A
  3
ﾚｲｱｳﾄ1
350
126
  0
DICTIONARY
  5
11F
102
{ACAD_XDICTIONARY
360
24D
102
}
102
{ACAD_REACTORS
330
115
102
}
100
AcDbDictionary
  3
STANDARD
350
120
  0
DICTIONARY
  5
121
102
{ACAD_REACTORS
330
115
102
}
100
AcDbDictionary
  0
ACAD_PROXY_OBJECT
  5
117
102
{ACAD_REACTORS
330
115
102
}
100
AcDbProxyObject
 90
      499
 91
      500
 93
       86
310
405010041939BDC9B585B0
350
118
340
118
 94
        0
  0
DICTIONARY
  5
22C
102
{ACAD_REACTORS
330
115
102
}
100
AcDbDictionary
  3
CEPSNTYPE
350
236
  3
DIMSTYLEDATA
350
23A
  3
FINGERPRINTGUID
350
237
  3
HYPERLINKBASE
350
22F
  3
INSUNITS
350
235
  3
LAYOUTDICT
350
231
  3
LWETCUNION
350
234
  3
PLOTSETDICT
350
232
  3
PLOTSTYLNAMDICT
350
233
  3
PSVPSCALE
350
239
  3
PUCSBASE
350
23D
  3
PUCSORGBACK
350
243
  3
PUCSORGBOTTOM
350
23F
  3
PUCSORGFRONT
350
242
  3
PUCSORGLEFT
350
240
  3
PUCSORGRIGHT
350
241
  3
PUCSORGTOP
350
23E
  3
PUCSORTHOREF
350
23B
  3
PUCSORTHOVIEW
350
23C
  3
STYLESHEET
350
230
  3
TSTACKALIGN
350
22D
  3
TSTACKSIZE
350
22E
  3
UCSBASE
350
246
  3
UCSORGBACK
350
24C
  3
UCSORGBOTTOM
350
248
  3
UCSORGFRONT
350
24B
  3
UCSORGLEFT
350
249
  3
UCSORGRIGHT
350
24A
  3
UCSORGTOP
350
247
  3
UCSORTHOREF
350
244
  3
UCSORTHOVIEW
350
245
  3
VERSIONGUID
350
238
  0
DICTIONARY
  5
255
102
{ACAD_REACTORS
330
115
102
}
100
AcDbDictionary
  3
DIMASSOC
350
256
  0
XRECORD
  5
22B
102
{ACAD_REACTORS
330
22A
102
}
100
AcDbXrecord
102
EXTNAMES
  1
*ACTIVE
  2
*Active
102
UCS
 74
     0
 71
     0
 10
0.0
 20
0.0
 30
0.0
 10
1.0
 20
0.0
 30
0.0
 10
0.0
 20
1.0
 30
0.0
146
0.0
 79
     0
102
VIEW
281
     0
  0
XRECORD
  5
227
102
{ACAD_REACTORS
330
226
102
}
100
AcDbXrecord
102
EXTNAMES
  1
BYBLOCK
  2
ByBlock
  0
XRECORD
  5
229
102
{ACAD_REACTORS
330
228
102
}
100
AcDbXrecord
102
EXTNAMES
  1
BYLAYER
  2
ByLayer
  0
XRECORD
  5
254
102
{ACAD_REACTORS
330
253
102
}
100
AcDbXrecord
102
ACADR14ROUNDTRIP
1000
DSTYLE
1002
{
1070
   279
 70
     2
1002
}
  0
XRECORD
  5
252
102
{ACAD_REACTORS
330
222
102
}
100
AcDbXrecord
340
127
  0
XRECORD
  5
223
102
{ACAD_REACTORS
330
222
102
}
100
AcDbXrecord
102
EXTNAMES
  1
*MODEL_SPACE
  2
*Model_Space
  0
XRECORD
  5
251
102
{ACAD_REACTORS
330
224
102
}
100
AcDbXrecord
340
123
  0
XRECORD
  5
225
102
{ACAD_REACTORS
330
224
102
}
100
AcDbXrecord
102
EXTNAMES
  1
*PAPER_SPACE
  2
*Paper_Space
  0
DICTIONARY
  5
24F
100
AcDbDictionary
280
     1
  3
ACAD_XREC_ROUNDTRIP
360
250
  0
ACAD_PROXY_OBJECT
  5
12A
102
{ACAD_REACTORS
330
122
102
}
100
AcDbProxyObject
 90
      499
 91
      502
 93
      836
310
932433A5C50524F4752414D2046494C45535C4D4454365C706C6F74746572735C526F6C616E64204458592D313235302E7063332C01AAAAAAAAA5A69054D6F64656C901A800000000000000000000000000000000000000000000A1000000000000008902A6A6AAAA0
330
127
330
0
340
0
340
0
 94
        0
  0
ACAD_PROXY_OBJECT
  5
126
102
{ACAD_REACTORS
330
122
102
}
100
AcDbProxyObject
 90
      499
 91
      502
 93
     1244
310
932433A5C50524F4752414D2046494C45535C4D4454365C706C6F74746572735C526F6C616E64204458592D313235302E7063332C00AAAAAA416AA59106906DAB2B1B3C431406A800000000000000000000000000000000000000000101E900000000000241C902A6A6A10232D5E076BC5510408CB5781DAF154410232D5E0
310
76BC5510408CB5781DAF15C410232D5E076BC5710408CB5781DAF15C40
330
123
330
0
340
0
340
0
 94
        0
  0
DICTIONARY
  5
24D
100
AcDbDictionary
280
     1
  3
ACAD_XREC_ROUNDTRIP
360
24E
  0
MLINESTYLE
  5
120
102
{ACAD_REACTORS
330
11F
102
}
100
AcDbMlineStyle
  2
STANDARD
 70
     0
  3

 62
   256
 51
90.0
 52
90.0
 71
     2
 49
0.5
 62
   256
  6
BYLAYER
 49
-0.5
 62
   256
  6
BYLAYER
  0
ACAD_PROXY_OBJECT
  5
118
102
{ACAD_REACTORS
330
117
102
}
100
AcDbProxyObject
 90
      499
 91
      501
 93
        0
 94
        0
  0
XRECORD
  5
236
102
{ACAD_REACTORS
330
22C
102
}
100
AcDbXrecord
 90
        0
  0
XRECORD
  5
23A
102
{ACAD_REACTORS
330
22C
102
}
100
AcDbXrecord
1000
DSTYLE
1002
{
1070
   341
340
13E
1070
   342
340
138
1070
   343
340
13E
1070
   344
340
13E
1002
}
  0
XRECORD
  5
237
102
{ACAD_REACTORS
330
22C
102
}
100
AcDbXrecord
  1
{47B8EF90-1505-416A-8717-8A3585E3602B}
  0
XRECORD
  5
22F
102
{ACAD_REACTORS
330
22C
102
}
100
AcDbXrecord
  1

  0
XRECORD
  5
235
102
{ACAD_REACTORS
330
22C
102
}
100
AcDbXrecord
 90
        0
  0
XRECORD
  5
231
102
{ACAD_REACTORS
330
22C
102
}
100
AcDbXrecord
340
122
  0
XRECORD
  5
234
102
{ACAD_REACTORS
330
22C
102
}
100
AcDbXrecord
 90
    10781
  0
XRECORD
  5
232
102
{ACAD_REACTORS
330
22C
102
}
100
AcDbXrecord
340
121
  0
XRECORD
  5
233
102
{ACAD_REACTORS
330
22C
102
}
100
AcDbXrecord
340
117
  0
XRECORD
  5
239
102
{ACAD_REACTORS
330
22C
102
}
100
AcDbXrecord
 40
0.0
  0
XRECORD
  5
23D
102
{ACAD_REACTORS
330
22C
102
}
100
AcDbXrecord
340
0
  0
XRECORD
  5
243
102
{ACAD_REACTORS
330
22C
102
}
100
AcDbXrecord
 10
0.0
 20
0.0
 30
0.0
  0
XRECORD
  5
23F
102
{ACAD_REACTORS
330
22C
102
}
100
AcDbXrecord
 10
0.0
 20
0.0
 30
0.0
  0
XRECORD
  5
242
102
{ACAD_REACTORS
330
22C
102
}
100
AcDbXrecord
 10
0.0
 20
0.0
 30
0.0
  0
XRECORD
  5
240
102
{ACAD_REACTORS
330
22C
102
}
100
AcDbXrecord
 10
0.0
 20
0.0
 30
0.0
  0
XRECORD
  5
241
102
{ACAD_REACTORS
330
22C
102
}
100
AcDbXrecord
 10
0.0
 20
0.0
 30
0.0
  0
XRECORD
  5
23E
102
{ACAD_REACTORS
330
22C
102
}
100
AcDbXrecord
 10
0.0
 20
0.0
 30
0.0
  0
XRECORD
  5
23B
102
{ACAD_REACTORS
330
22C
102
}
100
AcDbXrecord
340
0
  0
XRECORD
  5
23C
102
{ACAD_REACTORS
330
22C
102
}
100
AcDbXrecord
 70
     0
  0
XRECORD
  5
230
102
{ACAD_REACTORS
330
22C
102
}
100
AcDbXrecord
  1

  0
XRECORD
  5
22D
102
{ACAD_REACTORS
330
22C
102
}
100
AcDbXrecord
 90
        1
  0
XRECORD
  5
22E
102
{ACAD_REACTORS
330
22C
102
}
100
AcDbXrecord
 90
       70
  0
XRECORD
  5
246
102
{ACAD_REACTORS
330
22C
102
}
100
AcDbXrecord
340
0
  0
XRECORD
  5
24C
102
{ACAD_REACTORS
330
22C
102
}
100
AcDbXrecord
 10
0.0
 20
0.0
 30
0.0
  0
XRECORD
  5
248
102
{ACAD_REACTORS
330
22C
102
}
100
AcDbXrecord
 10
0.0
 20
0.0
 30
0.0
  0
XRECORD
  5
24B
102
{ACAD_REACTORS
330
22C
102
}
100
AcDbXrecord
 10
0.0
 20
0.0
 30
0.0
  0
XRECORD
  5
249
102
{ACAD_REACTORS
330
22C
102
}
100
AcDbXrecord
 10
0.0
 20
0.0
 30
0.0
  0
XRECORD
  5
24A
102
{ACAD_REACTORS
330
22C
102
}
100
AcDbXrecord
 10
0.0
 20
0.0
 30
0.0
  0
XRECORD
  5
247
102
{ACAD_REACTORS
330
22C
102
}
100
AcDbXrecord
 10
0.0
 20
0.0
 30
0.0
  0
XRECORD
  5
244
102
{ACAD_REACTORS
330
22C
102
}
100
AcDbXrecord
340
0
  0
XRECORD
  5
245
102
{ACAD_REACTORS
330
22C
102
}
100
AcDbXrecord
 70
     0
  0
XRECORD
  5
238
102
{ACAD_REACTORS
330
22C
102
}
100
AcDbXrecord
  1
{A2AD9ABC-ABBC-4A44-BA45-2A162902B5C3}
  0
DICTIONARYVAR
  5
256
102
{ACAD_REACTORS
330
255
102
}
100
DictionaryVariables
280
     0
  1
1
  0
XRECORD
  5
250
102
{ACAD_REACTORS
330
24F
102
}
100
AcDbXrecord
102
EXTNAMES
  1
MODEL
  2
Model
  0
XRECORD
  5
24E
102
{ACAD_REACTORS
330
24D
102
}
100
AcDbXrecord
102
EXTNAMES
  1
STANDARD
  2
Standard
  0
ENDSEC
  0
EOF
