  0
SECTION
  2
HEADER
  9
$ACADVER
  1
AC1014
  9
$ACADMAINTVER
 70
     0
  9
$DWGCODEPAGE
  3
ANSI_932
  9
$INSBASE
 10
0.0
 20
0.0
 30
0.0
  9
$EXTMIN
 10
197.74353
 20
169.954845
 30
0.0
  9
$EXTMAX
 10
421.224822
 20
263.972572
 30
0.0
  9
$LIMMIN
 10
0.0
 20
0.0
  9
$LIMMAX
 10
594.0
 20
420.0
  9
$ORTHOMODE
 70
     0
  9
$REGENMODE
 70
     1
  9
$FILLMODE
 70
     1
  9
$QTEXTMODE
 70
     0
  9
$MIRRTEXT
 70
     1
  9
$DRAGMODE
 70
     2
  9
$LTSCALE
 40
0.25
  9
$OSMODE
 70
    37
  9
$ATTMODE
 70
     1
  9
$TEXTSIZE
 40
4.0
  9
$TRACEWID
 40
1.0
  9
$TEXTSTYLE
  7
STANDARD
  9
$CLAYER
  8
0
  9
$CELTYPE
  6
BYLAYER
  9
$CECOLOR
 62
   256
  9
$CELTSCALE
 40
1.0
  9
$DELOBJ
 70
     1
  9
$DISPSILH
 70
     0
  9
$DIMSCALE
 40
2.0
  9
$DIMASZ
 40
3.0
  9
$DIMEXO
 40
1.0
  9
$DIMDLI
 40
10.0
  9
$DIMRND
 40
0.0
  9
$DIMDLE
 40
0.0
  9
$DIMEXE
 40
1.0
  9
$DIMTP
 40
0.0
  9
$DIMTM
 40
0.0
  9
$DIMTXT
 40
3.2
  9
$DIMCEN
 40
0.0
  9
$DIMTSZ
 40
0.0
  9
$DIMTOL
 70
     0
  9
$DIMLIM
 70
     0
  9
$DIMTIH
 70
     0
  9
$DIMTOH
 70
     0
  9
$DIMSE1
 70
     0
  9
$DIMSE2
 70
     0
  9
$DIMTAD
 70
     1
  9
$DIMZIN
 70
     8
  9
$DIMBLK
  1
ARROW
  9
$DIMASO
 70
     1
  9
$DIMSHO
 70
     1
  9
$DIMPOST
  1
%%c<>
  9
$DIMAPOST
  1

  9
$DIMALT
 70
     0
  9
$DIMALTD
 70
     2
  9
$DIMALTF
 40
0.04
  9
$DIMLFAC
 40
1.0
  9
$DIMTOFL
 70
     1
  9
$DIMTVP
 40
1.0
  9
$DIMTIX
 70
     0
  9
$DIMSOXD
 70
     0
  9
$DIMSAH
 70
     1
  9
$DIMBLK1
  1
ARROW
  9
$DIMBLK2
  1
ARROW
  9
$DIMSTYLE
  2
AA1
  9
$DIMCLRD
 70
     0
  9
$DIMCLRE
 70
     0
  9
$DIMCLRT
 70
     0
  9
$DIMTFAC
 40
0.6
  9
$DIMGAP
 40
0.0
  9
$DIMJUST
 70
     0
  9
$DIMSD1
 70
     0
  9
$DIMSD2
 70
     0
  9
$DIMTOLJ
 70
     1
  9
$DIMTZIN
 70
     0
  9
$DIMALTZ
 70
     0
  9
$DIMALTTZ
 70
     0
  9
$DIMFIT
 70
     3
  9
$DIMUPT
 70
     0
  9
$DIMUNIT
 70
     2
  9
$DIMDEC
 70
     4
  9
$DIMTDEC
 70
     4
  9
$DIMALTU
 70
     2
  9
$DIMALTTD
 70
     2
  9
$DIMTXSTY
  7
STANDARD
  9
$DIMAUNIT
 70
     0
  9
$LUNITS
 70
     2
  9
$LUPREC
 70
     2
  9
$SKETCHINC
 40
1.0
  9
$FILLETRAD
 40
10.0
  9
$AUNITS
 70
     0
  9
$AUPREC
 70
     0
  9
$MENU
  1
acad
  9
$ELEVATION
 40
0.0
  9
$PELEVATION
 40
0.0
  9
$THICKNESS
 40
0.0
  9
$LIMCHECK
 70
     0
  9
$BLIPMODE
 70
     0
  9
$CHAMFERA
 40
0.0
  9
$CHAMFERB
 40
0.0
  9
$CHAMFERC
 40
0.0
  9
$CHAMFERD
 40
0.0
  9
$SKPOLY
 70
     0
  9
$TDCREATE
 40
2451466.562673495
  9
$TDUPDATE
 40
2452821.755248958
  9
$TDINDWG
 40
0.0001824074
  9
$TDUSRTIMER
 40
0.0001824074
  9
$USRTIMER
 70
     1
  9
$ANGBASE
 50
0.0
  9
$ANGDIR
 70
     0
  9
$PDMODE
 70
     1
  9
$PDSIZE
 40
0.0
  9
$PLINEWID
 40
0.0
  9
$COORDS
 70
     1
  9
$SPLFRAME
 70
     0
  9
$SPLINETYPE
 70
     6
  9
$SPLINESEGS
 70
     8
  9
$ATTDIA
 70
     0
  9
$ATTREQ
 70
     1
  9
$HANDLING
 70
     1
  9
$HANDSEED
  5
24E
  9
$SURFTAB1
 70
     6
  9
$SURFTAB2
 70
     6
  9
$SURFTYPE
 70
     6
  9
$SURFU
 70
     6
  9
$SURFV
 70
     6
  9
$UCSNAME
  2

  9
$UCSORG
 10
0.0
 20
0.0
 30
0.0
  9
$UCSXDIR
 10
1.0
 20
0.0
 30
0.0
  9
$UCSYDIR
 10
0.0
 20
1.0
 30
0.0
  9
$PUCSNAME
  2

  9
$PUCSORG
 10
0.0
 20
0.0
 30
0.0
  9
$PUCSXDIR
 10
1.0
 20
0.0
 30
0.0
  9
$PUCSYDIR
 10
0.0
 20
1.0
 30
0.0
  9
$USERI1
 70
     0
  9
$USERI2
 70
     0
  9
$USERI3
 70
     0
  9
$USERI4
 70
     0
  9
$USERI5
 70
     0
  9
$USERR1
 40
0.0
  9
$USERR2
 40
0.0
  9
$USERR3
 40
0.0
  9
$USERR4
 40
0.0
  9
$USERR5
 40
0.0
  9
$WORLDVIEW
 70
     1
  9
$SHADEDGE
 70
     3
  9
$SHADEDIF
 70
    70
  9
$TILEMODE
 70
     1
  9
$MAXACTVP
 70
    16
  9
$PINSBASE
 10
0.0
 20
0.0
 30
0.0
  9
$PLIMCHECK
 70
     0
  9
$PEXTMIN
 10
1.000000E+20
 20
1.000000E+20
 30
1.000000E+20
  9
$PEXTMAX
 10
-1.000000E+20
 20
-1.000000E+20
 30
-1.000000E+20
  9
$PLIMMIN
 10
0.0
 20
0.0
  9
$PLIMMAX
 10
420.0
 20
297.0
  9
$UNITMODE
 70
     0
  9
$VISRETAIN
 70
     0
  9
$PLINEGEN
 70
     0
  9
$PSLTSCALE
 70
     0
  9
$TREEDEPTH
 70
  3020
  9
$PICKSTYLE
 70
     1
  9
$CMLSTYLE
  2
STANDARD
  9
$CMLJUST
 70
     0
  9
$CMLSCALE
 40
1.0
  9
$PROXYGRAPHICS
 70
     1
  9
$MEASUREMENT
 70
     0
  0
ENDSEC
  0
SECTION
  2
CLASSES
  0
CLASS
  1
ACDBDICTIONARYWDFLT
  2
AcDbDictionaryWithDefault
  3
AutoCAD 2000
 90
        0
280
     0
281
     0
  0
CLASS
  1
ACDBPLACEHOLDER
  2
AcDbPlaceHolder
  3
AutoCAD 2000
 90
        0
280
     0
281
     0
  0
CLASS
  1
LAYOUT
  2
AcDbLayout
  3
AutoCAD 2000
 90
        0
280
     0
281
     0
  0
CLASS
  1
DICTIONARYVAR
  2
AcDbDictionaryVar
  3
"AutoCAD"
 90
        0
280
     0
281
     0
  0
CLASS
  1
LONG_TRANSACTION
  2
AcDbLongTransaction
  3
AutoCAD 2000
 90
        0
280
     0
281
     0
  0
CLASS
  1
LWPOLYLINE
  2
AcDbPolyline
  3
"AutoCAD"
 90
        0
280
     0
281
     1
  0
CLASS
  1
HATCH
  2
AcDbHatch
  3
"ACAD_SEDONA"
 90
        0
280
     0
281
     1
  0
CLASS
  1
XRECORD
  2
AcDbXrecord
  3
"<Built In>"
 90
        0
280
     0
281
     0
  0
ENDSEC
  0
SECTION
  2
TABLES
  0
TABLE
  2
VPORT
  5
10B
100
AcDbSymbolTable
 70
     1
  0
VPORT
  5
215
102
{ACAD_XDICTIONARY
360
21E
102
}
100
AcDbSymbolTableRecord
100
AcDbViewportTableRecord
  2
*ACTIVE
 70
     0
 10
0.0
 20
0.0
 11
1.0
 21
1.0
 12
297.000001
 22
315.433306
 13
0.0
 23
0.0
 14
10.0
 24
10.0
 15
0.0
 25
0.0
 16
0.0
 26
0.0
 36
1.0
 17
0.0
 27
0.0
 37
0.0
 40
692.616442
 41
1.530211
 42
50.0
 43
0.0
 44
0.0
 50
0.0
 51
0.0
 71
     0
 72
   100
 73
     1
 74
     0
 75
     0
 76
     0
 77
     0
 78
     1
  0
ENDTAB
  0
TABLE
  2
LTYPE
  5
108
100
AcDbSymbolTable
 70
     3
  0
LTYPE
  5
116
102
{ACAD_XDICTIONARY
360
21A
102
}
100
AcDbSymbolTableRecord
100
AcDbLinetypeTableRecord
  2
BYBLOCK
 70
     0
  3

 72
    65
 73
     0
 40
0.0
  0
LTYPE
  5
117
102
{ACAD_XDICTIONARY
360
21C
102
}
100
AcDbSymbolTableRecord
100
AcDbLinetypeTableRecord
  2
BYLAYER
 70
     0
  3

 72
    65
 73
     0
 40
0.0
  0
LTYPE
  5
118
100
AcDbSymbolTableRecord
100
AcDbLinetypeTableRecord
  2
CONTINUOUS
 70
     0
  3
Solid line
 72
    65
 73
     0
 40
0.0
  0
LTYPE
  5
126
100
AcDbSymbolTableRecord
100
AcDbLinetypeTableRecord
  2
CENTER
 70
     0
  3
____ _ ____ _ ____ _ ____ _ ____ _ ____ _ ____ 
 72
    65
 73
     4
 40
50.8
 49
31.75
 74
     0
 49
-6.35
 74
     0
 49
6.35
 74
     0
 49
-6.35
 74
     0
  0
LTYPE
  5
127
100
AcDbSymbolTableRecord
100
AcDbLinetypeTableRecord
  2
DASHED
 70
     0
  3
__ __ __ __ __ __ __ __ __ __ __ __ __ __ __
 72
    65
 73
     2
 40
3.5
 49
2.0
 74
     0
 49
-1.5
 74
     0
  0
ENDTAB
  0
TABLE
  2
LAYER
  5
105
100
AcDbSymbolTable
 70
     3
  0
LAYER
  5
113
100
AcDbSymbolTableRecord
100
AcDbLayerTableRecord
  2
0
 70
     0
 62
     7
  6
CONTINUOUS
  0
LAYER
  5
128
100
AcDbSymbolTableRecord
100
AcDbLayerTableRecord
  2
DIMENSION
 70
     0
 62
    -4
  6
CONTINUOUS
  0
LAYER
  5
129
100
AcDbSymbolTableRecord
100
AcDbLayerTableRecord
  2
CENTER
 70
     0
 62
     1
  6
CENTER
  0
ENDTAB
  0
TABLE
  2
STYLE
  5
106
100
AcDbSymbolTable
 70
     1
  0
STYLE
  5
114
100
AcDbSymbolTableRecord
100
AcDbTextStyleTableRecord
  2
STANDARD
 70
     0
 40
0.0
 41
1.0
 50
0.0
 71
     0
 42
4.0
  3
txt
  4

  0
ENDTAB
  0
TABLE
  2
VIEW
  5
109
100
AcDbSymbolTable
 70
     0
  0
ENDTAB
  0
TABLE
  2
UCS
  5
10A
100
AcDbSymbolTable
 70
     0
  0
ENDTAB
  0
TABLE
  2
APPID
  5
10C
100
AcDbSymbolTable
 70
     1
  0
APPID
  5
115
100
AcDbSymbolTableRecord
100
AcDbRegAppTableRecord
  2
ACAD
 70
     0
  0
ENDTAB
  0
TABLE
  2
DIMSTYLE
  5
10D
100
AcDbSymbolTable
 70
     1
  0
DIMSTYLE
105
12A
102
{ACAD_XDICTIONARY
360
247
102
}
100
AcDbSymbolTableRecord
100
AcDbDimStyleTableRecord
  2
AA1
 70
     0
  3

  4

  5

  6

  7

 40
2.0
 41
3.0
 42
1.0
 43
10.0
 44
1.0
 45
0.0
 46
0.0
 47
0.0
 48
0.0
140
3.2
141
0.0
142
0.0
143
0.04
144
1.0
145
1.0
146
0.6
147
0.0
 71
     0
 72
     0
 73
     0
 74
     0
 75
     0
 76
     0
 77
     0
 78
     8
170
     0
171
     2
172
     1
173
     0
174
     0
175
     0
176
     0
177
     0
178
     0
270
     2
271
     2
272
     2
273
     2
274
     2
340
114
275
     0
280
     0
281
     0
282
     0
283
     1
284
     8
285
     8
286
     8
287
     5
288
     0
  0
ENDTAB
  0
TABLE
  2
BLOCK_RECORD
  5
104
100
AcDbSymbolTable
 70
     3
  0
BLOCK_RECORD
  5
121
102
{ACAD_XDICTIONARY
360
216
102
}
100
AcDbSymbolTableRecord
100
AcDbBlockTableRecord
  2
*MODEL_SPACE
  0
BLOCK_RECORD
  5
11D
102
{ACAD_XDICTIONARY
360
218
102
}
100
AcDbSymbolTableRecord
100
AcDbBlockTableRecord
  2
*PAPER_SPACE
  0
BLOCK_RECORD
  5
12C
100
AcDbSymbolTableRecord
100
AcDbBlockTableRecord
  2
$MODEL_SPACE
  0
BLOCK_RECORD
  5
12F
100
AcDbSymbolTableRecord
100
AcDbBlockTableRecord
  2
$PAPER_SPACE
  0
BLOCK_RECORD
  5
132
100
AcDbSymbolTableRecord
100
AcDbBlockTableRecord
  2
ARROW
  0
ENDTAB
  0
ENDSEC
  0
SECTION
  2
BLOCKS
  0
BLOCK
  5
122
100
AcDbEntity
  8
0
100
AcDbBlockBegin
  2
*MODEL_SPACE
 70
     0
 10
0.0
 20
0.0
 30
0.0
  3
*MODEL_SPACE
  1

  0
ENDBLK
  5
123
100
AcDbEntity
  8
0
100
AcDbBlockEnd
  0
BLOCK
  5
11E
100
AcDbEntity
 67
     1
  8
0
100
AcDbBlockBegin
  2
*PAPER_SPACE
 70
     0
 10
0.0
 20
0.0
 30
0.0
  3
*PAPER_SPACE
  1

  0
ENDBLK
  5
11F
100
AcDbEntity
 67
     1
  8
0
100
AcDbBlockEnd
  0
BLOCK
  5
12D
100
AcDbEntity
  8
0
100
AcDbBlockBegin
  2
$MODEL_SPACE
 70
     0
 10
0.0
 20
0.0
 30
0.0
  3
$MODEL_SPACE
  1

  0
ENDBLK
  5
12E
100
AcDbEntity
  8
0
100
AcDbBlockEnd
  0
BLOCK
  5
130
100
AcDbEntity
  8
0
100
AcDbBlockBegin
  2
$PAPER_SPACE
 70
     0
 10
0.0
 20
0.0
 30
0.0
  3
$PAPER_SPACE
  1

  0
ENDBLK
  5
131
100
AcDbEntity
  8
0
100
AcDbBlockEnd
  0
BLOCK
  5
133
100
AcDbEntity
  8
0
100
AcDbBlockBegin
  2
ARROW
 70
     0
 10
0.0
 20
0.0
 30
0.0
  3
ARROW
  1

  0
LINE
  5
134
100
AcDbEntity
  8
DIMENSION
100
AcDbLine
 10
0.0
 20
0.0
 30
0.0
 11
-1.0
 21
0.176327
 31
0.0
  0
LINE
  5
135
100
AcDbEntity
  8
DIMENSION
100
AcDbLine
 10
0.0
 20
0.0
 30
0.0
 11
-1.0
 21
-0.176327
 31
0.0
  0
LINE
  5
136
100
AcDbEntity
  8
DIMENSION
100
AcDbLine
 10
-1.0
 20
0.0
 30
0.0
 11
0.0
 21
0.0
 31
0.0
  0
ENDBLK
  5
137
100
AcDbEntity
  8
0
100
AcDbBlockEnd
  0
ENDSEC
  0
SECTION
  2
ENTITIES
  0
LINE
  5
138
100
AcDbEntity
  8
0
100
AcDbLine
 10
205.727722
 20
196.963709
 30
0.0
 11
205.727722
 21
236.963709
 31
0.0
  0
LINE
  5
139
100
AcDbEntity
  8
0
100
AcDbLine
 10
219.677722
 20
194.713709
 30
0.0
 11
219.677722
 21
239.213709
 31
0.0
  0
LINE
  5
13A
100
AcDbEntity
  8
0
100
AcDbLine
 10
217.727722
 20
194.713709
 30
0.0
 11
217.727722
 21
239.213709
 31
0.0
  0
LINE
  5
13B
100
AcDbEntity
  8
0
100
AcDbLine
 10
221.727722
 20
255.463709
 30
0.0
 11
221.727722
 21
178.463709
 31
0.0
  0
LINE
  5
13C
100
AcDbEntity
  8
0
100
AcDbLine
 10
203.727722
 20
241.963709
 30
0.0
 11
203.727722
 21
191.963709
 31
0.0
  0
LINE
  5
13F
100
AcDbEntity
  8
CENTER
  6
CENTER
 62
     1
100
AcDbLine
 10
200.235626
 20
184.963709
 30
0.0
 11
224.641289
 21
184.963709
 31
0.0
  0
LINE
  5
140
100
AcDbEntity
  8
0
100
AcDbLine
 10
203.727722
 20
191.963709
 30
0.0
 11
205.727722
 21
191.963709
 31
0.0
  0
LINE
  5
141
100
AcDbEntity
  8
0
100
AcDbLine
 10
203.727722
 20
198.963709
 30
0.0
 11
205.727722
 21
198.963709
 31
0.0
  0
LINE
  5
142
100
AcDbEntity
  8
0
100
AcDbLine
 10
221.727722
 20
190.463709
 30
0.0
 11
215.227722
 21
190.463709
 31
0.0
  0
LINE
  5
143
100
AcDbEntity
  8
0
100
AcDbLine
 10
221.727722
 20
179.463709
 30
0.0
 11
215.227722
 21
179.463709
 31
0.0
  0
LINE
  5
144
100
AcDbEntity
  8
0
100
AcDbLine
 10
221.727722
 20
178.463709
 30
0.0
 11
205.727722
 21
178.463709
 31
0.0
  0
LINE
  5
145
100
AcDbEntity
  8
0
100
AcDbLine
 10
205.727722
 20
178.463709
 30
0.0
 11
205.727722
 21
191.963709
 31
0.0
  0
LINE
  5
146
100
AcDbEntity
  8
0
100
AcDbLine
 10
215.227722
 20
179.463709
 30
0.0
 11
215.227722
 21
190.463709
 31
0.0
  0
LINE
  5
147
100
AcDbEntity
  8
0
100
AcDbLine
 10
215.227722
 20
181.563709
 30
0.0
 11
205.727722
 21
181.563709
 31
0.0
  0
LINE
  5
148
100
AcDbEntity
  8
0
 62
     3
100
AcDbLine
 10
215.227722
 20
180.963709
 30
0.0
 11
205.727722
 21
180.963709
 31
0.0
  0
LINE
  5
149
100
AcDbEntity
  8
0
 62
     3
100
AcDbLine
 10
215.227722
 20
188.963709
 30
0.0
 11
205.727722
 21
188.963709
 31
0.0
  0
LINE
  5
14A
100
AcDbEntity
  8
0
100
AcDbLine
 10
215.227722
 20
188.363709
 30
0.0
 11
205.727722
 21
188.363709
 31
0.0
  0
LINE
  5
14B
100
AcDbEntity
  8
0
100
AcDbLine
 10
216.225125
 20
199.263709
 30
0.0
 11
214.23334
 21
199.263709
 31
0.0
  0
LINE
  5
14C
100
AcDbEntity
  8
0
100
AcDbLine
 10
216.089628
 20
203.163719
 30
0.0
 11
214.233333
 21
203.163719
 31
0.0
  0
LINE
  5
14D
100
AcDbEntity
  8
0
100
AcDbLine
 10
206.727722
 20
195.963709
 30
0.0
 11
217.727722
 21
195.963709
 31
0.0
  0
LINE
  5
14E
100
AcDbEntity
  8
0
100
AcDbLine
 10
206.727722
 20
206.963709
 30
0.0
 11
216.727722
 21
206.963709
 31
0.0
  0
LINE
  5
14F
100
AcDbEntity
  8
0
100
AcDbLine
 10
206.160722
 20
200.080619
 30
0.0
 11
206.160722
 21
203.363729
 31
0.0
  0
LINE
  5
150
100
AcDbEntity
  8
0
100
AcDbLine
 10
206.360722
 20
200.163589
 30
0.0
 11
206.360722
 21
203.363719
 31
0.0
  0
CIRCLE
  5
151
100
AcDbEntity
  8
0
100
AcDbCircle
 10
211.727722
 20
201.213709
 30
0.0
 40
3.175
  0
ARC
  5
152
100
AcDbEntity
  8
0
100
AcDbCircle
 10
206.767186
 20
198.459072
 30
0.0
 40
0.3
100
AcDbArc
 50
219.998032
 51
355.003307
  0
LINE
  5
153
100
AcDbEntity
  8
0
100
AcDbLine
 10
207.066046
 20
198.432943
 30
0.0
 11
207.130699
 21
199.172419
 31
0.0
  0
ARC
  5
154
100
AcDbEntity
  8
0
100
AcDbCircle
 10
206.767656
 20
198.458714
 30
0.0
 40
0.1
100
AcDbArc
 50
219.999779
 51
357.180215
  0
LINE
  5
155
100
AcDbEntity
  8
0
100
AcDbLine
 10
206.465739
 20
198.973772
 30
0.0
 11
206.312637
 21
198.845679
 31
0.0
  0
ARC
  5
156
100
AcDbEntity
  8
0
100
AcDbCircle
 10
205.827722
 20
198.463719
 30
0.0
 40
0.1
100
AcDbArc
 50
90.0
 51
180.0
  0
ARC
  5
157
100
AcDbEntity
  8
0
100
AcDbCircle
 10
206.440973
 20
198.692285
 30
0.0
 40
0.2
100
AcDbArc
 50
129.91738
 51
219.998032
  0
LINE
  5
158
100
AcDbEntity
  8
0
100
AcDbLine
 10
205.827722
 20
198.563719
 30
0.0
 11
206.287772
 21
198.563719
 31
0.0
  0
LINE
  5
159
100
AcDbEntity
  8
0
100
AcDbLine
 10
206.28776
 20
198.563733
 30
0.0
 11
206.537366
 21
198.266244
 31
0.0
  0
ARC
  5
15A
100
AcDbEntity
  8
0
100
AcDbCircle
 10
206.727722
 20
196.963709
 30
0.0
 40
1.0
100
AcDbArc
 50
180.0
 51
270.0
  0
LINE
  5
15B
100
AcDbEntity
  8
0
100
AcDbLine
 10
206.440727
 20
198.692763
 30
0.0
 11
206.691051
 21
198.394435
 31
0.0
  0
LINE
  5
15C
100
AcDbEntity
  8
0
100
AcDbLine
 10
206.593729
 20
198.820784
 30
0.0
 11
206.440727
 21
198.692763
 31
0.0
  0
LINE
  5
15D
100
AcDbEntity
  8
0
100
AcDbLine
 10
206.465739
 20
198.973772
 30
0.0
 11
206.593729
 21
198.820784
 31
0.0
  0
LINE
  5
15E
100
AcDbEntity
  8
0
100
AcDbLine
 10
206.910723
 20
199.330628
 30
0.0
 11
206.160722
 21
200.080619
 31
0.0
  0
LINE
  5
15F
100
AcDbEntity
  8
0
100
AcDbLine
 10
207.110722
 20
199.413559
 30
0.0
 11
206.360722
 21
200.163589
 31
0.0
  0
ARC
  5
160
100
AcDbEntity
  8
0
100
AcDbCircle
 10
207.230319
 20
199.163709
 30
0.0
 40
0.1
100
AcDbArc
 50
90.0
 51
175.003307
  0
LINE
  5
161
100
AcDbEntity
  8
0
100
AcDbLine
 10
206.867535
 20
198.453794
 30
0.0
 11
206.910723
 21
199.330628
 31
0.0
  0
LINE
  5
162
100
AcDbEntity
  8
0
100
AcDbLine
 10
207.110722
 20
198.943719
 30
0.0
 11
207.110722
 21
199.413559
 31
0.0
  0
LINE
  5
163
100
AcDbEntity
  8
0
100
AcDbLine
 10
207.230319
 20
199.263709
 30
0.0
 11
209.222103
 21
199.263709
 31
0.0
  0
ARC
  5
164
100
AcDbEntity
  8
0
100
AcDbCircle
 10
206.721637
 20
203.963719
 30
0.0
 40
0.2
100
AcDbArc
 50
20.008605
 51
90.0
  0
ARC
  5
165
100
AcDbEntity
  8
0
100
AcDbCircle
 10
206.656543
 20
203.963719
 30
0.0
 40
0.2
100
AcDbArc
 50
90.0
 51
140.005496
  0
LINE
  5
166
100
AcDbEntity
  8
0
100
AcDbLine
 10
206.656543
 20
204.163719
 30
0.0
 11
206.721637
 21
204.163719
 31
0.0
  0
ARC
  5
167
100
AcDbEntity
  8
0
100
AcDbCircle
 10
207.365816
 20
203.363719
 30
0.0
 40
0.2
100
AcDbArc
 50
200.008605
 51
270.0
  0
LINE
  5
168
100
AcDbEntity
  8
0
100
AcDbLine
 10
206.909565
 20
204.032151
 30
0.0
 11
207.177887
 21
203.295286
 31
0.0
  0
LINE
  5
169
100
AcDbEntity
  8
0
100
AcDbLine
 10
206.810722
 20
203.563729
 30
0.0
 11
206.810722
 21
203.363719
 31
0.0
  0
ARC
  5
16A
100
AcDbEntity
  8
0
100
AcDbCircle
 10
205.927722
 20
203.963729
 30
0.0
 40
0.2
100
AcDbArc
 50
180.0
 51
270.0
  0
ARC
  5
16B
100
AcDbEntity
  8
0
100
AcDbCircle
 10
206.360722
 20
203.363729
 30
0.0
 40
0.2
100
AcDbArc
 50
90.0
 51
180.0
  0
LINE
  5
16C
100
AcDbEntity
  8
0
100
AcDbLine
 10
205.927722
 20
203.763729
 30
0.0
 11
206.227703
 21
203.763729
 31
0.0
  0
LINE
  5
16D
100
AcDbEntity
  8
0
100
AcDbLine
 10
206.227703
 20
203.763729
 30
0.0
 11
206.503321
 21
204.092262
 31
0.0
  0
LINE
  5
16E
100
AcDbEntity
  8
0
100
AcDbLine
 10
206.360722
 20
203.563729
 30
0.0
 11
206.810722
 21
203.563729
 31
0.0
  0
LINE
  5
16F
100
AcDbEntity
  8
0
100
AcDbLine
 10
206.810722
 20
203.363719
 30
0.0
 11
206.360722
 21
203.363719
 31
0.0
  0
LINE
  5
170
100
AcDbEntity
  8
0
100
AcDbLine
 10
207.365816
 20
203.163719
 30
0.0
 11
209.222111
 21
203.163719
 31
0.0
  0
ARC
  5
171
100
AcDbEntity
  8
0
100
AcDbCircle
 10
206.727722
 20
205.963709
 30
0.0
 40
1.0
100
AcDbArc
 50
90.0
 51
180.0
  0
LINE
  5
172
100
AcDbEntity
  8
0
100
AcDbLine
 10
217.094722
 20
200.163589
 30
0.0
 11
217.094722
 21
203.363719
 31
0.0
  0
LINE
  5
173
100
AcDbEntity
  8
0
100
AcDbLine
 10
217.294722
 20
200.080619
 30
0.0
 11
217.294722
 21
203.363729
 31
0.0
  0
LINE
  5
174
100
AcDbEntity
  8
0
100
AcDbLine
 10
219.677722
 20
195.963709
 30
0.0
 11
221.727722
 21
195.963709
 31
0.0
  0
LINE
  5
175
100
AcDbEntity
  8
0
100
AcDbLine
 10
217.167683
 20
198.563733
 30
0.0
 11
216.918078
 21
198.266244
 31
0.0
  0
ARC
  5
176
100
AcDbEntity
  8
0
100
AcDbCircle
 10
217.627722
 20
198.463719
 30
0.0
 40
0.1
100
AcDbArc
 50
0.0
 51
90.0
  0
LINE
  5
177
100
AcDbEntity
  8
0
100
AcDbLine
 10
216.989704
 20
198.973772
 30
0.0
 11
216.861715
 21
198.820784
 31
0.0
  0
LINE
  5
178
100
AcDbEntity
  8
0
100
AcDbLine
 10
216.861715
 20
198.820784
 30
0.0
 11
217.014717
 21
198.692763
 31
0.0
  0
LINE
  5
179
100
AcDbEntity
  8
0
100
AcDbLine
 10
217.627722
 20
198.563719
 30
0.0
 11
217.167671
 21
198.563719
 31
0.0
  0
LINE
  5
17A
100
AcDbEntity
  8
0
100
AcDbLine
 10
216.989704
 20
198.973772
 30
0.0
 11
217.142807
 21
198.845679
 31
0.0
  0
ARC
  5
17B
100
AcDbEntity
  8
0
100
AcDbCircle
 10
217.01447
 20
198.692285
 30
0.0
 40
0.2
100
AcDbArc
 50
320.001968
 51
50.08262
  0
LINE
  5
17C
100
AcDbEntity
  8
0
100
AcDbLine
 10
217.014717
 20
198.692763
 30
0.0
 11
216.764392
 21
198.394435
 31
0.0
  0
LINE
  5
17D
100
AcDbEntity
  8
0
100
AcDbLine
 10
217.727722
 20
194.713709
 30
0.0
 11
219.677722
 21
194.713709
 31
0.0
  0
LINE
  5
17E
100
AcDbEntity
  8
0
100
AcDbLine
 10
217.727722
 20
198.713709
 30
0.0
 11
219.677722
 21
198.713709
 31
0.0
  0
LINE
  5
17F
100
AcDbEntity
  8
0
100
AcDbLine
 10
216.389398
 20
198.432943
 30
0.0
 11
216.324745
 21
199.172419
 31
0.0
  0
LINE
  5
180
100
AcDbEntity
  8
0
100
AcDbLine
 10
216.344722
 20
198.943719
 30
0.0
 11
216.344722
 21
199.413559
 31
0.0
  0
LINE
  5
181
100
AcDbEntity
  8
0
100
AcDbLine
 10
216.587909
 20
198.453794
 30
0.0
 11
216.544721
 21
199.330628
 31
0.0
  0
ARC
  5
182
100
AcDbEntity
  8
0
100
AcDbCircle
 10
216.225125
 20
199.163709
 30
0.0
 40
0.1
100
AcDbArc
 50
4.996693
 51
90.0
  0
LINE
  5
183
100
AcDbEntity
  8
0
100
AcDbLine
 10
216.344722
 20
199.413559
 30
0.0
 11
217.094722
 21
200.163589
 31
0.0
  0
LINE
  5
184
100
AcDbEntity
  8
0
100
AcDbLine
 10
216.544721
 20
199.330628
 30
0.0
 11
217.294722
 21
200.080619
 31
0.0
  0
ARC
  5
185
100
AcDbEntity
  8
0
100
AcDbCircle
 10
216.688258
 20
198.459072
 30
0.0
 40
0.3
100
AcDbArc
 50
184.996693
 51
320.001968
  0
ARC
  5
186
100
AcDbEntity
  8
0
100
AcDbCircle
 10
216.687787
 20
198.458714
 30
0.0
 40
0.1
100
AcDbArc
 50
182.819785
 51
320.000221
  0
ARC
  5
187
100
AcDbEntity
  8
0
100
AcDbCircle
 10
216.727722
 20
196.963709
 30
0.0
 40
1.0
100
AcDbArc
 50
270.0
 51
0.0
  0
ARC
  5
188
100
AcDbEntity
  8
0
100
AcDbCircle
 10
216.798901
 20
203.963719
 30
0.0
 40
0.2
100
AcDbArc
 50
39.994504
 51
90.0
  0
ARC
  5
189
100
AcDbEntity
  8
0
100
AcDbCircle
 10
217.527722
 20
203.963729
 30
0.0
 40
0.2
100
AcDbArc
 50
270.0
 51
0.0
  0
LINE
  5
18A
100
AcDbEntity
  8
0
100
AcDbLine
 10
217.527722
 20
203.763729
 30
0.0
 11
217.22774
 21
203.763729
 31
0.0
  0
ARC
  5
18B
100
AcDbEntity
  8
0
100
AcDbCircle
 10
217.094722
 20
203.363729
 30
0.0
 40
0.2
100
AcDbArc
 50
0.0
 51
90.0
  0
LINE
  5
18C
100
AcDbEntity
  8
0
100
AcDbLine
 10
217.22774
 20
203.763729
 30
0.0
 11
216.952122
 21
204.092262
 31
0.0
  0
ARC
  5
18D
100
AcDbEntity
  8
0
100
AcDbCircle
 10
216.733807
 20
203.963719
 30
0.0
 40
0.2
100
AcDbArc
 50
90.0
 51
159.991395
  0
LINE
  5
18E
100
AcDbEntity
  8
0
100
AcDbLine
 10
216.644722
 20
203.563729
 30
0.0
 11
216.644722
 21
203.363719
 31
0.0
  0
LINE
  5
18F
100
AcDbEntity
  8
0
100
AcDbLine
 10
216.545878
 20
204.032151
 30
0.0
 11
216.277556
 21
203.295286
 31
0.0
  0
ARC
  5
190
100
AcDbEntity
  8
0
100
AcDbCircle
 10
216.089628
 20
203.363719
 30
0.0
 40
0.2
100
AcDbArc
 50
270.0
 51
339.991395
  0
LINE
  5
191
100
AcDbEntity
  8
0
100
AcDbLine
 10
216.644722
 20
203.363719
 30
0.0
 11
217.094722
 21
203.363719
 31
0.0
  0
LINE
  5
192
100
AcDbEntity
  8
0
100
AcDbLine
 10
217.094722
 20
203.563729
 30
0.0
 11
216.644722
 21
203.563729
 31
0.0
  0
LINE
  5
193
100
AcDbEntity
  8
0
100
AcDbLine
 10
216.798901
 20
204.163719
 30
0.0
 11
216.733807
 21
204.163719
 31
0.0
  0
ARC
  5
194
100
AcDbEntity
  8
0
100
AcDbCircle
 10
216.727722
 20
205.963709
 30
0.0
 40
1.0
100
AcDbArc
 50
0.0
 51
90.0
  0
LINE
  5
195
100
AcDbEntity
  8
CENTER
  6
CENTER
 62
     1
100
AcDbLine
 10
197.74353
 20
216.963709
 30
0.0
 11
228.379433
 21
216.963709
 31
0.0
  0
LINE
  5
196
100
AcDbEntity
  8
CENTER
  6
CENTER
 62
     1
100
AcDbLine
 10
200.235626
 20
248.963709
 30
0.0
 11
224.641289
 21
248.963709
 31
0.0
  0
LINE
  5
197
100
AcDbEntity
  8
0
100
AcDbLine
 10
203.727722
 20
241.963709
 30
0.0
 11
205.727722
 21
241.963709
 31
0.0
  0
LINE
  5
198
100
AcDbEntity
  8
0
100
AcDbLine
 10
203.727722
 20
234.963709
 30
0.0
 11
205.727722
 21
234.963709
 31
0.0
  0
LINE
  5
199
100
AcDbEntity
  8
0
100
AcDbLine
 10
205.727722
 20
255.463709
 30
0.0
 11
205.727722
 21
241.963709
 31
0.0
  0
LINE
  5
19A
100
AcDbEntity
  8
0
100
AcDbLine
 10
206.727722
 20
226.963709
 30
0.0
 11
216.727722
 21
226.963709
 31
0.0
  0
LINE
  5
19B
100
AcDbEntity
  8
0
100
AcDbLine
 10
216.089628
 20
230.763699
 30
0.0
 11
214.233333
 21
230.763699
 31
0.0
  0
LINE
  5
19C
100
AcDbEntity
  8
0
100
AcDbLine
 10
206.727722
 20
237.963709
 30
0.0
 11
217.727722
 21
237.963709
 31
0.0
  0
LINE
  5
19D
100
AcDbEntity
  8
0
100
AcDbLine
 10
216.225125
 20
234.663709
 30
0.0
 11
214.23334
 21
234.663709
 31
0.0
  0
LINE
  5
19E
100
AcDbEntity
  8
0
100
AcDbLine
 10
207.110722
 20
234.983699
 30
0.0
 11
207.110722
 21
234.513859
 31
0.0
  0
LINE
  5
19F
100
AcDbEntity
  8
0
100
AcDbLine
 10
206.867535
 20
235.473623
 30
0.0
 11
206.910723
 21
234.59679
 31
0.0
  0
CIRCLE
  5
1A0
100
AcDbEntity
  8
0
100
AcDbCircle
 10
211.727722
 20
232.713709
 30
0.0
 40
3.175
  0
LINE
  5
1A1
100
AcDbEntity
  8
0
100
AcDbLine
 10
206.810722
 20
230.363689
 30
0.0
 11
206.810722
 21
230.563699
 31
0.0
  0
LINE
  5
1A2
100
AcDbEntity
  8
0
100
AcDbLine
 10
206.909565
 20
229.895266
 30
0.0
 11
207.177887
 21
230.632131
 31
0.0
  0
ARC
  5
1A3
100
AcDbEntity
  8
0
100
AcDbCircle
 10
207.365816
 20
230.563699
 30
0.0
 40
0.2
100
AcDbArc
 50
90.0
 51
159.991395
  0
LINE
  5
1A4
100
AcDbEntity
  8
0
100
AcDbLine
 10
206.656543
 20
229.763699
 30
0.0
 11
206.721637
 21
229.763699
 31
0.0
  0
ARC
  5
1A5
100
AcDbEntity
  8
0
100
AcDbCircle
 10
206.656543
 20
229.963699
 30
0.0
 40
0.2
100
AcDbArc
 50
219.994504
 51
270.0
  0
ARC
  5
1A6
100
AcDbEntity
  8
0
100
AcDbCircle
 10
206.721637
 20
229.963699
 30
0.0
 40
0.2
100
AcDbArc
 50
270.0
 51
339.991395
  0
LINE
  5
1A7
100
AcDbEntity
  8
0
100
AcDbLine
 10
207.365816
 20
230.763699
 30
0.0
 11
209.222111
 21
230.763699
 31
0.0
  0
LINE
  5
1A8
100
AcDbEntity
  8
0
100
AcDbLine
 10
205.927722
 20
230.163689
 30
0.0
 11
206.227703
 21
230.163689
 31
0.0
  0
ARC
  5
1A9
100
AcDbEntity
  8
0
100
AcDbCircle
 10
206.360722
 20
230.563689
 30
0.0
 40
0.2
100
AcDbArc
 50
180.0
 51
270.0
  0
ARC
  5
1AA
100
AcDbEntity
  8
0
100
AcDbCircle
 10
205.927722
 20
229.963689
 30
0.0
 40
0.2
100
AcDbArc
 50
90.0
 51
180.0
  0
LINE
  5
1AB
100
AcDbEntity
  8
0
100
AcDbLine
 10
206.360722
 20
233.763829
 30
0.0
 11
206.360722
 21
230.563699
 31
0.0
  0
LINE
  5
1AC
100
AcDbEntity
  8
0
100
AcDbLine
 10
206.160722
 20
233.846799
 30
0.0
 11
206.160722
 21
230.563689
 31
0.0
  0
LINE
  5
1AD
100
AcDbEntity
  8
0
100
AcDbLine
 10
206.810722
 20
230.563699
 30
0.0
 11
206.360722
 21
230.563699
 31
0.0
  0
LINE
  5
1AE
100
AcDbEntity
  8
0
100
AcDbLine
 10
206.360722
 20
230.363689
 30
0.0
 11
206.810722
 21
230.363689
 31
0.0
  0
LINE
  5
1AF
100
AcDbEntity
  8
0
100
AcDbLine
 10
206.227703
 20
230.163689
 30
0.0
 11
206.503321
 21
229.835156
 31
0.0
  0
ARC
  5
1B0
100
AcDbEntity
  8
0
100
AcDbCircle
 10
206.727722
 20
227.963709
 30
0.0
 40
1.0
100
AcDbArc
 50
180.0
 51
270.0
  0
LINE
  5
1B1
100
AcDbEntity
  8
0
100
AcDbLine
 10
207.110722
 20
234.513859
 30
0.0
 11
206.360722
 21
233.763829
 31
0.0
  0
LINE
  5
1B2
100
AcDbEntity
  8
0
100
AcDbLine
 10
206.910723
 20
234.59679
 30
0.0
 11
206.160722
 21
233.846799
 31
0.0
  0
LINE
  5
1B3
100
AcDbEntity
  8
0
100
AcDbLine
 10
206.465739
 20
234.953646
 30
0.0
 11
206.593729
 21
235.106633
 31
0.0
  0
LINE
  5
1B4
100
AcDbEntity
  8
0
100
AcDbLine
 10
206.593729
 20
235.106633
 30
0.0
 11
206.440727
 21
235.234655
 31
0.0
  0
LINE
  5
1B5
100
AcDbEntity
  8
0
100
AcDbLine
 10
206.440727
 20
235.234655
 30
0.0
 11
206.691051
 21
235.532982
 31
0.0
  0
ARC
  5
1B6
100
AcDbEntity
  8
0
100
AcDbCircle
 10
206.767656
 20
235.468704
 30
0.0
 40
0.1
100
AcDbArc
 50
2.819785
 51
140.000221
  0
LINE
  5
1B7
100
AcDbEntity
  8
0
100
AcDbLine
 10
207.066046
 20
235.494475
 30
0.0
 11
207.130699
 21
234.754999
 31
0.0
  0
ARC
  5
1B8
100
AcDbEntity
  8
0
100
AcDbCircle
 10
207.230319
 20
234.763709
 30
0.0
 40
0.1
100
AcDbArc
 50
184.996693
 51
270.0
  0
ARC
  5
1B9
100
AcDbEntity
  8
0
100
AcDbCircle
 10
206.767186
 20
235.468345
 30
0.0
 40
0.3
100
AcDbArc
 50
4.996693
 51
140.001968
  0
LINE
  5
1BA
100
AcDbEntity
  8
0
100
AcDbLine
 10
207.230319
 20
234.663709
 30
0.0
 11
209.222103
 21
234.663709
 31
0.0
  0
LINE
  5
1BB
100
AcDbEntity
  8
0
100
AcDbLine
 10
205.827722
 20
235.363699
 30
0.0
 11
206.287772
 21
235.363699
 31
0.0
  0
ARC
  5
1BC
100
AcDbEntity
  8
0
100
AcDbCircle
 10
206.440973
 20
235.235132
 30
0.0
 40
0.2
100
AcDbArc
 50
140.001968
 51
230.08262
  0
ARC
  5
1BD
100
AcDbEntity
  8
0
100
AcDbCircle
 10
205.827722
 20
235.463699
 30
0.0
 40
0.1
100
AcDbArc
 50
180.0
 51
270.0
  0
ARC
  5
1BE
100
AcDbEntity
  8
0
100
AcDbCircle
 10
206.727722
 20
236.963709
 30
0.0
 40
1.0
100
AcDbArc
 50
90.0
 51
180.0
  0
LINE
  5
1BF
100
AcDbEntity
  8
0
100
AcDbLine
 10
206.465739
 20
234.953646
 30
0.0
 11
206.312637
 21
235.081738
 31
0.0
  0
LINE
  5
1C0
100
AcDbEntity
  8
0
100
AcDbLine
 10
206.28776
 20
235.363684
 30
0.0
 11
206.537366
 21
235.661174
 31
0.0
  0
LINE
  5
1C1
100
AcDbEntity
  8
0
100
AcDbLine
 10
216.587909
 20
235.473623
 30
0.0
 11
216.544721
 21
234.59679
 31
0.0
  0
LINE
  5
1C2
100
AcDbEntity
  8
0
100
AcDbLine
 10
216.344722
 20
234.983699
 30
0.0
 11
216.344722
 21
234.513859
 31
0.0
  0
LINE
  5
1C3
100
AcDbEntity
  8
0
100
AcDbLine
 10
216.544721
 20
234.59679
 30
0.0
 11
217.294722
 21
233.846799
 31
0.0
  0
LINE
  5
1C4
100
AcDbEntity
  8
0
100
AcDbLine
 10
216.344722
 20
234.513859
 30
0.0
 11
217.094722
 21
233.763829
 31
0.0
  0
LINE
  5
1C5
100
AcDbEntity
  8
0
100
AcDbLine
 10
217.22774
 20
230.163689
 30
0.0
 11
216.952122
 21
229.835156
 31
0.0
  0
ARC
  5
1C6
100
AcDbEntity
  8
0
100
AcDbCircle
 10
217.094722
 20
230.563689
 30
0.0
 40
0.2
100
AcDbArc
 50
270.0
 51
0.0
  0
LINE
  5
1C7
100
AcDbEntity
  8
0
100
AcDbLine
 10
217.527722
 20
230.163689
 30
0.0
 11
217.22774
 21
230.163689
 31
0.0
  0
ARC
  5
1C8
100
AcDbEntity
  8
0
100
AcDbCircle
 10
217.527722
 20
229.963689
 30
0.0
 40
0.2
100
AcDbArc
 50
0.0
 51
90.0
  0
LINE
  5
1C9
100
AcDbEntity
  8
0
100
AcDbLine
 10
216.798901
 20
229.763699
 30
0.0
 11
216.733807
 21
229.763699
 31
0.0
  0
ARC
  5
1CA
100
AcDbEntity
  8
0
100
AcDbCircle
 10
216.798901
 20
229.963699
 30
0.0
 40
0.2
100
AcDbArc
 50
270.0
 51
320.005496
  0
ARC
  5
1CB
100
AcDbEntity
  8
0
100
AcDbCircle
 10
216.089628
 20
230.563699
 30
0.0
 40
0.2
100
AcDbArc
 50
20.008605
 51
90.0
  0
LINE
  5
1CC
100
AcDbEntity
  8
0
100
AcDbLine
 10
216.545878
 20
229.895266
 30
0.0
 11
216.277556
 21
230.632131
 31
0.0
  0
LINE
  5
1CD
100
AcDbEntity
  8
0
100
AcDbLine
 10
216.644722
 20
230.363689
 30
0.0
 11
216.644722
 21
230.563699
 31
0.0
  0
ARC
  5
1CE
100
AcDbEntity
  8
0
100
AcDbCircle
 10
216.733807
 20
229.963699
 30
0.0
 40
0.2
100
AcDbArc
 50
200.008605
 51
270.0
  0
LINE
  5
1CF
100
AcDbEntity
  8
0
100
AcDbLine
 10
217.094722
 20
230.363689
 30
0.0
 11
216.644722
 21
230.363689
 31
0.0
  0
LINE
  5
1D0
100
AcDbEntity
  8
0
100
AcDbLine
 10
216.644722
 20
230.563699
 30
0.0
 11
217.094722
 21
230.563699
 31
0.0
  0
LINE
  5
1D1
100
AcDbEntity
  8
0
100
AcDbLine
 10
217.294722
 20
233.846799
 30
0.0
 11
217.294722
 21
230.563689
 31
0.0
  0
LINE
  5
1D2
100
AcDbEntity
  8
0
100
AcDbLine
 10
217.094722
 20
233.763829
 30
0.0
 11
217.094722
 21
230.563699
 31
0.0
  0
ARC
  5
1D3
100
AcDbEntity
  8
0
100
AcDbCircle
 10
216.727722
 20
227.963709
 30
0.0
 40
1.0
100
AcDbArc
 50
270.0
 51
0.0
  0
LINE
  5
1D4
100
AcDbEntity
  8
0
100
AcDbLine
 10
219.677722
 20
237.963709
 30
0.0
 11
221.727722
 21
237.963709
 31
0.0
  0
LINE
  5
1D5
100
AcDbEntity
  8
0
100
AcDbLine
 10
217.727722
 20
235.213709
 30
0.0
 11
219.677722
 21
235.213709
 31
0.0
  0
LINE
  5
1D6
100
AcDbEntity
  8
0
100
AcDbLine
 10
217.727722
 20
239.213709
 30
0.0
 11
219.677722
 21
239.213709
 31
0.0
  0
ARC
  5
1D7
100
AcDbEntity
  8
0
100
AcDbCircle
 10
216.727722
 20
236.963709
 30
0.0
 40
1.0
100
AcDbArc
 50
0.0
 51
90.0
  0
LINE
  5
1D8
100
AcDbEntity
  8
0
100
AcDbLine
 10
217.014717
 20
235.234655
 30
0.0
 11
216.764392
 21
235.532982
 31
0.0
  0
ARC
  5
1D9
100
AcDbEntity
  8
0
100
AcDbCircle
 10
217.01447
 20
235.235132
 30
0.0
 40
0.2
100
AcDbArc
 50
309.91738
 51
39.998032
  0
LINE
  5
1DA
100
AcDbEntity
  8
0
100
AcDbLine
 10
216.989704
 20
234.953646
 30
0.0
 11
217.142807
 21
235.081738
 31
0.0
  0
LINE
  5
1DB
100
AcDbEntity
  8
0
100
AcDbLine
 10
217.627722
 20
235.363699
 30
0.0
 11
217.167671
 21
235.363699
 31
0.0
  0
LINE
  5
1DC
100
AcDbEntity
  8
0
100
AcDbLine
 10
216.861715
 20
235.106633
 30
0.0
 11
217.014717
 21
235.234655
 31
0.0
  0
LINE
  5
1DD
100
AcDbEntity
  8
0
100
AcDbLine
 10
216.989704
 20
234.953646
 30
0.0
 11
216.861715
 21
235.106633
 31
0.0
  0
ARC
  5
1DE
100
AcDbEntity
  8
0
100
AcDbCircle
 10
217.627722
 20
235.463699
 30
0.0
 40
0.1
100
AcDbArc
 50
270.0
 51
0.0
  0
LINE
  5
1DF
100
AcDbEntity
  8
0
100
AcDbLine
 10
217.167683
 20
235.363684
 30
0.0
 11
216.918078
 21
235.661174
 31
0.0
  0
ARC
  5
1E0
100
AcDbEntity
  8
0
100
AcDbCircle
 10
216.225125
 20
234.763709
 30
0.0
 40
0.1
100
AcDbArc
 50
270.0
 51
355.003307
  0
LINE
  5
1E1
100
AcDbEntity
  8
0
100
AcDbLine
 10
216.389398
 20
235.494475
 30
0.0
 11
216.324745
 21
234.754999
 31
0.0
  0
ARC
  5
1E2
100
AcDbEntity
  8
0
100
AcDbCircle
 10
216.687787
 20
235.468704
 30
0.0
 40
0.1
100
AcDbArc
 50
39.999779
 51
177.180215
  0
ARC
  5
1E3
100
AcDbEntity
  8
0
100
AcDbCircle
 10
216.688258
 20
235.468345
 30
0.0
 40
0.3
100
AcDbArc
 50
39.998032
 51
175.003307
  0
LINE
  5
1E4
100
AcDbEntity
  8
0
100
AcDbLine
 10
221.727722
 20
254.463709
 30
0.0
 11
215.227722
 21
254.463709
 31
0.0
  0
LINE
  5
1E5
100
AcDbEntity
  8
0
100
AcDbLine
 10
221.727722
 20
243.463709
 30
0.0
 11
215.227722
 21
243.463709
 31
0.0
  0
LINE
  5
1E6
100
AcDbEntity
  8
0
100
AcDbLine
 10
221.727722
 20
255.463709
 30
0.0
 11
205.727722
 21
255.463709
 31
0.0
  0
LINE
  5
1E7
100
AcDbEntity
  8
0
100
AcDbLine
 10
215.227722
 20
254.463709
 30
0.0
 11
215.227722
 21
243.463709
 31
0.0
  0
LINE
  5
1E8
100
AcDbEntity
  8
0
 62
     3
100
AcDbLine
 10
215.227722
 20
244.963709
 30
0.0
 11
205.727722
 21
244.963709
 31
0.0
  0
LINE
  5
1E9
100
AcDbEntity
  8
0
100
AcDbLine
 10
215.227722
 20
245.563709
 30
0.0
 11
205.727722
 21
245.563709
 31
0.0
  0
LINE
  5
1EA
100
AcDbEntity
  8
0
100
AcDbLine
 10
215.227722
 20
252.363709
 30
0.0
 11
205.727722
 21
252.363709
 31
0.0
  0
LINE
  5
1EB
100
AcDbEntity
  8
0
 62
     3
100
AcDbLine
 10
215.227722
 20
252.963709
 30
0.0
 11
205.727722
 21
252.963709
 31
0.0
  0
LINE
  5
1EC
100
AcDbEntity
  8
0
100
AcDbLine
 10
213.727722
 20
255.463709
 30
0.0
 11
213.727822
 21
255.463709
 31
0.0
  0
LINE
  5
1ED
100
AcDbEntity
  8
0
100
AcDbLine
 10
217.727722
 20
255.463709
 30
0.0
 11
217.727722
 21
255.463809
 31
0.0
  0
LINE
  5
1EE
100
AcDbEntity
  8
CENTER
  6
CENTER
 62
     1
100
AcDbLine
 10
374.215959
 20
169.954845
 30
0.0
 11
374.215959
 21
263.972572
 31
0.0
  0
CIRCLE
  5
1EF
100
AcDbEntity
  8
CENTER
  6
CENTER
 62
     1
100
AcDbCircle
 10
374.215959
 20
216.963709
 30
0.0
 40
32.0
  0
LWPOLYLINE
  5
1F0
100
AcDbEntity
  8
0
100
AcDbPolyline
 90
        2
 70
     0
 43
0.0
 10
335.863453
 20
213.596914
 10
370.849164
 20
178.611203
  0
LWPOLYLINE
  5
1F4
100
AcDbEntity
  8
0
100
AcDbPolyline
 90
        2
 70
     0
 43
0.0
 10
377.582753
 20
178.611203
 10
412.568464
 20
213.596914
  0
CIRCLE
  5
1F8
100
AcDbEntity
  8
0
  6
DASHED
 62
     3
100
AcDbCircle
 10
374.215959
 20
216.963709
 30
0.0
 40
25.0
  0
CIRCLE
  5
1F9
100
AcDbEntity
  8
0
100
AcDbCircle
 10
374.215959
 20
216.963709
 30
0.0
 40
21.0
  0
CIRCLE
  5
1FA
100
AcDbEntity
  8
0
100
AcDbCircle
 10
374.215959
 20
216.963709
 30
0.0
 40
10.0
  0
CIRCLE
  5
1FB
100
AcDbEntity
  8
0
 62
     3
100
AcDbCircle
 10
374.215959
 20
184.963709
 30
0.0
 40
4.0
  0
CIRCLE
  5
1FC
100
AcDbEntity
  8
0
100
AcDbCircle
 10
374.215959
 20
184.963709
 30
0.0
 40
5.5
  0
CIRCLE
  5
1FD
100
AcDbEntity
  8
0
100
AcDbCircle
 10
374.215959
 20
184.963709
 30
0.0
 40
3.4
  0
ARC
  5
1FE
100
AcDbEntity
  8
0
100
AcDbCircle
 10
374.215959
 20
216.963709
 30
0.0
 40
38.5
100
AcDbArc
 50
264.983121
 51
275.016879
  0
LINE
  5
1FF
100
AcDbEntity
  8
CENTER
  6
CENTER
 62
     1
100
AcDbLine
 10
327.207095
 20
216.963709
 30
0.0
 11
421.224822
 21
216.963709
 31
0.0
  0
LWPOLYLINE
  5
200
100
AcDbEntity
  8
0
100
AcDbPolyline
 90
        2
 70
     0
 43
0.0
 10
412.568464
 20
220.330503
 10
377.582753
 20
255.316214
  0
LWPOLYLINE
  5
204
100
AcDbEntity
  8
0
100
AcDbPolyline
 90
        2
 70
     0
 43
0.0
 10
370.849164
 20
255.316214
 10
335.863453
 20
220.330503
  0
CIRCLE
  5
208
100
AcDbEntity
  8
0
100
AcDbCircle
 10
342.215959
 20
216.963709
 30
0.0
 40
3.4
  0
CIRCLE
  5
209
100
AcDbEntity
  8
0
 62
     3
100
AcDbCircle
 10
342.215959
 20
216.963709
 30
0.0
 40
4.0
  0
CIRCLE
  5
20A
100
AcDbEntity
  8
0
100
AcDbCircle
 10
342.215959
 20
216.963709
 30
0.0
 40
5.5
  0
ARC
  5
20B
100
AcDbEntity
  8
0
100
AcDbCircle
 10
374.215959
 20
216.963709
 30
0.0
 40
38.5
100
AcDbArc
 50
174.983121
 51
185.016879
  0
CIRCLE
  5
20C
100
AcDbEntity
  8
0
 62
     3
100
AcDbCircle
 10
374.215959
 20
248.963709
 30
0.0
 40
4.0
  0
CIRCLE
  5
20D
100
AcDbEntity
  8
0
100
AcDbCircle
 10
374.215959
 20
248.963709
 30
0.0
 40
5.5
  0
CIRCLE
  5
20E
100
AcDbEntity
  8
0
100
AcDbCircle
 10
374.215959
 20
248.963709
 30
0.0
 40
3.4
  0
ARC
  5
20F
100
AcDbEntity
  8
0
100
AcDbCircle
 10
374.215959
 20
216.963709
 30
0.0
 40
38.5
100
AcDbArc
 50
84.983121
 51
95.016879
  0
CIRCLE
  5
210
100
AcDbEntity
  8
0
100
AcDbCircle
 10
406.215959
 20
216.963709
 30
0.0
 40
5.5
  0
ARC
  5
211
100
AcDbEntity
  8
0
100
AcDbCircle
 10
374.215959
 20
216.963709
 30
0.0
 40
38.5
100
AcDbArc
 50
354.983121
 51
5.016879
  0
CIRCLE
  5
212
100
AcDbEntity
  8
0
100
AcDbCircle
 10
406.215959
 20
216.963709
 30
0.0
 40
3.4
  0
CIRCLE
  5
213
100
AcDbEntity
  8
0
 62
     3
100
AcDbCircle
 10
406.215959
 20
216.963709
 30
0.0
 40
4.0
  0
ENDSEC
  0
SECTION
  2
OBJECTS
  0
DICTIONARY
  5
10F
100
AcDbDictionary
  3
ACAD_GROUP
350
110
  3
ACAD_LAYOUT
350
11C
  3
ACAD_MLINESTYLE
350
119
  3
ACAD_PLOTSETTINGS
350
11B
  3
ACAD_PLOTSTYLENAME
350
111
  3
ACDBHEADERROUNDTRIPXREC
350
220
  3
AcDbVariableDictionary
350
249
  0
DICTIONARY
  5
21E
100
AcDbDictionary
280
     1
  3
ACAD_XREC_ROUNDTRIP
360
21F
  0
DICTIONARY
  5
21A
100
AcDbDictionary
280
     1
  3
ACAD_XREC_ROUNDTRIP
360
21B
  0
DICTIONARY
  5
21C
100
AcDbDictionary
280
     1
  3
ACAD_XREC_ROUNDTRIP
360
21D
  0
DICTIONARY
  5
247
100
AcDbDictionary
280
     1
  3
ACAD_XREC_ROUNDTRIP
360
248
  0
DICTIONARY
  5
216
100
AcDbDictionary
280
     1
  3
ACAD_LAYOUTSELFREF
360
246
  3
ACAD_XREC_ROUNDTRIP
360
217
  0
DICTIONARY
  5
218
100
AcDbDictionary
280
     1
  3
ACAD_LAYOUTSELFREF
360
245
  3
ACAD_XREC_ROUNDTRIP
360
219
  0
DICTIONARY
  5
110
102
{ACAD_REACTORS
330
10F
102
}
100
AcDbDictionary
  0
DICTIONARY
  5
11C
102
{ACAD_XDICTIONARY
360
243
102
}
102
{ACAD_REACTORS
330
10F
102
}
100
AcDbDictionary
  3
MODEL
350
124
  3
ﾚｲｱｳﾄ1
350
120
  0
DICTIONARY
  5
119
102
{ACAD_XDICTIONARY
360
241
102
}
102
{ACAD_REACTORS
330
10F
102
}
100
AcDbDictionary
  3
STANDARD
350
11A
  0
DICTIONARY
  5
11B
102
{ACAD_REACTORS
330
10F
102
}
100
AcDbDictionary
  0
ACAD_PROXY_OBJECT
  5
111
102
{ACAD_REACTORS
330
10F
102
}
100
AcDbProxyObject
 90
      499
 91
      500
 93
       86
310
405010041939BDC9B585B0
350
112
340
112
 94
        0
  0
DICTIONARY
  5
220
102
{ACAD_REACTORS
330
10F
102
}
100
AcDbDictionary
  3
CEPSNTYPE
350
22A
  3
DIMSTYLEDATA
350
22E
  3
FINGERPRINTGUID
350
22B
  3
HYPERLINKBASE
350
223
  3
INSUNITS
350
229
  3
LAYOUTDICT
350
225
  3
LWETCUNION
350
228
  3
PLOTSETDICT
350
226
  3
PLOTSTYLNAMDICT
350
227
  3
PSVPSCALE
350
22D
  3
PUCSBASE
350
231
  3
PUCSORGBACK
350
237
  3
PUCSORGBOTTOM
350
233
  3
PUCSORGFRONT
350
236
  3
PUCSORGLEFT
350
234
  3
PUCSORGRIGHT
350
235
  3
PUCSORGTOP
350
232
  3
PUCSORTHOREF
350
22F
  3
PUCSORTHOVIEW
350
230
  3
STYLESHEET
350
224
  3
TSTACKALIGN
350
221
  3
TSTACKSIZE
350
222
  3
UCSBASE
350
23A
  3
UCSORGBACK
350
240
  3
UCSORGBOTTOM
350
23C
  3
UCSORGFRONT
350
23F
  3
UCSORGLEFT
350
23D
  3
UCSORGRIGHT
350
23E
  3
UCSORGTOP
350
23B
  3
UCSORTHOREF
350
238
  3
UCSORTHOVIEW
350
239
  3
VERSIONGUID
350
22C
  0
DICTIONARY
  5
249
102
{ACAD_REACTORS
330
10F
102
}
100
AcDbDictionary
  3
DIMASSOC
350
24A
  0
XRECORD
  5
21F
102
{ACAD_REACTORS
330
21E
102
}
100
AcDbXrecord
102
EXTNAMES
  1
*ACTIVE
  2
*Active
102
UCS
 74
     0
 71
     0
 10
0.0
 20
0.0
 30
0.0
 10
1.0
 20
0.0
 30
0.0
 10
0.0
 20
1.0
 30
0.0
146
0.0
 79
     0
102
VIEW
281
     0
  0
XRECORD
  5
21B
102
{ACAD_REACTORS
330
21A
102
}
100
AcDbXrecord
102
EXTNAMES
  1
BYBLOCK
  2
ByBlock
  0
XRECORD
  5
21D
102
{ACAD_REACTORS
330
21C
102
}
100
AcDbXrecord
102
EXTNAMES
  1
BYLAYER
  2
ByLayer
  0
XRECORD
  5
248
102
{ACAD_REACTORS
330
247
102
}
100
AcDbXrecord
102
ACADR14ROUNDTRIP
1000
DSTYLE
1002
{
1070
   279
 70
     2
1002
}
  0
XRECORD
  5
246
102
{ACAD_REACTORS
330
216
102
}
100
AcDbXrecord
340
121
  0
XRECORD
  5
217
102
{ACAD_REACTORS
330
216
102
}
100
AcDbXrecord
102
EXTNAMES
  1
*MODEL_SPACE
  2
*Model_Space
  0
XRECORD
  5
245
102
{ACAD_REACTORS
330
218
102
}
100
AcDbXrecord
340
11D
  0
XRECORD
  5
219
102
{ACAD_REACTORS
330
218
102
}
100
AcDbXrecord
102
EXTNAMES
  1
*PAPER_SPACE
  2
*Paper_Space
  0
DICTIONARY
  5
243
100
AcDbDictionary
280
     1
  3
ACAD_XREC_ROUNDTRIP
360
244
  0
ACAD_PROXY_OBJECT
  5
124
102
{ACAD_REACTORS
330
11C
102
}
100
AcDbProxyObject
 90
      499
 91
      502
 93
      836
310
932433A5C50524F4752414D2046494C45535C4D4454365C706C6F74746572735C526F6C616E64204458592D313235302E7063332C01AAAAAAAAA5A69054D6F64656C901A800000000000000000000000000000000000000000000A1000000000000008902A6A6AAAAF
330
121
330
0
340
0
340
0
 94
        0
  0
ACAD_PROXY_OBJECT
  5
120
102
{ACAD_REACTORS
330
11C
102
}
100
AcDbProxyObject
 90
      499
 91
      502
 93
     1244
310
932433A5C50524F4752414D2046494C45535C4D4454365C706C6F74746572735C526F6C616E64204458592D313235302E7063332C00AAAAAA416AA59106906DAB2B1B3C431406A800000000000000000000000000000000000000000101E900000000000241C902A6A6A10232D5E076BC5510408CB5781DAF154410232D5E0
310
76BC5510408CB5781DAF15C410232D5E076BC5710408CB5781DAF15C44
330
11D
330
0
340
0
340
0
 94
        0
  0
DICTIONARY
  5
241
100
AcDbDictionary
280
     1
  3
ACAD_XREC_ROUNDTRIP
360
242
  0
MLINESTYLE
  5
11A
102
{ACAD_REACTORS
330
119
102
}
100
AcDbMlineStyle
  2
STANDARD
 70
     0
  3

 62
   256
 51
90.0
 52
90.0
 71
     2
 49
0.5
 62
   256
  6
BYLAYER
 49
-0.5
 62
   256
  6
BYLAYER
  0
ACAD_PROXY_OBJECT
  5
112
102
{ACAD_REACTORS
330
111
102
}
100
AcDbProxyObject
 90
      499
 91
      501
 93
        0
 94
        0
  0
XRECORD
  5
22A
102
{ACAD_REACTORS
330
220
102
}
100
AcDbXrecord
 90
        0
  0
XRECORD
  5
22E
102
{ACAD_REACTORS
330
220
102
}
100
AcDbXrecord
1000
DSTYLE
1002
{
1070
   341
340
132
1070
   342
340
132
1070
   343
340
132
1070
   344
340
132
1002
}
  0
XRECORD
  5
22B
102
{ACAD_REACTORS
330
220
102
}
100
AcDbXrecord
  1
{A08FA85E-D92E-412A-9372-2C8B5A56EE24}
  0
XRECORD
  5
223
102
{ACAD_REACTORS
330
220
102
}
100
AcDbXrecord
  1

  0
XRECORD
  5
229
102
{ACAD_REACTORS
330
220
102
}
100
AcDbXrecord
 90
        0
  0
XRECORD
  5
225
102
{ACAD_REACTORS
330
220
102
}
100
AcDbXrecord
340
11C
  0
XRECORD
  5
228
102
{ACAD_REACTORS
330
220
102
}
100
AcDbXrecord
 90
    10781
  0
XRECORD
  5
226
102
{ACAD_REACTORS
330
220
102
}
100
AcDbXrecord
340
11B
  0
XRECORD
  5
227
102
{ACAD_REACTORS
330
220
102
}
100
AcDbXrecord
340
111
  0
XRECORD
  5
22D
102
{ACAD_REACTORS
330
220
102
}
100
AcDbXrecord
 40
0.0
  0
XRECORD
  5
231
102
{ACAD_REACTORS
330
220
102
}
100
AcDbXrecord
340
0
  0
XRECORD
  5
237
102
{ACAD_REACTORS
330
220
102
}
100
AcDbXrecord
 10
0.0
 20
0.0
 30
0.0
  0
XRECORD
  5
233
102
{ACAD_REACTORS
330
220
102
}
100
AcDbXrecord
 10
0.0
 20
0.0
 30
0.0
  0
XRECORD
  5
236
102
{ACAD_REACTORS
330
220
102
}
100
AcDbXrecord
 10
0.0
 20
0.0
 30
0.0
  0
XRECORD
  5
234
102
{ACAD_REACTORS
330
220
102
}
100
AcDbXrecord
 10
0.0
 20
0.0
 30
0.0
  0
XRECORD
  5
235
102
{ACAD_REACTORS
330
220
102
}
100
AcDbXrecord
 10
0.0
 20
0.0
 30
0.0
  0
XRECORD
  5
232
102
{ACAD_REACTORS
330
220
102
}
100
AcDbXrecord
 10
0.0
 20
0.0
 30
0.0
  0
XRECORD
  5
22F
102
{ACAD_REACTORS
330
220
102
}
100
AcDbXrecord
340
0
  0
XRECORD
  5
230
102
{ACAD_REACTORS
330
220
102
}
100
AcDbXrecord
 70
     0
  0
XRECORD
  5
224
102
{ACAD_REACTORS
330
220
102
}
100
AcDbXrecord
  1

  0
XRECORD
  5
221
102
{ACAD_REACTORS
330
220
102
}
100
AcDbXrecord
 90
        1
  0
XRECORD
  5
222
102
{ACAD_REACTORS
330
220
102
}
100
AcDbXrecord
 90
       70
  0
XRECORD
  5
23A
102
{ACAD_REACTORS
330
220
102
}
100
AcDbXrecord
340
0
  0
XRECORD
  5
240
102
{ACAD_REACTORS
330
220
102
}
100
AcDbXrecord
 10
0.0
 20
0.0
 30
0.0
  0
XRECORD
  5
23C
102
{ACAD_REACTORS
330
220
102
}
100
AcDbXrecord
 10
0.0
 20
0.0
 30
0.0
  0
XRECORD
  5
23F
102
{ACAD_REACTORS
330
220
102
}
100
AcDbXrecord
 10
0.0
 20
0.0
 30
0.0
  0
XRECORD
  5
23D
102
{ACAD_REACTORS
330
220
102
}
100
AcDbXrecord
 10
0.0
 20
0.0
 30
0.0
  0
XRECORD
  5
23E
102
{ACAD_REACTORS
330
220
102
}
100
AcDbXrecord
 10
0.0
 20
0.0
 30
0.0
  0
XRECORD
  5
23B
102
{ACAD_REACTORS
330
220
102
}
100
AcDbXrecord
 10
0.0
 20
0.0
 30
0.0
  0
XRECORD
  5
238
102
{ACAD_REACTORS
330
220
102
}
100
AcDbXrecord
340
0
  0
XRECORD
  5
239
102
{ACAD_REACTORS
330
220
102
}
100
AcDbXrecord
 70
     0
  0
XRECORD
  5
22C
102
{ACAD_REACTORS
330
220
102
}
100
AcDbXrecord
  1
{8C3B4556-7DBA-46A1-86BD-8AB883102E12}
  0
DICTIONARYVAR
  5
24A
102
{ACAD_REACTORS
330
249
102
}
100
DictionaryVariables
280
     0
  1
1
  0
XRECORD
  5
244
102
{ACAD_REACTORS
330
243
102
}
100
AcDbXrecord
102
EXTNAMES
  1
MODEL
  2
Model
  0
XRECORD
  5
242
102
{ACAD_REACTORS
330
241
102
}
100
AcDbXrecord
102
EXTNAMES
  1
STANDARD
  2
Standard
  0
ENDSEC
  0
EOF
