  0
SECTION
  2
HEADER
  9
$ACADVER
  1
AC1014
  9
$ACADMAINTVER
 70
     0
  9
$DWGCODEPAGE
  3
ANSI_932
  9
$INSBASE
 10
0.0
 20
0.0
 30
0.0
  9
$EXTMIN
 10
98.032768
 20
66.133484
 30
0.0
  9
$EXTMAX
 10
207.936764
 20
124.476001
 30
0.0
  9
$LIMMIN
 10
0.0
 20
0.0
  9
$LIMMAX
 10
297.0
 20
210.0
  9
$ORTHOMODE
 70
     0
  9
$REGENMODE
 70
     1
  9
$FILLMODE
 70
     1
  9
$QTEXTMODE
 70
     0
  9
$MIRRTEXT
 70
     1
  9
$DRAGMODE
 70
     2
  9
$LTSCALE
 40
0.25
  9
$OSMODE
 70
    37
  9
$ATTMODE
 70
     1
  9
$TEXTSIZE
 40
4.0
  9
$TRACEWID
 40
1.0
  9
$TEXTSTYLE
  7
STANDARD
  9
$CLAYER
  8
0
  9
$CELTYPE
  6
BYLAYER
  9
$CECOLOR
 62
   256
  9
$CELTSCALE
 40
1.0
  9
$DELOBJ
 70
     1
  9
$DISPSILH
 70
     0
  9
$DIMSCALE
 40
1.0
  9
$DIMASZ
 40
3.0
  9
$DIMEXO
 40
1.0
  9
$DIMDLI
 40
10.0
  9
$DIMRND
 40
0.0
  9
$DIMDLE
 40
0.0
  9
$DIMEXE
 40
1.0
  9
$DIMTP
 40
0.0
  9
$DIMTM
 40
0.0
  9
$DIMTXT
 40
3.2
  9
$DIMCEN
 40
0.0
  9
$DIMTSZ
 40
0.0
  9
$DIMTOL
 70
     0
  9
$DIMLIM
 70
     0
  9
$DIMTIH
 70
     0
  9
$DIMTOH
 70
     0
  9
$DIMSE1
 70
     0
  9
$DIMSE2
 70
     0
  9
$DIMTAD
 70
     3
  9
$DIMZIN
 70
     8
  9
$DIMBLK
  1
ARROW
  9
$DIMASO
 70
     1
  9
$DIMSHO
 70
     1
  9
$DIMPOST
  1

  9
$DIMAPOST
  1

  9
$DIMALT
 70
     0
  9
$DIMALTD
 70
     2
  9
$DIMALTF
 40
0.04
  9
$DIMLFAC
 40
1.0
  9
$DIMTOFL
 70
     1
  9
$DIMTVP
 40
1.0
  9
$DIMTIX
 70
     0
  9
$DIMSOXD
 70
     0
  9
$DIMSAH
 70
     1
  9
$DIMBLK1
  1
OPEN
  9
$DIMBLK2
  1
OPEN
  9
$DIMSTYLE
  2
AA1
  9
$DIMCLRD
 70
     0
  9
$DIMCLRE
 70
     0
  9
$DIMCLRT
 70
     0
  9
$DIMTFAC
 40
0.6
  9
$DIMGAP
 40
1.0
  9
$DIMJUST
 70
     0
  9
$DIMSD1
 70
     0
  9
$DIMSD2
 70
     0
  9
$DIMTOLJ
 70
     1
  9
$DIMTZIN
 70
     0
  9
$DIMALTZ
 70
     0
  9
$DIMALTTZ
 70
     0
  9
$DIMFIT
 70
     3
  9
$DIMUPT
 70
     0
  9
$DIMUNIT
 70
     2
  9
$DIMDEC
 70
     4
  9
$DIMTDEC
 70
     4
  9
$DIMALTU
 70
     2
  9
$DIMALTTD
 70
     2
  9
$DIMTXSTY
  7
STANDARD
  9
$DIMAUNIT
 70
     0
  9
$LUNITS
 70
     2
  9
$LUPREC
 70
     2
  9
$SKETCHINC
 40
1.0
  9
$FILLETRAD
 40
10.0
  9
$AUNITS
 70
     0
  9
$AUPREC
 70
     0
  9
$MENU
  1
acad
  9
$ELEVATION
 40
0.0
  9
$PELEVATION
 40
0.0
  9
$THICKNESS
 40
0.0
  9
$LIMCHECK
 70
     0
  9
$BLIPMODE
 70
     0
  9
$CHAMFERA
 40
0.0
  9
$CHAMFERB
 40
0.0
  9
$CHAMFERC
 40
0.0
  9
$CHAMFERD
 40
0.0
  9
$SKPOLY
 70
     0
  9
$TDCREATE
 40
2451466.562397569
  9
$TDUPDATE
 40
2452821.753926041
  9
$TDINDWG
 40
0.0002116898
  9
$TDUSRTIMER
 40
0.0002116898
  9
$USRTIMER
 70
     1
  9
$ANGBASE
 50
0.0
  9
$ANGDIR
 70
     0
  9
$PDMODE
 70
     1
  9
$PDSIZE
 40
0.0
  9
$PLINEWID
 40
0.0
  9
$COORDS
 70
     1
  9
$SPLFRAME
 70
     0
  9
$SPLINETYPE
 70
     6
  9
$SPLINESEGS
 70
     8
  9
$ATTDIA
 70
     0
  9
$ATTREQ
 70
     1
  9
$HANDLING
 70
     1
  9
$HANDSEED
  5
25A
  9
$SURFTAB1
 70
     6
  9
$SURFTAB2
 70
     6
  9
$SURFTYPE
 70
     6
  9
$SURFU
 70
     6
  9
$SURFV
 70
     6
  9
$UCSNAME
  2

  9
$UCSORG
 10
0.0
 20
0.0
 30
0.0
  9
$UCSXDIR
 10
1.0
 20
0.0
 30
0.0
  9
$UCSYDIR
 10
0.0
 20
1.0
 30
0.0
  9
$PUCSNAME
  2

  9
$PUCSORG
 10
0.0
 20
0.0
 30
0.0
  9
$PUCSXDIR
 10
1.0
 20
0.0
 30
0.0
  9
$PUCSYDIR
 10
0.0
 20
1.0
 30
0.0
  9
$USERI1
 70
     0
  9
$USERI2
 70
     0
  9
$USERI3
 70
     0
  9
$USERI4
 70
     0
  9
$USERI5
 70
     0
  9
$USERR1
 40
0.0
  9
$USERR2
 40
0.0
  9
$USERR3
 40
0.0
  9
$USERR4
 40
0.0
  9
$USERR5
 40
0.0
  9
$WORLDVIEW
 70
     1
  9
$SHADEDGE
 70
     3
  9
$SHADEDIF
 70
    70
  9
$TILEMODE
 70
     1
  9
$MAXACTVP
 70
    16
  9
$PINSBASE
 10
0.0
 20
0.0
 30
0.0
  9
$PLIMCHECK
 70
     0
  9
$PEXTMIN
 10
1.000000E+20
 20
1.000000E+20
 30
1.000000E+20
  9
$PEXTMAX
 10
-1.000000E+20
 20
-1.000000E+20
 30
-1.000000E+20
  9
$PLIMMIN
 10
0.0
 20
0.0
  9
$PLIMMAX
 10
420.0
 20
297.0
  9
$UNITMODE
 70
     0
  9
$VISRETAIN
 70
     0
  9
$PLINEGEN
 70
     0
  9
$PSLTSCALE
 70
     0
  9
$TREEDEPTH
 70
  3020
  9
$PICKSTYLE
 70
     1
  9
$CMLSTYLE
  2
STANDARD
  9
$CMLJUST
 70
     0
  9
$CMLSCALE
 40
1.0
  9
$PROXYGRAPHICS
 70
     1
  9
$MEASUREMENT
 70
     0
  0
ENDSEC
  0
SECTION
  2
CLASSES
  0
CLASS
  1
ACDBDICTIONARYWDFLT
  2
AcDbDictionaryWithDefault
  3
AutoCAD 2000
 90
        0
280
     0
281
     0
  0
CLASS
  1
ACDBPLACEHOLDER
  2
AcDbPlaceHolder
  3
AutoCAD 2000
 90
        0
280
     0
281
     0
  0
CLASS
  1
LAYOUT
  2
AcDbLayout
  3
AutoCAD 2000
 90
        0
280
     0
281
     0
  0
CLASS
  1
DICTIONARYVAR
  2
AcDbDictionaryVar
  3
"AutoCAD"
 90
        0
280
     0
281
     0
  0
CLASS
  1
LONG_TRANSACTION
  2
AcDbLongTransaction
  3
AutoCAD 2000
 90
        0
280
     0
281
     0
  0
CLASS
  1
LWPOLYLINE
  2
AcDbPolyline
  3
"AutoCAD"
 90
        0
280
     0
281
     1
  0
CLASS
  1
HATCH
  2
AcDbHatch
  3
"ACAD_SEDONA"
 90
        0
280
     0
281
     1
  0
CLASS
  1
XRECORD
  2
AcDbXrecord
  3
"<Built In>"
 90
        0
280
     0
281
     0
  0
ENDSEC
  0
SECTION
  2
TABLES
  0
TABLE
  2
VPORT
  5
111
100
AcDbSymbolTable
 70
     1
  0
VPORT
  5
221
102
{ACAD_XDICTIONARY
360
22A
102
}
100
AcDbSymbolTableRecord
100
AcDbViewportTableRecord
  2
*ACTIVE
 70
     0
 10
0.0
 20
0.0
 11
1.0
 21
1.0
 12
148.500001
 22
157.716653
 13
0.0
 23
0.0
 14
10.0
 24
10.0
 15
0.0
 25
0.0
 16
0.0
 26
0.0
 36
1.0
 17
0.0
 27
0.0
 37
0.0
 40
346.308221
 41
1.530211
 42
50.0
 43
0.0
 44
0.0
 50
0.0
 51
0.0
 71
     0
 72
   100
 73
     1
 74
     0
 75
     0
 76
     0
 77
     0
 78
     1
  0
ENDTAB
  0
TABLE
  2
LTYPE
  5
10E
100
AcDbSymbolTable
 70
     3
  0
LTYPE
  5
11C
102
{ACAD_XDICTIONARY
360
226
102
}
100
AcDbSymbolTableRecord
100
AcDbLinetypeTableRecord
  2
BYBLOCK
 70
     0
  3

 72
    65
 73
     0
 40
0.0
  0
LTYPE
  5
11D
102
{ACAD_XDICTIONARY
360
228
102
}
100
AcDbSymbolTableRecord
100
AcDbLinetypeTableRecord
  2
BYLAYER
 70
     0
  3

 72
    65
 73
     0
 40
0.0
  0
LTYPE
  5
11E
100
AcDbSymbolTableRecord
100
AcDbLinetypeTableRecord
  2
CONTINUOUS
 70
     0
  3
Solid line
 72
    65
 73
     0
 40
0.0
  0
LTYPE
  5
12C
100
AcDbSymbolTableRecord
100
AcDbLinetypeTableRecord
  2
CENTER
 70
     0
  3
____ _ ____ _ ____ _ ____ _ ____ _ ____ _ ____ 
 72
    65
 73
     4
 40
50.8
 49
31.75
 74
     0
 49
-6.35
 74
     0
 49
6.35
 74
     0
 49
-6.35
 74
     0
  0
LTYPE
  5
12D
100
AcDbSymbolTableRecord
100
AcDbLinetypeTableRecord
  2
DASHED
 70
     0
  3
__ __ __ __ __ __ __ __ __ __ __ __ __ __ __ __
 72
    65
 73
     2
 40
0.75
 49
0.5
 74
     0
 49
-0.25
 74
     0
  0
ENDTAB
  0
TABLE
  2
LAYER
  5
10B
100
AcDbSymbolTable
 70
     3
  0
LAYER
  5
119
100
AcDbSymbolTableRecord
100
AcDbLayerTableRecord
  2
0
 70
     0
 62
     7
  6
CONTINUOUS
  0
LAYER
  5
12E
100
AcDbSymbolTableRecord
100
AcDbLayerTableRecord
  2
DIMENSION
 70
     0
 62
    -4
  6
CONTINUOUS
  0
LAYER
  5
12F
100
AcDbSymbolTableRecord
100
AcDbLayerTableRecord
  2
CENTER
 70
     0
 62
     1
  6
CENTER
  0
ENDTAB
  0
TABLE
  2
STYLE
  5
10C
100
AcDbSymbolTable
 70
     1
  0
STYLE
  5
11A
100
AcDbSymbolTableRecord
100
AcDbTextStyleTableRecord
  2
STANDARD
 70
     0
 40
0.0
 41
1.0
 50
0.0
 71
     0
 42
4.0
  3
txt
  4

  0
ENDTAB
  0
TABLE
  2
VIEW
  5
10F
100
AcDbSymbolTable
 70
     0
  0
ENDTAB
  0
TABLE
  2
UCS
  5
110
100
AcDbSymbolTable
 70
     0
  0
ENDTAB
  0
TABLE
  2
APPID
  5
112
100
AcDbSymbolTable
 70
     1
  0
APPID
  5
11B
100
AcDbSymbolTableRecord
100
AcDbRegAppTableRecord
  2
ACAD
 70
     0
  0
ENDTAB
  0
TABLE
  2
DIMSTYLE
  5
113
100
AcDbSymbolTable
 70
     1
  0
DIMSTYLE
105
130
102
{ACAD_XDICTIONARY
360
253
102
}
100
AcDbSymbolTableRecord
100
AcDbDimStyleTableRecord
  2
AA1
 70
     0
  3

  4

  5

  6

  7

 40
1.0
 41
3.0
 42
1.0
 43
10.0
 44
1.0
 45
0.0
 46
0.0
 47
0.0
 48
0.0
140
3.2
141
0.0
142
0.0
143
0.04
144
1.0
145
1.0
146
0.6
147
0.0
 71
     0
 72
     0
 73
     0
 74
     0
 75
     0
 76
     0
 77
     0
 78
     8
170
     0
171
     2
172
     1
173
     0
174
     0
175
     0
176
     0
177
     0
178
     0
270
     2
271
     2
272
     2
273
     2
274
     2
340
11A
275
     0
280
     0
281
     0
282
     0
283
     1
284
     8
285
     8
286
     8
287
     5
288
     0
  0
ENDTAB
  0
TABLE
  2
BLOCK_RECORD
  5
10A
100
AcDbSymbolTable
 70
     4
  0
BLOCK_RECORD
  5
127
102
{ACAD_XDICTIONARY
360
222
102
}
100
AcDbSymbolTableRecord
100
AcDbBlockTableRecord
  2
*MODEL_SPACE
  0
BLOCK_RECORD
  5
123
102
{ACAD_XDICTIONARY
360
224
102
}
100
AcDbSymbolTableRecord
100
AcDbBlockTableRecord
  2
*PAPER_SPACE
  0
BLOCK_RECORD
  5
132
100
AcDbSymbolTableRecord
100
AcDbBlockTableRecord
  2
$MODEL_SPACE
  0
BLOCK_RECORD
  5
135
100
AcDbSymbolTableRecord
100
AcDbBlockTableRecord
  2
$PAPER_SPACE
  0
BLOCK_RECORD
  5
138
100
AcDbSymbolTableRecord
100
AcDbBlockTableRecord
  2
ARROW
  0
BLOCK_RECORD
  5
13E
100
AcDbSymbolTableRecord
100
AcDbBlockTableRecord
  2
_OPEN
  0
ENDTAB
  0
ENDSEC
  0
SECTION
  2
BLOCKS
  0
BLOCK
  5
128
100
AcDbEntity
  8
0
100
AcDbBlockBegin
  2
*MODEL_SPACE
 70
     0
 10
0.0
 20
0.0
 30
0.0
  3
*MODEL_SPACE
  1

  0
ENDBLK
  5
129
100
AcDbEntity
  8
0
100
AcDbBlockEnd
  0
BLOCK
  5
124
100
AcDbEntity
 67
     1
  8
0
100
AcDbBlockBegin
  2
*PAPER_SPACE
 70
     0
 10
0.0
 20
0.0
 30
0.0
  3
*PAPER_SPACE
  1

  0
ENDBLK
  5
125
100
AcDbEntity
 67
     1
  8
0
100
AcDbBlockEnd
  0
BLOCK
  5
133
100
AcDbEntity
  8
0
100
AcDbBlockBegin
  2
$MODEL_SPACE
 70
     0
 10
0.0
 20
0.0
 30
0.0
  3
$MODEL_SPACE
  1

  0
ENDBLK
  5
134
100
AcDbEntity
  8
0
100
AcDbBlockEnd
  0
BLOCK
  5
136
100
AcDbEntity
  8
0
100
AcDbBlockBegin
  2
$PAPER_SPACE
 70
     0
 10
0.0
 20
0.0
 30
0.0
  3
$PAPER_SPACE
  1

  0
ENDBLK
  5
137
100
AcDbEntity
  8
0
100
AcDbBlockEnd
  0
BLOCK
  5
139
100
AcDbEntity
  8
0
100
AcDbBlockBegin
  2
ARROW
 70
     0
 10
0.0
 20
0.0
 30
0.0
  3
ARROW
  1

  0
LINE
  5
13A
100
AcDbEntity
  8
DIMENSION
100
AcDbLine
 10
0.0
 20
0.0
 30
0.0
 11
-1.0
 21
0.176327
 31
0.0
  0
LINE
  5
13B
100
AcDbEntity
  8
DIMENSION
100
AcDbLine
 10
0.0
 20
0.0
 30
0.0
 11
-1.0
 21
-0.176327
 31
0.0
  0
LINE
  5
13C
100
AcDbEntity
  8
DIMENSION
100
AcDbLine
 10
-1.0
 20
0.0
 30
0.0
 11
0.0
 21
0.0
 31
0.0
  0
ENDBLK
  5
13D
100
AcDbEntity
  8
0
100
AcDbBlockEnd
  0
BLOCK
  5
13F
100
AcDbEntity
  8
0
100
AcDbBlockBegin
  2
_OPEN
 70
     0
 10
0.0
 20
0.0
 30
0.0
  3
_OPEN
  1

  0
LINE
  5
140
100
AcDbEntity
  8
0
  6
BYBLOCK
 62
     0
100
AcDbLine
 10
-1.0
 20
0.166667
 30
0.0
 11
0.0
 21
0.0
 31
0.0
  0
LINE
  5
141
100
AcDbEntity
  8
0
  6
BYBLOCK
 62
     0
100
AcDbLine
 10
0.0
 20
0.0
 30
0.0
 11
-1.0
 21
-0.166667
 31
0.0
  0
LINE
  5
142
100
AcDbEntity
  8
0
  6
BYBLOCK
 62
     0
100
AcDbLine
 10
0.0
 20
0.0
 30
0.0
 11
-1.0
 21
0.0
 31
0.0
  0
ENDBLK
  5
143
100
AcDbEntity
  8
0
100
AcDbBlockEnd
  0
ENDSEC
  0
SECTION
  2
ENTITIES
  0
LINE
  5
144
100
AcDbEntity
  8
0
100
AcDbLine
 10
100.032768
 20
111.304742
 30
0.0
 11
100.032768
 21
79.304742
 31
0.0
  0
LINE
  5
145
100
AcDbEntity
  8
0
100
AcDbLine
 10
102.032768
 20
82.904742
 30
0.0
 11
102.032768
 21
107.704742
 31
0.0
  0
LINE
  5
146
100
AcDbEntity
  8
0
100
AcDbLine
 10
113.032768
 20
120.304742
 30
0.0
 11
113.032768
 21
70.304742
 31
0.0
  0
LINE
  5
147
100
AcDbEntity
  8
0
100
AcDbLine
 10
111.382768
 20
81.704742
 30
0.0
 11
111.382768
 21
108.904742
 31
0.0
  0
LINE
  5
148
100
AcDbEntity
  8
0
100
AcDbLine
 10
110.032768
 20
81.704742
 30
0.0
 11
110.032768
 21
108.904742
 31
0.0
  0
CIRCLE
  5
149
100
AcDbEntity
  8
0
100
AcDbCircle
 10
106.032768
 20
104.204722
 30
0.0
 40
2.38125
  0
LINE
  5
14A
100
AcDbEntity
  8
0
100
AcDbLine
 10
102.563768
 20
105.314722
 30
0.0
 11
102.563768
 21
102.604732
 31
0.0
  0
LINE
  5
14B
100
AcDbEntity
  8
0
100
AcDbLine
 10
102.363768
 20
105.429742
 30
0.0
 11
102.363768
 21
102.604732
 31
0.0
  0
LINE
  5
14C
100
AcDbEntity
  8
0
100
AcDbLine
 10
109.501768
 20
105.314722
 30
0.0
 11
109.501768
 21
102.604732
 31
0.0
  0
LINE
  5
14D
100
AcDbEntity
  8
0
100
AcDbLine
 10
109.701768
 20
105.429742
 30
0.0
 11
109.701768
 21
102.604732
 31
0.0
  0
LINE
  5
150
100
AcDbEntity
  8
CENTER
  6
CENTER
 62
     1
100
AcDbLine
 10
115.032768
 20
95.304742
 30
0.0
 11
98.032768
 21
95.304742
 31
0.0
  0
LINE
  5
151
100
AcDbEntity
  8
CENTER
  6
CENTER
 62
     1
100
AcDbLine
 10
98.032768
 20
75.304742
 30
0.0
 11
115.032768
 21
75.304742
 31
0.0
  0
LINE
  5
152
100
AcDbEntity
  8
0
100
AcDbLine
 10
113.032768
 20
70.304742
 30
0.0
 11
102.032768
 21
70.304742
 31
0.0
  0
LINE
  5
153
100
AcDbEntity
  8
0
100
AcDbLine
 10
102.032768
 20
73.154742
 30
0.0
 11
108.632768
 21
73.154742
 31
0.0
  0
LINE
  5
154
100
AcDbEntity
  8
0
 62
     3
100
AcDbLine
 10
102.032768
 20
72.804742
 30
0.0
 11
108.632768
 21
72.804742
 31
0.0
  0
LINE
  5
155
100
AcDbEntity
  8
0
 62
     3
100
AcDbLine
 10
102.032768
 20
77.804742
 30
0.0
 11
108.632768
 21
77.804742
 31
0.0
  0
LINE
  5
156
100
AcDbEntity
  8
0
100
AcDbLine
 10
102.032768
 20
77.454742
 30
0.0
 11
108.632768
 21
77.454742
 31
0.0
  0
ARC
  5
157
100
AcDbEntity
  8
0
100
AcDbCircle
 10
102.632768
 20
82.904742
 30
0.0
 40
0.6
100
AcDbArc
 50
180.0
 51
270.0
  0
ARC
  5
158
100
AcDbEntity
  8
0
100
AcDbCircle
 10
102.132768
 20
88.454752
 30
0.0
 40
0.10001
100
AcDbArc
 50
179.189749
 51
270.0
  0
ARC
  5
159
100
AcDbEntity
  8
0
100
AcDbCircle
 10
102.132768
 20
84.104752
 30
0.0
 40
0.1
100
AcDbArc
 50
90.0
 51
180.0
  0
ARC
  5
15A
100
AcDbEntity
  8
0
100
AcDbCircle
 10
102.632768
 20
89.704742
 30
0.0
 40
0.6
100
AcDbArc
 50
90.0
 51
180.0
  0
ARC
  5
15B
100
AcDbEntity
  8
0
100
AcDbCircle
 10
102.132768
 20
102.154732
 30
0.0
 40
0.10001
100
AcDbArc
 50
90.0
 51
180.810251
  0
ARC
  5
15C
100
AcDbEntity
  8
0
100
AcDbCircle
 10
102.632768
 20
100.904742
 30
0.0
 40
0.6
100
AcDbArc
 50
180.0
 51
270.0
  0
LINE
  5
15D
100
AcDbEntity
  8
0
100
AcDbLine
 10
102.032768
 20
70.304742
 30
0.0
 11
102.032768
 21
79.304742
 31
0.0
  0
LINE
  5
15E
100
AcDbEntity
  8
0
100
AcDbLine
 10
102.032768
 20
79.304742
 30
0.0
 11
100.032768
 21
79.304742
 31
0.0
  0
LINE
  5
15F
100
AcDbEntity
  8
0
100
AcDbLine
 10
102.032768
 20
84.304742
 30
0.0
 11
100.032768
 21
84.304742
 31
0.0
  0
LINE
  5
160
100
AcDbEntity
  8
0
100
AcDbLine
 10
108.632768
 20
71.304742
 30
0.0
 11
108.632768
 21
79.304742
 31
0.0
  0
LINE
  5
161
100
AcDbEntity
  8
0
100
AcDbLine
 10
108.632768
 20
71.304742
 30
0.0
 11
113.032768
 21
71.304742
 31
0.0
  0
ARC
  5
162
100
AcDbEntity
  8
0
100
AcDbCircle
 10
109.141849
 20
88.454752
 30
0.0
 40
0.2
100
AcDbArc
 50
90.0
 51
159.991562
  0
ARC
  5
163
100
AcDbEntity
  8
0
100
AcDbCircle
 10
109.23792
 20
88.454752
 30
0.0
 40
0.2
100
AcDbArc
 50
39.976177
 51
90.0
  0
ARC
  5
164
100
AcDbEntity
  8
0
100
AcDbCircle
 10
102.827616
 20
88.454752
 30
0.0
 40
0.2
100
AcDbArc
 50
90.0
 51
140.023823
  0
ARC
  5
165
100
AcDbEntity
  8
0
100
AcDbCircle
 10
102.923687
 20
88.454752
 30
0.0
 40
0.2
100
AcDbArc
 50
20.008438
 51
90.0
  0
CIRCLE
  5
166
100
AcDbEntity
  8
0
100
AcDbCircle
 10
106.032768
 20
86.404762
 30
0.0
 40
2.38125
  0
LINE
  5
167
100
AcDbEntity
  8
0
100
AcDbLine
 10
108.632768
 20
79.304742
 30
0.0
 11
113.032768
 21
79.304742
 31
0.0
  0
LINE
  5
168
100
AcDbEntity
  8
0
100
AcDbLine
 10
102.632768
 20
82.304742
 30
0.0
 11
110.032768
 21
82.304742
 31
0.0
  0
LINE
  5
169
100
AcDbEntity
  8
0
100
AcDbLine
 10
108.658717
 20
87.904752
 30
0.0
 11
107.882188
 21
87.904752
 31
0.0
  0
LINE
  5
16A
100
AcDbEntity
  8
0
100
AcDbLine
 10
108.730167
 20
84.904762
 30
0.0
 11
107.882188
 21
84.904762
 31
0.0
  0
LINE
  5
16B
100
AcDbEntity
  8
0
100
AcDbLine
 10
103.181101
 20
84.180611
 30
0.0
 11
103.235741
 21
84.813366
 31
0.0
  0
LINE
  5
16C
100
AcDbEntity
  8
0
100
AcDbLine
 10
102.634768
 20
84.629772
 30
0.0
 11
102.493257
 21
84.488271
 31
0.0
  0
LINE
  5
16D
100
AcDbEntity
  8
0
100
AcDbLine
 10
102.634768
 20
84.629772
 30
0.0
 11
102.775768
 21
84.487772
 31
0.0
  0
LINE
  5
16E
100
AcDbEntity
  8
0
100
AcDbLine
 10
102.981233
 20
84.203371
 30
0.0
 11
103.013768
 21
84.803792
 31
0.0
  0
LINE
  5
16F
100
AcDbEntity
  8
0
100
AcDbLine
 10
102.481158
 20
84.218654
 30
0.0
 11
102.651939
 21
84.014134
 31
0.0
  0
LINE
  5
170
100
AcDbEntity
  8
0
100
AcDbLine
 10
102.132768
 20
84.204752
 30
0.0
 11
102.492767
 21
84.204752
 31
0.0
  0
ARC
  5
171
100
AcDbEntity
  8
0
100
AcDbCircle
 10
102.634674
 20
84.346845
 30
0.0
 40
0.2
100
AcDbArc
 50
134.997982
 51
219.863047
  0
LINE
  5
172
100
AcDbEntity
  8
0
100
AcDbLine
 10
102.775778
 20
84.487782
 30
0.0
 11
102.634788
 21
84.346792
 31
0.0
  0
LINE
  5
173
100
AcDbEntity
  8
0
100
AcDbLine
 10
102.634768
 20
84.346752
 30
0.0
 11
102.804831
 21
84.144436
 31
0.0
  0
ARC
  5
174
100
AcDbEntity
  8
0
100
AcDbCircle
 10
102.88138
 20
84.208782
 30
0.0
 40
0.1
100
AcDbArc
 50
220.049728
 51
356.898336
  0
ARC
  5
175
100
AcDbEntity
  8
0
100
AcDbCircle
 10
102.882213
 20
84.206421
 30
0.0
 40
0.3
100
AcDbArc
 50
219.863047
 51
355.064609
  0
LINE
  5
176
100
AcDbEntity
  8
0
100
AcDbLine
 10
103.406819
 20
87.904752
 30
0.0
 11
104.183348
 21
87.904752
 31
0.0
  0
LINE
  5
177
100
AcDbEntity
  8
0
100
AcDbLine
 10
103.111616
 20
88.523184
 30
0.0
 11
103.312855
 21
87.970536
 31
0.0
  0
ARC
  5
178
100
AcDbEntity
  8
0
100
AcDbCircle
 10
103.406819
 20
88.004752
 30
0.0
 40
0.1
100
AcDbArc
 50
200.008438
 51
270.0
  0
LINE
  5
179
100
AcDbEntity
  8
0
100
AcDbLine
 10
103.33537
 20
84.904762
 30
0.0
 11
104.183348
 21
84.904762
 31
0.0
  0
LINE
  5
17A
100
AcDbEntity
  8
0
100
AcDbLine
 10
103.213768
 20
84.558752
 30
0.0
 11
103.213768
 21
84.919762
 31
0.0
  0
ARC
  5
17B
100
AcDbEntity
  8
0
100
AcDbCircle
 10
103.33537
 20
84.804762
 30
0.0
 40
0.1
100
AcDbArc
 50
90.0
 51
175.064609
  0
LINE
  5
17C
100
AcDbEntity
  8
0
100
AcDbLine
 10
102.363768
 20
85.179742
 30
0.0
 11
102.363768
 21
88.004752
 31
0.0
  0
LINE
  5
17D
100
AcDbEntity
  8
0
100
AcDbLine
 10
102.563768
 20
85.294762
 30
0.0
 11
102.563768
 21
88.004752
 31
0.0
  0
LINE
  5
17E
100
AcDbEntity
  8
0
100
AcDbLine
 10
102.482778
 20
88.354742
 30
0.0
 11
102.674354
 21
88.583246
 31
0.0
  0
LINE
  5
17F
100
AcDbEntity
  8
0
100
AcDbLine
 10
102.132768
 20
88.354742
 30
0.0
 11
102.482768
 21
88.354742
 31
0.0
  0
ARC
  5
180
100
AcDbEntity
  8
0
100
AcDbCircle
 10
102.563768
 20
88.004752
 30
0.0
 40
0.2
100
AcDbArc
 50
90.0
 51
180.0
  0
LINE
  5
181
100
AcDbEntity
  8
0
100
AcDbLine
 10
102.963768
 20
88.004752
 30
0.0
 11
102.563768
 21
88.004752
 31
0.0
  0
LINE
  5
182
100
AcDbEntity
  8
0
100
AcDbLine
 10
102.563768
 20
88.204752
 30
0.0
 11
102.963768
 21
88.204752
 31
0.0
  0
LINE
  5
183
100
AcDbEntity
  8
0
100
AcDbLine
 10
102.963768
 20
88.204752
 30
0.0
 11
102.963768
 21
88.004772
 31
0.0
  0
LINE
  5
184
100
AcDbEntity
  8
0
100
AcDbLine
 10
103.013778
 20
84.803792
 30
0.0
 11
102.363778
 21
85.179802
 31
0.0
  0
LINE
  5
185
100
AcDbEntity
  8
0
100
AcDbLine
 10
103.213778
 20
84.919812
 30
0.0
 11
102.563778
 21
85.294812
 31
0.0
  0
LINE
  5
186
100
AcDbEntity
  8
0
100
AcDbLine
 10
109.430768
 20
84.629772
 30
0.0
 11
109.572279
 21
84.488271
 31
0.0
  0
LINE
  5
187
100
AcDbEntity
  8
0
100
AcDbLine
 10
109.430768
 20
84.629772
 30
0.0
 11
109.289768
 21
84.487772
 31
0.0
  0
LINE
  5
188
100
AcDbEntity
  8
0
100
AcDbLine
 10
108.884436
 20
84.180611
 30
0.0
 11
108.829796
 21
84.813366
 31
0.0
  0
LINE
  5
189
100
AcDbEntity
  8
0
100
AcDbLine
 10
109.084303
 20
84.203371
 30
0.0
 11
109.051768
 21
84.803792
 31
0.0
  0
LINE
  5
18A
100
AcDbEntity
  8
0
100
AcDbLine
 10
111.382768
 20
81.704742
 30
0.0
 11
110.032768
 21
81.704742
 31
0.0
  0
ARC
  5
18B
100
AcDbEntity
  8
0
100
AcDbCircle
 10
109.432768
 20
82.904742
 30
0.0
 40
0.6
100
AcDbArc
 50
270.0
 51
0.0
  0
LINE
  5
18C
100
AcDbEntity
  8
0
100
AcDbLine
 10
109.932768
 20
84.204752
 30
0.0
 11
109.57277
 21
84.204752
 31
0.0
  0
LINE
  5
18D
100
AcDbEntity
  8
0
100
AcDbLine
 10
109.584379
 20
84.218654
 30
0.0
 11
109.413597
 21
84.014134
 31
0.0
  0
ARC
  5
18E
100
AcDbEntity
  8
0
100
AcDbCircle
 10
109.430863
 20
84.346845
 30
0.0
 40
0.2
100
AcDbArc
 50
320.136953
 51
45.002018
  0
LINE
  5
18F
100
AcDbEntity
  8
0
100
AcDbLine
 10
109.430768
 20
84.346752
 30
0.0
 11
109.260706
 21
84.144436
 31
0.0
  0
LINE
  5
190
100
AcDbEntity
  8
0
100
AcDbLine
 10
109.289758
 20
84.487782
 30
0.0
 11
109.430748
 21
84.346792
 31
0.0
  0
ARC
  5
191
100
AcDbEntity
  8
0
100
AcDbCircle
 10
109.932768
 20
84.104752
 30
0.0
 40
0.1
100
AcDbArc
 50
0.0
 51
90.0
  0
ARC
  5
192
100
AcDbEntity
  8
0
100
AcDbCircle
 10
109.184157
 20
84.208782
 30
0.0
 40
0.1
100
AcDbArc
 50
183.101664
 51
319.950272
  0
ARC
  5
193
100
AcDbEntity
  8
0
100
AcDbCircle
 10
109.183324
 20
84.206421
 30
0.0
 40
0.3
100
AcDbArc
 50
184.935391
 51
320.136953
  0
LINE
  5
194
100
AcDbEntity
  8
0
100
AcDbLine
 10
113.032768
 20
82.304742
 30
0.0
 11
111.382768
 21
82.304742
 31
0.0
  0
LINE
  5
195
100
AcDbEntity
  8
0
100
AcDbLine
 10
111.382768
 20
84.504742
 30
0.0
 11
110.032768
 21
84.504742
 31
0.0
  0
LINE
  5
196
100
AcDbEntity
  8
0
100
AcDbLine
 10
109.701768
 20
85.179742
 30
0.0
 11
109.701768
 21
88.004752
 31
0.0
  0
LINE
  5
197
100
AcDbEntity
  8
0
100
AcDbLine
 10
109.501768
 20
85.294762
 30
0.0
 11
109.501768
 21
88.004752
 31
0.0
  0
ARC
  5
198
100
AcDbEntity
  8
0
100
AcDbCircle
 10
109.501768
 20
88.004752
 30
0.0
 40
0.2
100
AcDbArc
 50
0.0
 51
90.0
  0
LINE
  5
199
100
AcDbEntity
  8
0
100
AcDbLine
 10
109.932768
 20
88.354742
 30
0.0
 11
109.582768
 21
88.354742
 31
0.0
  0
LINE
  5
19A
100
AcDbEntity
  8
0
100
AcDbLine
 10
109.582758
 20
88.354742
 30
0.0
 11
109.391183
 21
88.583246
 31
0.0
  0
ARC
  5
19B
100
AcDbEntity
  8
0
100
AcDbCircle
 10
109.932768
 20
88.454752
 30
0.0
 40
0.10001
100
AcDbArc
 50
270.0
 51
0.810251
  0
LINE
  5
19C
100
AcDbEntity
  8
0
100
AcDbLine
 10
108.953921
 20
88.523184
 30
0.0
 11
108.752682
 21
87.970536
 31
0.0
  0
ARC
  5
19D
100
AcDbEntity
  8
0
100
AcDbCircle
 10
108.658717
 20
88.004752
 30
0.0
 40
0.1
100
AcDbArc
 50
270.0
 51
339.991562
  0
LINE
  5
19E
100
AcDbEntity
  8
0
100
AcDbLine
 10
109.101768
 20
88.204752
 30
0.0
 11
109.101768
 21
88.004772
 31
0.0
  0
ARC
  5
19F
100
AcDbEntity
  8
0
100
AcDbCircle
 10
108.730167
 20
84.804762
 30
0.0
 40
0.1
100
AcDbArc
 50
4.935391
 51
90.0
  0
LINE
  5
1A0
100
AcDbEntity
  8
0
100
AcDbLine
 10
108.851768
 20
84.558752
 30
0.0
 11
108.851768
 21
84.919762
 31
0.0
  0
LINE
  5
1A1
100
AcDbEntity
  8
0
100
AcDbLine
 10
109.501768
 20
88.204752
 30
0.0
 11
109.101768
 21
88.204752
 31
0.0
  0
LINE
  5
1A2
100
AcDbEntity
  8
0
100
AcDbLine
 10
109.101768
 20
88.004752
 30
0.0
 11
109.501768
 21
88.004752
 31
0.0
  0
LINE
  5
1A3
100
AcDbEntity
  8
0
100
AcDbLine
 10
109.051758
 20
84.803792
 30
0.0
 11
109.701758
 21
85.179802
 31
0.0
  0
LINE
  5
1A4
100
AcDbEntity
  8
0
100
AcDbLine
 10
108.851758
 20
84.919812
 30
0.0
 11
109.501758
 21
85.294812
 31
0.0
  0
LINE
  5
1A5
100
AcDbEntity
  8
0
100
AcDbLine
 10
102.632768
 20
90.304742
 30
0.0
 11
109.432768
 21
90.304742
 31
0.0
  0
LINE
  5
1A6
100
AcDbEntity
  8
0
100
AcDbLine
 10
102.827616
 20
88.654752
 30
0.0
 11
102.923687
 21
88.654752
 31
0.0
  0
ARC
  5
1A7
100
AcDbEntity
  8
0
100
AcDbCircle
 10
109.432768
 20
89.704742
 30
0.0
 40
0.6
100
AcDbArc
 50
360.0
 51
90.0
  0
LINE
  5
1A8
100
AcDbEntity
  8
0
100
AcDbLine
 10
109.23792
 20
88.654752
 30
0.0
 11
109.141849
 21
88.654752
 31
0.0
  0
LINE
  5
1A9
100
AcDbEntity
  8
0
100
AcDbLine
 10
108.658717
 20
102.704732
 30
0.0
 11
107.882188
 21
102.704732
 31
0.0
  0
LINE
  5
1AA
100
AcDbEntity
  8
0
100
AcDbLine
 10
102.632768
 20
100.304742
 30
0.0
 11
109.432768
 21
100.304742
 31
0.0
  0
ARC
  5
1AB
100
AcDbEntity
  8
0
100
AcDbCircle
 10
103.406819
 20
102.604732
 30
0.0
 40
0.1
100
AcDbArc
 50
90.0
 51
159.991562
  0
LINE
  5
1AC
100
AcDbEntity
  8
0
100
AcDbLine
 10
102.963768
 20
102.404732
 30
0.0
 11
102.963768
 21
102.604712
 31
0.0
  0
LINE
  5
1AD
100
AcDbEntity
  8
0
100
AcDbLine
 10
102.563768
 20
102.404732
 30
0.0
 11
102.963768
 21
102.404732
 31
0.0
  0
LINE
  5
1AE
100
AcDbEntity
  8
0
100
AcDbLine
 10
102.963768
 20
102.604732
 30
0.0
 11
102.563768
 21
102.604732
 31
0.0
  0
ARC
  5
1AF
100
AcDbEntity
  8
0
100
AcDbCircle
 10
102.563768
 20
102.604732
 30
0.0
 40
0.2
100
AcDbArc
 50
180.0
 51
270.0
  0
ARC
  5
1B0
100
AcDbEntity
  8
0
100
AcDbCircle
 10
102.827616
 20
102.154732
 30
0.0
 40
0.2
100
AcDbArc
 50
219.976177
 51
270.0
  0
ARC
  5
1B1
100
AcDbEntity
  8
0
100
AcDbCircle
 10
102.923687
 20
102.154732
 30
0.0
 40
0.2
100
AcDbArc
 50
270.0
 51
339.991562
  0
LINE
  5
1B2
100
AcDbEntity
  8
0
100
AcDbLine
 10
102.827616
 20
101.954732
 30
0.0
 11
102.923687
 21
101.954732
 31
0.0
  0
LINE
  5
1B3
100
AcDbEntity
  8
0
100
AcDbLine
 10
102.132768
 20
102.254742
 30
0.0
 11
102.482768
 21
102.254742
 31
0.0
  0
LINE
  5
1B4
100
AcDbEntity
  8
0
100
AcDbLine
 10
102.482778
 20
102.254742
 30
0.0
 11
102.674354
 21
102.026239
 31
0.0
  0
LINE
  5
1B5
100
AcDbEntity
  8
0
100
AcDbLine
 10
103.111616
 20
102.086301
 30
0.0
 11
103.312855
 21
102.638948
 31
0.0
  0
LINE
  5
1B6
100
AcDbEntity
  8
0
100
AcDbLine
 10
103.406819
 20
102.704732
 30
0.0
 11
104.183348
 21
102.704732
 31
0.0
  0
ARC
  5
1B7
100
AcDbEntity
  8
0
100
AcDbCircle
 10
109.432768
 20
100.904742
 30
0.0
 40
0.6
100
AcDbArc
 50
270.0
 51
0.0
  0
ARC
  5
1B8
100
AcDbEntity
  8
0
100
AcDbCircle
 10
109.932768
 20
102.154732
 30
0.0
 40
0.10001
100
AcDbArc
 50
359.189749
 51
90.0
  0
LINE
  5
1B9
100
AcDbEntity
  8
0
100
AcDbLine
 10
109.101768
 20
102.604732
 30
0.0
 11
109.501768
 21
102.604732
 31
0.0
  0
LINE
  5
1BA
100
AcDbEntity
  8
0
100
AcDbLine
 10
109.101768
 20
102.404732
 30
0.0
 11
109.101768
 21
102.604712
 31
0.0
  0
LINE
  5
1BB
100
AcDbEntity
  8
0
100
AcDbLine
 10
109.501768
 20
102.404732
 30
0.0
 11
109.101768
 21
102.404732
 31
0.0
  0
ARC
  5
1BC
100
AcDbEntity
  8
0
100
AcDbCircle
 10
108.658717
 20
102.604732
 30
0.0
 40
0.1
100
AcDbArc
 50
20.008438
 51
90.0
  0
LINE
  5
1BD
100
AcDbEntity
  8
0
100
AcDbLine
 10
109.23792
 20
101.954732
 30
0.0
 11
109.141849
 21
101.954732
 31
0.0
  0
ARC
  5
1BE
100
AcDbEntity
  8
0
100
AcDbCircle
 10
109.141849
 20
102.154732
 30
0.0
 40
0.2
100
AcDbArc
 50
200.008438
 51
270.0
  0
ARC
  5
1BF
100
AcDbEntity
  8
0
100
AcDbCircle
 10
109.23792
 20
102.154732
 30
0.0
 40
0.2
100
AcDbArc
 50
270.0
 51
320.023823
  0
LINE
  5
1C0
100
AcDbEntity
  8
0
100
AcDbLine
 10
109.582758
 20
102.254742
 30
0.0
 11
109.391183
 21
102.026239
 31
0.0
  0
LINE
  5
1C1
100
AcDbEntity
  8
0
100
AcDbLine
 10
108.953921
 20
102.086301
 30
0.0
 11
108.752682
 21
102.638948
 31
0.0
  0
LINE
  5
1C2
100
AcDbEntity
  8
0
100
AcDbLine
 10
109.932768
 20
102.254742
 30
0.0
 11
109.582768
 21
102.254742
 31
0.0
  0
ARC
  5
1C3
100
AcDbEntity
  8
0
100
AcDbCircle
 10
109.501768
 20
102.604732
 30
0.0
 40
0.2
100
AcDbArc
 50
270.0
 51
0.0
  0
LINE
  5
1C4
100
AcDbEntity
  8
CENTER
  6
CENTER
 62
     1
100
AcDbLine
 10
98.032768
 20
115.304742
 30
0.0
 11
115.032768
 21
115.304742
 31
0.0
  0
ARC
  5
1C5
100
AcDbEntity
  8
0
100
AcDbCircle
 10
102.132768
 20
106.504732
 30
0.0
 40
0.1
100
AcDbArc
 50
180.0
 51
270.0
  0
ARC
  5
1C6
100
AcDbEntity
  8
0
100
AcDbCircle
 10
102.632768
 20
107.704742
 30
0.0
 40
0.6
100
AcDbArc
 50
90.0
 51
180.0
  0
LINE
  5
1C7
100
AcDbEntity
  8
0
100
AcDbLine
 10
113.032768
 20
120.304742
 30
0.0
 11
102.032768
 21
120.304742
 31
0.0
  0
LINE
  5
1C8
100
AcDbEntity
  8
0
100
AcDbLine
 10
102.032768
 20
117.454742
 30
0.0
 11
108.632768
 21
117.454742
 31
0.0
  0
LINE
  5
1C9
100
AcDbEntity
  8
0
 62
     3
100
AcDbLine
 10
102.032768
 20
117.804742
 30
0.0
 11
108.632768
 21
117.804742
 31
0.0
  0
LINE
  5
1CA
100
AcDbEntity
  8
0
 62
     3
100
AcDbLine
 10
102.032768
 20
112.804742
 30
0.0
 11
108.632768
 21
112.804742
 31
0.0
  0
LINE
  5
1CB
100
AcDbEntity
  8
0
100
AcDbLine
 10
102.032768
 20
113.154742
 30
0.0
 11
108.632768
 21
113.154742
 31
0.0
  0
LINE
  5
1CC
100
AcDbEntity
  8
0
100
AcDbLine
 10
102.032768
 20
120.304742
 30
0.0
 11
102.032768
 21
111.304742
 31
0.0
  0
LINE
  5
1CD
100
AcDbEntity
  8
0
100
AcDbLine
 10
102.032768
 20
106.304742
 30
0.0
 11
100.032768
 21
106.304742
 31
0.0
  0
LINE
  5
1CE
100
AcDbEntity
  8
0
100
AcDbLine
 10
102.032768
 20
111.304742
 30
0.0
 11
100.032768
 21
111.304742
 31
0.0
  0
LINE
  5
1CF
100
AcDbEntity
  8
0
100
AcDbLine
 10
108.632768
 20
119.304742
 30
0.0
 11
108.632768
 21
111.304742
 31
0.0
  0
LINE
  5
1D0
100
AcDbEntity
  8
0
100
AcDbLine
 10
108.730167
 20
105.704722
 30
0.0
 11
107.882188
 21
105.704722
 31
0.0
  0
LINE
  5
1D1
100
AcDbEntity
  8
0
100
AcDbLine
 10
102.632768
 20
108.304742
 30
0.0
 11
110.032768
 21
108.304742
 31
0.0
  0
LINE
  5
1D2
100
AcDbEntity
  8
0
100
AcDbLine
 10
103.213778
 20
105.689672
 30
0.0
 11
102.563778
 21
105.314672
 31
0.0
  0
ARC
  5
1D3
100
AcDbEntity
  8
0
100
AcDbCircle
 10
103.33537
 20
105.804722
 30
0.0
 40
0.1
100
AcDbArc
 50
184.935391
 51
270.0
  0
ARC
  5
1D4
100
AcDbEntity
  8
0
100
AcDbCircle
 10
102.88138
 20
106.400703
 30
0.0
 40
0.1
100
AcDbArc
 50
3.101664
 51
139.950272
  0
ARC
  5
1D5
100
AcDbEntity
  8
0
100
AcDbCircle
 10
102.882213
 20
106.403064
 30
0.0
 40
0.3
100
AcDbArc
 50
4.935391
 51
140.136953
  0
LINE
  5
1D6
100
AcDbEntity
  8
0
100
AcDbLine
 10
103.181101
 20
106.428874
 30
0.0
 11
103.235741
 21
105.796119
 31
0.0
  0
LINE
  5
1D7
100
AcDbEntity
  8
0
100
AcDbLine
 10
102.981233
 20
106.406114
 30
0.0
 11
103.013768
 21
105.805692
 31
0.0
  0
LINE
  5
1D8
100
AcDbEntity
  8
0
100
AcDbLine
 10
103.213768
 20
106.050732
 30
0.0
 11
103.213768
 21
105.689722
 31
0.0
  0
LINE
  5
1D9
100
AcDbEntity
  8
0
100
AcDbLine
 10
102.634768
 20
106.262732
 30
0.0
 11
102.804831
 21
106.465048
 31
0.0
  0
LINE
  5
1DA
100
AcDbEntity
  8
0
100
AcDbLine
 10
102.775778
 20
106.121702
 30
0.0
 11
102.634788
 21
106.262692
 31
0.0
  0
LINE
  5
1DB
100
AcDbEntity
  8
0
100
AcDbLine
 10
102.634768
 20
105.979712
 30
0.0
 11
102.775768
 21
106.121712
 31
0.0
  0
ARC
  5
1DC
100
AcDbEntity
  8
0
100
AcDbCircle
 10
102.634674
 20
106.26264
 30
0.0
 40
0.2
100
AcDbArc
 50
140.136953
 51
225.002018
  0
LINE
  5
1DD
100
AcDbEntity
  8
0
100
AcDbLine
 10
102.132768
 20
106.404732
 30
0.0
 11
102.492767
 21
106.404732
 31
0.0
  0
LINE
  5
1DE
100
AcDbEntity
  8
0
100
AcDbLine
 10
103.013778
 20
105.805692
 30
0.0
 11
102.363778
 21
105.429682
 31
0.0
  0
LINE
  5
1DF
100
AcDbEntity
  8
0
100
AcDbLine
 10
102.481158
 20
106.39083
 30
0.0
 11
102.651939
 21
106.59535
 31
0.0
  0
LINE
  5
1E0
100
AcDbEntity
  8
0
100
AcDbLine
 10
102.634768
 20
105.979712
 30
0.0
 11
102.493257
 21
106.121213
 31
0.0
  0
LINE
  5
1E1
100
AcDbEntity
  8
0
100
AcDbLine
 10
103.33537
 20
105.704722
 30
0.0
 11
104.183348
 21
105.704722
 31
0.0
  0
LINE
  5
1E2
100
AcDbEntity
  8
0
100
AcDbLine
 10
103.682768
 20
113.154742
 30
0.0
 11
103.682768
 21
113.154842
 31
0.0
  0
LINE
  5
1E3
100
AcDbEntity
  8
0
100
AcDbLine
 10
105.332768
 20
113.154742
 30
0.0
 11
105.332868
 21
113.154742
 31
0.0
  0
LINE
  5
1E4
100
AcDbEntity
  8
0
100
AcDbLine
 10
111.382768
 20
108.904742
 30
0.0
 11
110.032768
 21
108.904742
 31
0.0
  0
LINE
  5
1E5
100
AcDbEntity
  8
0
100
AcDbLine
 10
111.382768
 20
106.104742
 30
0.0
 11
110.032768
 21
106.104742
 31
0.0
  0
ARC
  5
1E6
100
AcDbEntity
  8
0
100
AcDbCircle
 10
109.932768
 20
106.504732
 30
0.0
 40
0.1
100
AcDbArc
 50
270.0
 51
0.0
  0
LINE
  5
1E7
100
AcDbEntity
  8
0
100
AcDbLine
 10
108.851758
 20
105.689672
 30
0.0
 11
109.501758
 21
105.314672
 31
0.0
  0
LINE
  5
1E8
100
AcDbEntity
  8
0
100
AcDbLine
 10
109.051758
 20
105.805692
 30
0.0
 11
109.701758
 21
105.429682
 31
0.0
  0
LINE
  5
1E9
100
AcDbEntity
  8
0
100
AcDbLine
 10
109.430768
 20
105.979712
 30
0.0
 11
109.289768
 21
106.121712
 31
0.0
  0
LINE
  5
1EA
100
AcDbEntity
  8
0
100
AcDbLine
 10
109.289758
 20
106.121702
 30
0.0
 11
109.430748
 21
106.262692
 31
0.0
  0
LINE
  5
1EB
100
AcDbEntity
  8
0
100
AcDbLine
 10
108.851768
 20
106.050732
 30
0.0
 11
108.851768
 21
105.689722
 31
0.0
  0
ARC
  5
1EC
100
AcDbEntity
  8
0
100
AcDbCircle
 10
109.183324
 20
106.403064
 30
0.0
 40
0.3
100
AcDbArc
 50
39.863047
 51
175.064609
  0
LINE
  5
1ED
100
AcDbEntity
  8
0
100
AcDbLine
 10
109.430768
 20
106.262732
 30
0.0
 11
109.260706
 21
106.465048
 31
0.0
  0
LINE
  5
1EE
100
AcDbEntity
  8
0
100
AcDbLine
 10
109.084303
 20
106.406114
 30
0.0
 11
109.051768
 21
105.805692
 31
0.0
  0
ARC
  5
1EF
100
AcDbEntity
  8
0
100
AcDbCircle
 10
109.184157
 20
106.400703
 30
0.0
 40
0.1
100
AcDbArc
 50
40.049728
 51
176.898336
  0
LINE
  5
1F0
100
AcDbEntity
  8
0
100
AcDbLine
 10
108.884436
 20
106.428874
 30
0.0
 11
108.829796
 21
105.796119
 31
0.0
  0
ARC
  5
1F1
100
AcDbEntity
  8
0
100
AcDbCircle
 10
108.730167
 20
105.804722
 30
0.0
 40
0.1
100
AcDbArc
 50
270.0
 51
355.064609
  0
ARC
  5
1F2
100
AcDbEntity
  8
0
100
AcDbCircle
 10
109.430863
 20
106.26264
 30
0.0
 40
0.2
100
AcDbArc
 50
314.997982
 51
39.863047
  0
LINE
  5
1F3
100
AcDbEntity
  8
0
100
AcDbLine
 10
109.584379
 20
106.39083
 30
0.0
 11
109.413597
 21
106.59535
 31
0.0
  0
LINE
  5
1F4
100
AcDbEntity
  8
0
100
AcDbLine
 10
109.430768
 20
105.979712
 30
0.0
 11
109.572279
 21
106.121213
 31
0.0
  0
ARC
  5
1F5
100
AcDbEntity
  8
0
100
AcDbCircle
 10
109.432768
 20
107.704742
 30
0.0
 40
0.6
100
AcDbArc
 50
0.0
 51
90.0
  0
LINE
  5
1F6
100
AcDbEntity
  8
0
100
AcDbLine
 10
109.932768
 20
106.404732
 30
0.0
 11
109.57277
 21
106.404732
 31
0.0
  0
LINE
  5
1F7
100
AcDbEntity
  8
0
100
AcDbLine
 10
113.032768
 20
108.304742
 30
0.0
 11
111.382768
 21
108.304742
 31
0.0
  0
LINE
  5
1F8
100
AcDbEntity
  8
0
100
AcDbLine
 10
108.632768
 20
111.304742
 30
0.0
 11
113.032768
 21
111.304742
 31
0.0
  0
LINE
  5
1F9
100
AcDbEntity
  8
0
100
AcDbLine
 10
108.632768
 20
119.304742
 30
0.0
 11
113.032768
 21
119.304742
 31
0.0
  0
LINE
  5
1FA
100
AcDbEntity
  8
CENTER
  6
CENTER
 62
     1
100
AcDbLine
 10
178.765506
 20
66.133484
 30
0.0
 11
178.765506
 21
124.476001
 31
0.0
  0
CIRCLE
  5
1FB
100
AcDbEntity
  8
CENTER
  6
CENTER
 62
     1
100
AcDbCircle
 10
178.765506
 20
95.304742
 30
0.0
 40
20.0
  0
LWPOLYLINE
  5
1FC
100
AcDbEntity
  8
0
100
AcDbPolyline
 90
        2
 70
     0
 43
0.0
 10
176.039247
 20
120.155648
 10
153.9146
 20
98.031001
  0
LWPOLYLINE
  5
200
100
AcDbEntity
  8
0
100
AcDbPolyline
 90
        2
 70
     0
 43
0.0
 10
203.616412
 20
98.031001
 10
181.491765
 20
120.155648
  0
CIRCLE
  5
204
100
AcDbEntity
  8
0
  6
DASHED
 62
     3
100
AcDbCircle
 10
178.765506
 20
95.304742
 30
0.0
 40
16.0
  0
CIRCLE
  5
205
100
AcDbEntity
  8
0
100
AcDbCircle
 10
178.765506
 20
95.304742
 30
0.0
 40
13.0
  0
LINE
  5
206
100
AcDbEntity
  8
CENTER
  6
CENTER
 62
     1
100
AcDbLine
 10
149.594247
 20
95.304742
 30
0.0
 11
207.936764
 21
95.304742
 31
0.0
  0
LWPOLYLINE
  5
207
100
AcDbEntity
  8
0
100
AcDbPolyline
 90
        2
 70
     0
 43
0.0
 10
181.491765
 20
70.453837
 10
203.616412
 20
92.578484
  0
CIRCLE
  5
20B
100
AcDbEntity
  8
0
100
AcDbCircle
 10
198.765506
 20
95.304742
 30
0.0
 40
4.0
  0
LWPOLYLINE
  5
20C
100
AcDbEntity
  8
0
100
AcDbPolyline
 90
        2
 70
     0
 43
0.0
 10
153.9146
 20
92.578484
 10
176.039247
 20
70.453837
  0
CIRCLE
  5
210
100
AcDbEntity
  8
0
100
AcDbCircle
 10
178.765506
 20
75.304742
 30
0.0
 40
4.0
  0
ARC
  5
211
100
AcDbEntity
  8
0
100
AcDbCircle
 10
178.765506
 20
95.304742
 30
0.0
 40
25.0
100
AcDbArc
 50
263.739425
 51
276.260575
  0
CIRCLE
  5
212
100
AcDbEntity
  8
0
100
AcDbCircle
 10
158.765506
 20
95.304742
 30
0.0
 40
4.0
  0
CIRCLE
  5
213
100
AcDbEntity
  8
0
100
AcDbCircle
 10
158.765506
 20
95.304742
 30
0.0
 40
2.15
  0
CIRCLE
  5
214
100
AcDbEntity
  8
0
 62
     3
100
AcDbCircle
 10
158.765506
 20
95.304742
 30
0.0
 40
2.5
  0
ARC
  5
215
100
AcDbEntity
  8
0
100
AcDbCircle
 10
178.765506
 20
95.304742
 30
0.0
 40
25.0
100
AcDbArc
 50
173.739425
 51
186.260575
  0
CIRCLE
  5
216
100
AcDbEntity
  8
0
 62
     3
100
AcDbCircle
 10
178.765506
 20
75.304742
 30
0.0
 40
2.5
  0
CIRCLE
  5
217
100
AcDbEntity
  8
0
100
AcDbCircle
 10
178.765506
 20
75.304742
 30
0.0
 40
2.15
  0
CIRCLE
  5
218
100
AcDbEntity
  8
0
100
AcDbCircle
 10
178.765506
 20
95.304742
 30
0.0
 40
5.0
  0
ARC
  5
219
100
AcDbEntity
  8
0
100
AcDbCircle
 10
178.765506
 20
95.304742
 30
0.0
 40
25.0
100
AcDbArc
 50
353.739425
 51
6.260575
  0
CIRCLE
  5
21A
100
AcDbEntity
  8
0
100
AcDbCircle
 10
198.765506
 20
95.304742
 30
0.0
 40
2.15
  0
CIRCLE
  5
21B
100
AcDbEntity
  8
0
 62
     3
100
AcDbCircle
 10
198.765506
 20
95.304742
 30
0.0
 40
2.5
  0
CIRCLE
  5
21C
100
AcDbEntity
  8
0
100
AcDbCircle
 10
178.765506
 20
115.304742
 30
0.0
 40
2.15
  0
CIRCLE
  5
21D
100
AcDbEntity
  8
0
 62
     3
100
AcDbCircle
 10
178.765506
 20
115.304742
 30
0.0
 40
2.5
  0
CIRCLE
  5
21E
100
AcDbEntity
  8
0
100
AcDbCircle
 10
178.765506
 20
115.304742
 30
0.0
 40
4.0
  0
ARC
  5
21F
100
AcDbEntity
  8
0
100
AcDbCircle
 10
178.765506
 20
95.304742
 30
0.0
 40
25.0
100
AcDbArc
 50
83.739425
 51
96.260575
  0
ENDSEC
  0
SECTION
  2
OBJECTS
  0
DICTIONARY
  5
115
100
AcDbDictionary
  3
ACAD_GROUP
350
116
  3
ACAD_LAYOUT
350
122
  3
ACAD_MLINESTYLE
350
11F
  3
ACAD_PLOTSETTINGS
350
121
  3
ACAD_PLOTSTYLENAME
350
117
  3
ACDBHEADERROUNDTRIPXREC
350
22C
  3
AcDbVariableDictionary
350
255
  0
DICTIONARY
  5
22A
100
AcDbDictionary
280
     1
  3
ACAD_XREC_ROUNDTRIP
360
22B
  0
DICTIONARY
  5
226
100
AcDbDictionary
280
     1
  3
ACAD_XREC_ROUNDTRIP
360
227
  0
DICTIONARY
  5
228
100
AcDbDictionary
280
     1
  3
ACAD_XREC_ROUNDTRIP
360
229
  0
DICTIONARY
  5
253
100
AcDbDictionary
280
     1
  3
ACAD_XREC_ROUNDTRIP
360
254
  0
DICTIONARY
  5
222
100
AcDbDictionary
280
     1
  3
ACAD_LAYOUTSELFREF
360
252
  3
ACAD_XREC_ROUNDTRIP
360
223
  0
DICTIONARY
  5
224
100
AcDbDictionary
280
     1
  3
ACAD_LAYOUTSELFREF
360
251
  3
ACAD_XREC_ROUNDTRIP
360
225
  0
DICTIONARY
  5
116
102
{ACAD_REACTORS
330
115
102
}
100
AcDbDictionary
  0
DICTIONARY
  5
122
102
{ACAD_XDICTIONARY
360
24F
102
}
102
{ACAD_REACTORS
330
115
102
}
100
AcDbDictionary
  3
MODEL
350
12A
  3
ﾚｲｱｳﾄ1
350
126
  0
DICTIONARY
  5
11F
102
{ACAD_XDICTIONARY
360
24D
102
}
102
{ACAD_REACTORS
330
115
102
}
100
AcDbDictionary
  3
STANDARD
350
120
  0
DICTIONARY
  5
121
102
{ACAD_REACTORS
330
115
102
}
100
AcDbDictionary
  0
ACAD_PROXY_OBJECT
  5
117
102
{ACAD_REACTORS
330
115
102
}
100
AcDbProxyObject
 90
      499
 91
      500
 93
       86
310
405010041939BDC9B585B0
350
118
340
118
 94
        0
  0
DICTIONARY
  5
22C
102
{ACAD_REACTORS
330
115
102
}
100
AcDbDictionary
  3
CEPSNTYPE
350
236
  3
DIMSTYLEDATA
350
23A
  3
FINGERPRINTGUID
350
237
  3
HYPERLINKBASE
350
22F
  3
INSUNITS
350
235
  3
LAYOUTDICT
350
231
  3
LWETCUNION
350
234
  3
PLOTSETDICT
350
232
  3
PLOTSTYLNAMDICT
350
233
  3
PSVPSCALE
350
239
  3
PUCSBASE
350
23D
  3
PUCSORGBACK
350
243
  3
PUCSORGBOTTOM
350
23F
  3
PUCSORGFRONT
350
242
  3
PUCSORGLEFT
350
240
  3
PUCSORGRIGHT
350
241
  3
PUCSORGTOP
350
23E
  3
PUCSORTHOREF
350
23B
  3
PUCSORTHOVIEW
350
23C
  3
STYLESHEET
350
230
  3
TSTACKALIGN
350
22D
  3
TSTACKSIZE
350
22E
  3
UCSBASE
350
246
  3
UCSORGBACK
350
24C
  3
UCSORGBOTTOM
350
248
  3
UCSORGFRONT
350
24B
  3
UCSORGLEFT
350
249
  3
UCSORGRIGHT
350
24A
  3
UCSORGTOP
350
247
  3
UCSORTHOREF
350
244
  3
UCSORTHOVIEW
350
245
  3
VERSIONGUID
350
238
  0
DICTIONARY
  5
255
102
{ACAD_REACTORS
330
115
102
}
100
AcDbDictionary
  3
DIMASSOC
350
256
  0
XRECORD
  5
22B
102
{ACAD_REACTORS
330
22A
102
}
100
AcDbXrecord
102
EXTNAMES
  1
*ACTIVE
  2
*Active
102
UCS
 74
     0
 71
     0
 10
0.0
 20
0.0
 30
0.0
 10
1.0
 20
0.0
 30
0.0
 10
0.0
 20
1.0
 30
0.0
146
0.0
 79
     0
102
VIEW
281
     0
  0
XRECORD
  5
227
102
{ACAD_REACTORS
330
226
102
}
100
AcDbXrecord
102
EXTNAMES
  1
BYBLOCK
  2
ByBlock
  0
XRECORD
  5
229
102
{ACAD_REACTORS
330
228
102
}
100
AcDbXrecord
102
EXTNAMES
  1
BYLAYER
  2
ByLayer
  0
XRECORD
  5
254
102
{ACAD_REACTORS
330
253
102
}
100
AcDbXrecord
102
ACADR14ROUNDTRIP
1000
DSTYLE
1002
{
1070
   279
 70
     2
1002
}
  0
XRECORD
  5
252
102
{ACAD_REACTORS
330
222
102
}
100
AcDbXrecord
340
127
  0
XRECORD
  5
223
102
{ACAD_REACTORS
330
222
102
}
100
AcDbXrecord
102
EXTNAMES
  1
*MODEL_SPACE
  2
*Model_Space
  0
XRECORD
  5
251
102
{ACAD_REACTORS
330
224
102
}
100
AcDbXrecord
340
123
  0
XRECORD
  5
225
102
{ACAD_REACTORS
330
224
102
}
100
AcDbXrecord
102
EXTNAMES
  1
*PAPER_SPACE
  2
*Paper_Space
  0
DICTIONARY
  5
24F
100
AcDbDictionary
280
     1
  3
ACAD_XREC_ROUNDTRIP
360
250
  0
ACAD_PROXY_OBJECT
  5
12A
102
{ACAD_REACTORS
330
122
102
}
100
AcDbProxyObject
 90
      499
 91
      502
 93
      836
310
932433A5C50524F4752414D2046494C45535C4D4454365C706C6F74746572735C526F6C616E64204458592D313235302E7063332C01AAAAAAAAA5A69054D6F64656C901A800000000000000000000000000000000000000000000A1000000000000008902A6A6AAAA0
330
127
330
0
340
0
340
0
 94
        0
  0
ACAD_PROXY_OBJECT
  5
126
102
{ACAD_REACTORS
330
122
102
}
100
AcDbProxyObject
 90
      499
 91
      502
 93
     1244
310
932433A5C50524F4752414D2046494C45535C4D4454365C706C6F74746572735C526F6C616E64204458592D313235302E7063332C00AAAAAA416AA59106906DAB2B1B3C431406A800000000000000000000000000000000000000000101E900000000000241C902A6A6A10232D5E076BC5510408CB5781DAF154410232D5E0
310
76BC5510408CB5781DAF15C410232D5E076BC5710408CB5781DAF15C40
330
123
330
0
340
0
340
0
 94
        0
  0
DICTIONARY
  5
24D
100
AcDbDictionary
280
     1
  3
ACAD_XREC_ROUNDTRIP
360
24E
  0
MLINESTYLE
  5
120
102
{ACAD_REACTORS
330
11F
102
}
100
AcDbMlineStyle
  2
STANDARD
 70
     0
  3

 62
   256
 51
90.0
 52
90.0
 71
     2
 49
0.5
 62
   256
  6
BYLAYER
 49
-0.5
 62
   256
  6
BYLAYER
  0
ACAD_PROXY_OBJECT
  5
118
102
{ACAD_REACTORS
330
117
102
}
100
AcDbProxyObject
 90
      499
 91
      501
 93
        0
 94
        0
  0
XRECORD
  5
236
102
{ACAD_REACTORS
330
22C
102
}
100
AcDbXrecord
 90
        0
  0
XRECORD
  5
23A
102
{ACAD_REACTORS
330
22C
102
}
100
AcDbXrecord
1000
DSTYLE
1002
{
1070
   341
340
13E
1070
   342
340
138
1070
   343
340
13E
1070
   344
340
13E
1002
}
  0
XRECORD
  5
237
102
{ACAD_REACTORS
330
22C
102
}
100
AcDbXrecord
  1
{05F985E8-50EF-4C19-92CE-AF9E2507DAE6}
  0
XRECORD
  5
22F
102
{ACAD_REACTORS
330
22C
102
}
100
AcDbXrecord
  1

  0
XRECORD
  5
235
102
{ACAD_REACTORS
330
22C
102
}
100
AcDbXrecord
 90
        0
  0
XRECORD
  5
231
102
{ACAD_REACTORS
330
22C
102
}
100
AcDbXrecord
340
122
  0
XRECORD
  5
234
102
{ACAD_REACTORS
330
22C
102
}
100
AcDbXrecord
 90
    10781
  0
XRECORD
  5
232
102
{ACAD_REACTORS
330
22C
102
}
100
AcDbXrecord
340
121
  0
XRECORD
  5
233
102
{ACAD_REACTORS
330
22C
102
}
100
AcDbXrecord
340
117
  0
XRECORD
  5
239
102
{ACAD_REACTORS
330
22C
102
}
100
AcDbXrecord
 40
0.0
  0
XRECORD
  5
23D
102
{ACAD_REACTORS
330
22C
102
}
100
AcDbXrecord
340
0
  0
XRECORD
  5
243
102
{ACAD_REACTORS
330
22C
102
}
100
AcDbXrecord
 10
0.0
 20
0.0
 30
0.0
  0
XRECORD
  5
23F
102
{ACAD_REACTORS
330
22C
102
}
100
AcDbXrecord
 10
0.0
 20
0.0
 30
0.0
  0
XRECORD
  5
242
102
{ACAD_REACTORS
330
22C
102
}
100
AcDbXrecord
 10
0.0
 20
0.0
 30
0.0
  0
XRECORD
  5
240
102
{ACAD_REACTORS
330
22C
102
}
100
AcDbXrecord
 10
0.0
 20
0.0
 30
0.0
  0
XRECORD
  5
241
102
{ACAD_REACTORS
330
22C
102
}
100
AcDbXrecord
 10
0.0
 20
0.0
 30
0.0
  0
XRECORD
  5
23E
102
{ACAD_REACTORS
330
22C
102
}
100
AcDbXrecord
 10
0.0
 20
0.0
 30
0.0
  0
XRECORD
  5
23B
102
{ACAD_REACTORS
330
22C
102
}
100
AcDbXrecord
340
0
  0
XRECORD
  5
23C
102
{ACAD_REACTORS
330
22C
102
}
100
AcDbXrecord
 70
     0
  0
XRECORD
  5
230
102
{ACAD_REACTORS
330
22C
102
}
100
AcDbXrecord
  1

  0
XRECORD
  5
22D
102
{ACAD_REACTORS
330
22C
102
}
100
AcDbXrecord
 90
        1
  0
XRECORD
  5
22E
102
{ACAD_REACTORS
330
22C
102
}
100
AcDbXrecord
 90
       70
  0
XRECORD
  5
246
102
{ACAD_REACTORS
330
22C
102
}
100
AcDbXrecord
340
0
  0
XRECORD
  5
24C
102
{ACAD_REACTORS
330
22C
102
}
100
AcDbXrecord
 10
0.0
 20
0.0
 30
0.0
  0
XRECORD
  5
248
102
{ACAD_REACTORS
330
22C
102
}
100
AcDbXrecord
 10
0.0
 20
0.0
 30
0.0
  0
XRECORD
  5
24B
102
{ACAD_REACTORS
330
22C
102
}
100
AcDbXrecord
 10
0.0
 20
0.0
 30
0.0
  0
XRECORD
  5
249
102
{ACAD_REACTORS
330
22C
102
}
100
AcDbXrecord
 10
0.0
 20
0.0
 30
0.0
  0
XRECORD
  5
24A
102
{ACAD_REACTORS
330
22C
102
}
100
AcDbXrecord
 10
0.0
 20
0.0
 30
0.0
  0
XRECORD
  5
247
102
{ACAD_REACTORS
330
22C
102
}
100
AcDbXrecord
 10
0.0
 20
0.0
 30
0.0
  0
XRECORD
  5
244
102
{ACAD_REACTORS
330
22C
102
}
100
AcDbXrecord
340
0
  0
XRECORD
  5
245
102
{ACAD_REACTORS
330
22C
102
}
100
AcDbXrecord
 70
     0
  0
XRECORD
  5
238
102
{ACAD_REACTORS
330
22C
102
}
100
AcDbXrecord
  1
{F6AB64B8-FDB5-4483-9925-6FE23A426B3B}
  0
DICTIONARYVAR
  5
256
102
{ACAD_REACTORS
330
255
102
}
100
DictionaryVariables
280
     0
  1
1
  0
XRECORD
  5
250
102
{ACAD_REACTORS
330
24F
102
}
100
AcDbXrecord
102
EXTNAMES
  1
MODEL
  2
Model
  0
XRECORD
  5
24E
102
{ACAD_REACTORS
330
24D
102
}
100
AcDbXrecord
102
EXTNAMES
  1
STANDARD
  2
Standard
  0
ENDSEC
  0
EOF
