  0
SECTION
  2
HEADER
  9
$ACADVER
  1
AC1014
  9
$ACADMAINTVER
 70
     0
  9
$DWGCODEPAGE
  3
ANSI_932
  9
$INSBASE
 10
0.0
 20
0.0
 30
0.0
  9
$EXTMIN
 10
48.5
 20
20.0
 30
0.0
  9
$EXTMAX
 10
154.0
 20
80.0
 30
0.0
  9
$LIMMIN
 10
0.0
 20
0.0
  9
$LIMMAX
 10
420.0
 20
297.0
  9
$ORTHOMODE
 70
     1
  9
$REGENMODE
 70
     1
  9
$FILLMODE
 70
     1
  9
$QTEXTMODE
 70
     0
  9
$MIRRTEXT
 70
     1
  9
$DRAGMODE
 70
     2
  9
$LTSCALE
 40
0.25
  9
$OSMODE
 70
    37
  9
$ATTMODE
 70
     1
  9
$TEXTSIZE
 40
2.0
  9
$TRACEWID
 40
1.0
  9
$TEXTSTYLE
  7
STANDARD
  9
$CLAYER
  8
0
  9
$CELTYPE
  6
BYLAYER
  9
$CECOLOR
 62
   256
  9
$CELTSCALE
 40
1.0
  9
$DELOBJ
 70
     1
  9
$DISPSILH
 70
     0
  9
$DIMSCALE
 40
1.0
  9
$DIMASZ
 40
2.5
  9
$DIMEXO
 40
0.625
  9
$DIMDLI
 40
3.75
  9
$DIMRND
 40
0.0
  9
$DIMDLE
 40
0.0
  9
$DIMEXE
 40
1.25
  9
$DIMTP
 40
0.0
  9
$DIMTM
 40
0.0
  9
$DIMTXT
 40
2.5
  9
$DIMCEN
 40
2.5
  9
$DIMTSZ
 40
0.0
  9
$DIMTOL
 70
     0
  9
$DIMLIM
 70
     0
  9
$DIMTIH
 70
     0
  9
$DIMTOH
 70
     0
  9
$DIMSE1
 70
     0
  9
$DIMSE2
 70
     0
  9
$DIMTAD
 70
     1
  9
$DIMZIN
 70
     8
  9
$DIMBLK
  1

  9
$DIMASO
 70
     1
  9
$DIMSHO
 70
     1
  9
$DIMPOST
  1

  9
$DIMAPOST
  1

  9
$DIMALT
 70
     0
  9
$DIMALTD
 70
     4
  9
$DIMALTF
 40
0.0394
  9
$DIMLFAC
 40
1.0
  9
$DIMTOFL
 70
     1
  9
$DIMTVP
 40
0.0
  9
$DIMTIX
 70
     0
  9
$DIMSOXD
 70
     0
  9
$DIMSAH
 70
     0
  9
$DIMBLK1
  1

  9
$DIMBLK2
  1

  9
$DIMSTYLE
  2
STANDARD
  9
$DIMCLRD
 70
     0
  9
$DIMCLRE
 70
     0
  9
$DIMCLRT
 70
     0
  9
$DIMTFAC
 40
1.0
  9
$DIMGAP
 40
0.625
  9
$DIMJUST
 70
     0
  9
$DIMSD1
 70
     0
  9
$DIMSD2
 70
     0
  9
$DIMTOLJ
 70
     1
  9
$DIMTZIN
 70
     0
  9
$DIMALTZ
 70
     0
  9
$DIMALTTZ
 70
     0
  9
$DIMFIT
 70
     3
  9
$DIMUPT
 70
     0
  9
$DIMUNIT
 70
     2
  9
$DIMDEC
 70
     4
  9
$DIMTDEC
 70
     4
  9
$DIMALTU
 70
     2
  9
$DIMALTTD
 70
     2
  9
$DIMTXSTY
  7
STANDARD
  9
$DIMAUNIT
 70
     0
  9
$LUNITS
 70
     2
  9
$LUPREC
 70
     2
  9
$SKETCHINC
 40
1.0
  9
$FILLETRAD
 40
2.5
  9
$AUNITS
 70
     0
  9
$AUPREC
 70
     0
  9
$MENU
  1
.
  9
$ELEVATION
 40
0.0
  9
$PELEVATION
 40
0.0
  9
$THICKNESS
 40
0.0
  9
$LIMCHECK
 70
     0
  9
$BLIPMODE
 70
     0
  9
$CHAMFERA
 40
2.5
  9
$CHAMFERB
 40
2.5
  9
$CHAMFERC
 40
0.0
  9
$CHAMFERD
 40
0.0
  9
$SKPOLY
 70
     1
  9
$TDCREATE
 40
2451788.573791435
  9
$TDUPDATE
 40
2452821.741034490
  9
$TDINDWG
 40
0.0020679398
  9
$TDUSRTIMER
 40
0.0020679398
  9
$USRTIMER
 70
     1
  9
$ANGBASE
 50
0.0
  9
$ANGDIR
 70
     0
  9
$PDMODE
 70
     0
  9
$PDSIZE
 40
0.0
  9
$PLINEWID
 40
0.0
  9
$COORDS
 70
     1
  9
$SPLFRAME
 70
     0
  9
$SPLINETYPE
 70
     6
  9
$SPLINESEGS
 70
     8
  9
$ATTDIA
 70
     0
  9
$ATTREQ
 70
     1
  9
$HANDLING
 70
     1
  9
$HANDSEED
  5
105
  9
$SURFTAB1
 70
     6
  9
$SURFTAB2
 70
     6
  9
$SURFTYPE
 70
     6
  9
$SURFU
 70
     6
  9
$SURFV
 70
     6
  9
$UCSNAME
  2

  9
$UCSORG
 10
0.0
 20
0.0
 30
0.0
  9
$UCSXDIR
 10
1.0
 20
0.0
 30
0.0
  9
$UCSYDIR
 10
0.0
 20
1.0
 30
0.0
  9
$PUCSNAME
  2

  9
$PUCSORG
 10
0.0
 20
0.0
 30
0.0
  9
$PUCSXDIR
 10
1.0
 20
0.0
 30
0.0
  9
$PUCSYDIR
 10
0.0
 20
1.0
 30
0.0
  9
$USERI1
 70
     0
  9
$USERI2
 70
     0
  9
$USERI3
 70
     0
  9
$USERI4
 70
     0
  9
$USERI5
 70
     0
  9
$USERR1
 40
0.0
  9
$USERR2
 40
0.0
  9
$USERR3
 40
0.0
  9
$USERR4
 40
0.0
  9
$USERR5
 40
0.0
  9
$WORLDVIEW
 70
     1
  9
$SHADEDGE
 70
     3
  9
$SHADEDIF
 70
    70
  9
$TILEMODE
 70
     1
  9
$MAXACTVP
 70
    48
  9
$PINSBASE
 10
0.0
 20
0.0
 30
0.0
  9
$PLIMCHECK
 70
     0
  9
$PEXTMIN
 10
1.000000E+20
 20
1.000000E+20
 30
1.000000E+20
  9
$PEXTMAX
 10
-1.000000E+20
 20
-1.000000E+20
 30
-1.000000E+20
  9
$PLIMMIN
 10
0.0
 20
0.0
  9
$PLIMMAX
 10
420.0
 20
297.0
  9
$UNITMODE
 70
     0
  9
$VISRETAIN
 70
     1
  9
$PLINEGEN
 70
     0
  9
$PSLTSCALE
 70
     1
  9
$TREEDEPTH
 70
  3020
  9
$PICKSTYLE
 70
     1
  9
$CMLSTYLE
  2
STANDARD
  9
$CMLJUST
 70
     0
  9
$CMLSCALE
 40
1.0
  9
$PROXYGRAPHICS
 70
     1
  9
$MEASUREMENT
 70
     0
  0
ENDSEC
  0
SECTION
  2
CLASSES
  0
CLASS
  1
ACDBDICTIONARYWDFLT
  2
AcDbDictionaryWithDefault
  3
AutoCAD 2000
 90
        0
280
     0
281
     0
  0
CLASS
  1
ACDBPLACEHOLDER
  2
AcDbPlaceHolder
  3
AutoCAD 2000
 90
        0
280
     0
281
     0
  0
CLASS
  1
LAYOUT
  2
AcDbLayout
  3
AutoCAD 2000
 90
        0
280
     0
281
     0
  0
CLASS
  1
DICTIONARYVAR
  2
AcDbDictionaryVar
  3
"AutoCAD"
 90
        0
280
     0
281
     0
  0
CLASS
  1
LONG_TRANSACTION
  2
AcDbLongTransaction
  3
AutoCAD 2000
 90
        0
280
     0
281
     0
  0
CLASS
  1
LWPOLYLINE
  2
AcDbPolyline
  3
"AutoCAD"
 90
        0
280
     0
281
     1
  0
CLASS
  1
HATCH
  2
AcDbHatch
  3
"ACAD_SEDONA"
 90
        0
280
     0
281
     1
  0
CLASS
  1
XRECORD
  2
AcDbXrecord
  3
"<Built In>"
 90
        0
280
     0
281
     0
  0
ENDSEC
  0
SECTION
  2
TABLES
  0
TABLE
  2
VPORT
  5
67
100
AcDbSymbolTable
 70
     1
  0
VPORT
  5
CC
102
{ACAD_XDICTIONARY
360
D5
102
}
100
AcDbSymbolTableRecord
100
AcDbViewportTableRecord
  2
*ACTIVE
 70
     0
 10
0.0
 20
0.0
 11
1.0
 21
1.0
 12
82.146607
 22
51.986503
 13
0.0
 23
0.0
 14
1.0
 24
1.0
 15
10.0
 25
10.0
 16
0.0
 26
0.0
 36
1.0
 17
0.0
 27
0.0
 37
0.0
 40
105.052716
 41
1.530211
 42
50.0
 43
0.0
 44
0.0
 50
0.0
 51
0.0
 71
     0
 72
   100
 73
     1
 74
     1
 75
     0
 76
     1
 77
     0
 78
     0
  0
ENDTAB
  0
TABLE
  2
LTYPE
  5
64
100
AcDbSymbolTable
 70
     3
  0
LTYPE
  5
72
102
{ACAD_XDICTIONARY
360
D1
102
}
100
AcDbSymbolTableRecord
100
AcDbLinetypeTableRecord
  2
BYBLOCK
 70
     0
  3

 72
    65
 73
     0
 40
0.0
  0
LTYPE
  5
73
102
{ACAD_XDICTIONARY
360
D3
102
}
100
AcDbSymbolTableRecord
100
AcDbLinetypeTableRecord
  2
BYLAYER
 70
     0
  3

 72
    65
 73
     0
 40
0.0
  0
LTYPE
  5
74
100
AcDbSymbolTableRecord
100
AcDbLinetypeTableRecord
  2
CONTINUOUS
 70
     0
  3
Solid line
 72
    65
 73
     0
 40
0.0
  0
LTYPE
  5
82
100
AcDbSymbolTableRecord
100
AcDbLinetypeTableRecord
  2
CENTER
 70
     0
  3
Center ____ _ ____ _ ____ _ ____ _ ____ _ ____
 72
    65
 73
     4
 40
50.8
 49
31.75
 74
     0
 49
-6.35
 74
     0
 49
6.35
 74
     0
 49
-6.35
 74
     0
  0
LTYPE
  5
83
100
AcDbSymbolTableRecord
100
AcDbLinetypeTableRecord
  2
DASHED
 70
     0
  3
Dashed __ __ __ __ __ __ __ __ __ __ __ __ __ _
 72
    65
 73
     2
 40
19.05
 49
12.7
 74
     0
 49
-6.35
 74
     0
  0
ENDTAB
  0
TABLE
  2
LAYER
  5
61
100
AcDbSymbolTable
 70
     2
  0
LAYER
  5
6F
100
AcDbSymbolTableRecord
100
AcDbLayerTableRecord
  2
0
 70
     0
 62
     7
  6
CONTINUOUS
  0
LAYER
  5
84
100
AcDbSymbolTableRecord
100
AcDbLayerTableRecord
  2
CENTER
 70
     0
 62
     1
  6
CENTER
  0
ENDTAB
  0
TABLE
  2
STYLE
  5
62
100
AcDbSymbolTable
 70
     1
  0
STYLE
  5
70
100
AcDbSymbolTableRecord
100
AcDbTextStyleTableRecord
  2
STANDARD
 70
     0
 40
0.0
 41
1.0
 50
0.0
 71
     0
 42
2.0
  3
txt.shx
  4
extfont.shx
  0
ENDTAB
  0
TABLE
  2
VIEW
  5
65
100
AcDbSymbolTable
 70
     0
  0
ENDTAB
  0
TABLE
  2
UCS
  5
66
100
AcDbSymbolTable
 70
     0
  0
ENDTAB
  0
TABLE
  2
APPID
  5
68
100
AcDbSymbolTable
 70
     1
  0
APPID
  5
71
100
AcDbSymbolTableRecord
100
AcDbRegAppTableRecord
  2
ACAD
 70
     0
  0
ENDTAB
  0
TABLE
  2
DIMSTYLE
  5
69
100
AcDbSymbolTable
 70
     1
  0
DIMSTYLE
105
85
102
{ACAD_XDICTIONARY
360
FD
102
}
100
AcDbSymbolTableRecord
100
AcDbDimStyleTableRecord
  2
STANDARD
 70
     0
  3

  4

  5

  6

  7

 40
1.0
 41
2.5
 42
0.625
 43
3.75
 44
1.25
 45
0.0
 46
0.0
 47
0.0
 48
0.0
140
2.5
141
2.5
142
0.0
143
0.0394
144
1.0
145
0.0
146
1.0
147
0.625
 71
     0
 72
     0
 73
     0
 74
     0
 75
     0
 76
     0
 77
     1
 78
     8
170
     0
171
     4
172
     1
173
     0
174
     0
175
     0
176
     0
177
     0
178
     0
270
     2
271
     2
272
     2
273
     2
274
     4
340
70
275
     0
280
     0
281
     0
282
     0
283
     1
284
     8
285
     8
286
     8
287
     5
288
     0
  0
ENDTAB
  0
TABLE
  2
BLOCK_RECORD
  5
60
100
AcDbSymbolTable
 70
     2
  0
BLOCK_RECORD
  5
7D
102
{ACAD_XDICTIONARY
360
CD
102
}
100
AcDbSymbolTableRecord
100
AcDbBlockTableRecord
  2
*MODEL_SPACE
  0
BLOCK_RECORD
  5
79
102
{ACAD_XDICTIONARY
360
CF
102
}
100
AcDbSymbolTableRecord
100
AcDbBlockTableRecord
  2
*PAPER_SPACE
  0
BLOCK_RECORD
  5
88
100
AcDbSymbolTableRecord
100
AcDbBlockTableRecord
  2
$MODEL_SPACE
  0
BLOCK_RECORD
  5
8B
100
AcDbSymbolTableRecord
100
AcDbBlockTableRecord
  2
$PAPER_SPACE
  0
ENDTAB
  0
ENDSEC
  0
SECTION
  2
BLOCKS
  0
BLOCK
  5
7E
100
AcDbEntity
  8
0
100
AcDbBlockBegin
  2
*MODEL_SPACE
 70
     0
 10
0.0
 20
0.0
 30
0.0
  3
*MODEL_SPACE
  1

  0
ENDBLK
  5
7F
100
AcDbEntity
  8
0
100
AcDbBlockEnd
  0
BLOCK
  5
7A
100
AcDbEntity
 67
     1
  8
0
100
AcDbBlockBegin
  2
*PAPER_SPACE
 70
     0
 10
0.0
 20
0.0
 30
0.0
  3
*PAPER_SPACE
  1

  0
ENDBLK
  5
7B
100
AcDbEntity
 67
     1
  8
0
100
AcDbBlockEnd
  0
BLOCK
  5
89
100
AcDbEntity
  8
0
100
AcDbBlockBegin
  2
$MODEL_SPACE
 70
     0
 10
0.0
 20
0.0
 30
0.0
  3
$MODEL_SPACE
  1

  0
ENDBLK
  5
8A
100
AcDbEntity
  8
0
100
AcDbBlockEnd
  0
BLOCK
  5
8C
100
AcDbEntity
  8
0
100
AcDbBlockBegin
  2
$PAPER_SPACE
 70
     0
 10
0.0
 20
0.0
 30
0.0
  3
$PAPER_SPACE
  1

  0
ENDBLK
  5
8D
100
AcDbEntity
  8
0
100
AcDbBlockEnd
  0
ENDSEC
  0
SECTION
  2
ENTITIES
  0
LINE
  5
8E
100
AcDbEntity
  8
0
  6
DASHED
 62
     3
100
AcDbLine
 10
52.0
 20
62.5
 30
0.0
 11
52.0
 21
50.0
 31
0.0
  0
LINE
  5
8F
100
AcDbEntity
  8
0
100
AcDbLine
 10
50.0
 20
50.0
 30
0.0
 11
50.0
 21
67.5
 31
0.0
  0
LINE
  5
90
100
AcDbEntity
  8
0
100
AcDbLine
 10
62.0
 20
78.5
 30
0.0
 11
62.0
 21
50.0
 31
0.0
  0
ARC
  5
93
100
AcDbEntity
  8
0
100
AcDbCircle
 10
51.7
 20
32.2
 30
0.0
 40
0.3
100
AcDbArc
 50
0.0
 51
90.0
  0
LINE
  5
94
100
AcDbEntity
  8
0
100
AcDbLine
 10
62.0
 20
21.5
 30
0.0
 11
62.0
 21
50.0
 31
0.0
  0
LINE
  5
95
100
AcDbEntity
  8
CENTER
  6
CENTER
 62
     1
100
AcDbLine
 10
63.5
 20
27.5
 30
0.0
 11
48.5
 21
27.5
 31
0.0
  0
LINE
  5
96
100
AcDbEntity
  8
0
100
AcDbLine
 10
56.6
 20
30.1
 30
0.0
 11
52.0
 21
30.1
 31
0.0
  0
LINE
  5
97
100
AcDbEntity
  8
0
 62
     3
100
AcDbLine
 10
56.6
 20
30.5
 30
0.0
 11
52.0
 21
30.5
 31
0.0
  0
LINE
  5
98
100
AcDbEntity
  8
0
 62
     3
100
AcDbLine
 10
56.6
 20
24.5
 30
0.0
 11
52.0
 21
24.5
 31
0.0
  0
LINE
  5
99
100
AcDbEntity
  8
0
100
AcDbLine
 10
56.6
 20
24.9
 30
0.0
 11
52.0
 21
24.9
 31
0.0
  0
LINE
  5
9A
100
AcDbEntity
  8
0
100
AcDbLine
 10
52.0
 20
21.5
 30
0.0
 11
62.0
 21
21.5
 31
0.0
  0
LINE
  5
9B
100
AcDbEntity
  8
0
100
AcDbLine
 10
52.0
 20
32.2
 30
0.0
 11
52.0
 21
21.5
 31
0.0
  0
LINE
  5
9C
100
AcDbEntity
  8
0
100
AcDbLine
 10
56.6
 20
32.25
 30
0.0
 11
56.6
 21
22.75
 31
0.0
  0
LINE
  5
9D
100
AcDbEntity
  8
0
100
AcDbLine
 10
62.0
 20
22.75
 30
0.0
 11
56.6
 21
22.75
 31
0.0
  0
LINE
  5
9E
100
AcDbEntity
  8
0
100
AcDbLine
 10
62.0
 20
32.25
 30
0.0
 11
56.6
 21
32.25
 31
0.0
  0
LINE
  5
9F
100
AcDbEntity
  8
CENTER
  6
CENTER
 62
     1
100
AcDbLine
 10
48.5
 20
50.0
 30
0.0
 11
63.5
 21
50.0
 31
0.0
  0
LINE
  5
A0
100
AcDbEntity
  8
0
100
AcDbLine
 10
50.0
 20
50.0
 30
0.0
 11
50.0
 21
32.5
 31
0.0
  0
LINE
  5
A1
100
AcDbEntity
  8
0
  6
DASHED
 62
     3
100
AcDbLine
 10
52.0
 20
37.5
 30
0.0
 11
52.0
 21
50.0
 31
0.0
  0
LINE
  5
A2
100
AcDbEntity
  8
0
  6
DASHED
 62
     3
100
AcDbLine
 10
52.0
 20
36.0
 30
0.0
 11
55.0
 21
36.0
 31
0.0
  0
LINE
  5
A3
100
AcDbEntity
  8
0
  6
DASHED
 62
     3
100
AcDbLine
 10
52.0
 20
42.5
 30
0.0
 11
55.0
 21
42.5
 31
0.0
  0
LINE
  5
A4
100
AcDbEntity
  8
0
100
AcDbLine
 10
51.7
 20
32.5
 30
0.0
 11
50.0
 21
32.5
 31
0.0
  0
LINE
  5
A5
100
AcDbEntity
  8
0
  6
DASHED
 62
     3
100
AcDbLine
 10
50.0
 20
37.5
 30
0.0
 11
52.0
 21
37.5
 31
0.0
  0
LINE
  5
A6
100
AcDbEntity
  8
0
  6
DASHED
 62
     3
100
AcDbLine
 10
52.0
 20
37.5
 30
0.0
 11
52.0
 21
36.0
 31
0.0
  0
LINE
  5
A7
100
AcDbEntity
  8
CENTER
  6
CENTER
 62
     1
100
AcDbLine
 10
63.5
 20
72.5
 30
0.0
 11
48.5
 21
72.5
 31
0.0
  0
LINE
  5
A8
100
AcDbEntity
  8
0
  6
DASHED
 62
     3
100
AcDbLine
 10
52.0
 20
64.0
 30
0.0
 11
55.0
 21
64.0
 31
0.0
  0
LINE
  5
A9
100
AcDbEntity
  8
0
  6
DASHED
 62
     3
100
AcDbLine
 10
52.0
 20
57.5
 30
0.0
 11
55.0
 21
57.5
 31
0.0
  0
LINE
  5
AA
100
AcDbEntity
  8
0
  6
DASHED
 62
     3
100
AcDbLine
 10
50.0
 20
62.5
 30
0.0
 11
52.0
 21
62.5
 31
0.0
  0
LINE
  5
AB
100
AcDbEntity
  8
0
  6
DASHED
 62
     3
100
AcDbLine
 10
52.0
 20
62.5
 30
0.0
 11
52.0
 21
64.0
 31
0.0
  0
LINE
  5
AC
100
AcDbEntity
  8
0
100
AcDbLine
 10
56.6
 20
75.1
 30
0.0
 11
52.0
 21
75.1
 31
0.0
  0
LINE
  5
AD
100
AcDbEntity
  8
0
 62
     3
100
AcDbLine
 10
56.6
 20
75.5
 30
0.0
 11
52.0
 21
75.5
 31
0.0
  0
LINE
  5
AE
100
AcDbEntity
  8
0
 62
     3
100
AcDbLine
 10
56.6
 20
69.5
 30
0.0
 11
52.0
 21
69.5
 31
0.0
  0
LINE
  5
AF
100
AcDbEntity
  8
0
100
AcDbLine
 10
56.6
 20
69.9
 30
0.0
 11
52.0
 21
69.9
 31
0.0
  0
LINE
  5
B0
100
AcDbEntity
  8
0
100
AcDbLine
 10
52.0
 20
78.5
 30
0.0
 11
62.0
 21
78.5
 31
0.0
  0
LINE
  5
B1
100
AcDbEntity
  8
0
100
AcDbLine
 10
52.0
 20
67.8
 30
0.0
 11
52.0
 21
78.5
 31
0.0
  0
LINE
  5
B2
100
AcDbEntity
  8
0
100
AcDbLine
 10
51.7
 20
67.5
 30
0.0
 11
50.0
 21
67.5
 31
0.0
  0
ARC
  5
B3
100
AcDbEntity
  8
0
100
AcDbCircle
 10
51.7
 20
67.8
 30
0.0
 40
0.3
100
AcDbArc
 50
270.0
 51
0.0
  0
LINE
  5
B4
100
AcDbEntity
  8
0
100
AcDbLine
 10
56.6
 20
77.25
 30
0.0
 11
56.6
 21
67.75
 31
0.0
  0
LINE
  5
B5
100
AcDbEntity
  8
0
100
AcDbLine
 10
62.0
 20
67.75
 30
0.0
 11
56.6
 21
67.75
 31
0.0
  0
LINE
  5
B6
100
AcDbEntity
  8
0
100
AcDbLine
 10
62.0
 20
77.25
 30
0.0
 11
56.6
 21
77.25
 31
0.0
  0
CIRCLE
  5
B7
100
AcDbEntity
  8
CENTER
  6
CENTER
 62
     1
100
AcDbCircle
 10
124.0
 20
50.0
 30
0.0
 40
22.5
  0
LINE
  5
B8
100
AcDbEntity
  8
CENTER
  6
CENTER
 62
     1
100
AcDbLine
 10
124.0
 20
80.0
 30
0.0
 11
124.0
 21
20.0
 31
0.0
  0
CIRCLE
  5
B9
100
AcDbEntity
  8
0
100
AcDbCircle
 10
124.0
 20
50.0
 30
0.0
 40
7.5
  0
CIRCLE
  5
BA
100
AcDbEntity
  8
0
  6
DASHED
 62
     3
100
AcDbCircle
 10
124.0
 20
50.0
 30
0.0
 40
17.5
  0
CIRCLE
  5
BB
100
AcDbEntity
  8
0
  6
DASHED
 62
     3
100
AcDbCircle
 10
124.0
 20
50.0
 30
0.0
 40
12.5
  0
CIRCLE
  5
BC
100
AcDbEntity
  8
0
100
AcDbCircle
 10
124.0
 20
50.0
 30
0.0
 40
14.0
  0
CIRCLE
  5
BD
100
AcDbEntity
  8
0
100
AcDbCircle
 10
124.0
 20
50.0
 30
0.0
 40
28.5
  0
LINE
  5
BE
100
AcDbEntity
  8
CENTER
  6
CENTER
 62
     1
100
AcDbLine
 10
154.0
 20
50.0
 30
0.0
 11
94.0
 21
50.0
 31
0.0
  0
CIRCLE
  5
BF
100
AcDbEntity
  8
0
100
AcDbCircle
 10
146.5
 20
50.0
 30
0.0
 40
4.75
  0
CIRCLE
  5
C0
100
AcDbEntity
  8
0
100
AcDbCircle
 10
146.5
 20
50.0
 30
0.0
 40
2.6
  0
CIRCLE
  5
C1
100
AcDbEntity
  8
0
 62
     3
100
AcDbCircle
 10
146.5
 20
50.0
 30
0.0
 40
3.0
  0
CIRCLE
  5
C2
100
AcDbEntity
  8
0
100
AcDbCircle
 10
101.5
 20
50.0
 30
0.0
 40
4.75
  0
CIRCLE
  5
C3
100
AcDbEntity
  8
0
100
AcDbCircle
 10
101.5
 20
50.0
 30
0.0
 40
2.6
  0
CIRCLE
  5
C4
100
AcDbEntity
  8
0
 62
     3
100
AcDbCircle
 10
101.5
 20
50.0
 30
0.0
 40
3.0
  0
CIRCLE
  5
C5
100
AcDbEntity
  8
0
100
AcDbCircle
 10
124.0
 20
27.5
 30
0.0
 40
4.75
  0
CIRCLE
  5
C6
100
AcDbEntity
  8
0
100
AcDbCircle
 10
124.0
 20
27.5
 30
0.0
 40
2.6
  0
CIRCLE
  5
C7
100
AcDbEntity
  8
0
 62
     3
100
AcDbCircle
 10
124.0
 20
27.5
 30
0.0
 40
3.0
  0
CIRCLE
  5
C8
100
AcDbEntity
  8
0
100
AcDbCircle
 10
124.0
 20
72.5
 30
0.0
 40
4.75
  0
CIRCLE
  5
C9
100
AcDbEntity
  8
0
100
AcDbCircle
 10
124.0
 20
72.5
 30
0.0
 40
2.6
  0
CIRCLE
  5
CA
100
AcDbEntity
  8
0
 62
     3
100
AcDbCircle
 10
124.0
 20
72.5
 30
0.0
 40
3.0
  0
ENDSEC
  0
SECTION
  2
OBJECTS
  0
DICTIONARY
  5
6B
100
AcDbDictionary
  3
ACAD_GROUP
350
6C
  3
ACAD_LAYOUT
350
78
  3
ACAD_MLINESTYLE
350
75
  3
ACAD_PLOTSETTINGS
350
77
  3
ACAD_PLOTSTYLENAME
350
6D
  3
ACDBHEADERROUNDTRIPXREC
350
D7
  3
AcDbVariableDictionary
350
FF
  0
DICTIONARY
  5
D5
100
AcDbDictionary
280
     1
  3
ACAD_XREC_ROUNDTRIP
360
D6
  0
DICTIONARY
  5
D1
100
AcDbDictionary
280
     1
  3
ACAD_XREC_ROUNDTRIP
360
D2
  0
DICTIONARY
  5
D3
100
AcDbDictionary
280
     1
  3
ACAD_XREC_ROUNDTRIP
360
D4
  0
DICTIONARY
  5
FD
100
AcDbDictionary
280
     1
  3
ACAD_XREC_ROUNDTRIP
360
FE
  0
DICTIONARY
  5
CD
100
AcDbDictionary
280
     1
  3
ACAD_LAYOUTSELFREF
360
FC
  3
ACAD_XREC_ROUNDTRIP
360
CE
  0
DICTIONARY
  5
CF
100
AcDbDictionary
280
     1
  3
ACAD_LAYOUTSELFREF
360
FB
  3
ACAD_XREC_ROUNDTRIP
360
D0
  0
DICTIONARY
  5
6C
102
{ACAD_REACTORS
330
6B
102
}
100
AcDbDictionary
  0
DICTIONARY
  5
78
102
{ACAD_XDICTIONARY
360
F9
102
}
102
{ACAD_REACTORS
330
6B
102
}
100
AcDbDictionary
  3
MODEL
350
80
  3
ﾚｲｱｳﾄ1
350
7C
  0
DICTIONARY
  5
75
102
{ACAD_XDICTIONARY
360
F7
102
}
102
{ACAD_REACTORS
330
6B
102
}
100
AcDbDictionary
  3
STANDARD
350
76
  0
DICTIONARY
  5
77
102
{ACAD_REACTORS
330
6B
102
}
100
AcDbDictionary
  0
ACAD_PROXY_OBJECT
  5
6D
102
{ACAD_REACTORS
330
6B
102
}
100
AcDbProxyObject
 90
      499
 91
      500
 93
       86
310
405010041939BDC9B585B0
350
6E
340
6E
 94
        0
  0
DICTIONARY
  5
D7
102
{ACAD_REACTORS
330
6B
102
}
100
AcDbDictionary
  3
CEPSNTYPE
350
E1
  3
FINGERPRINTGUID
350
E2
  3
HYPERLINKBASE
350
DA
  3
INSUNITS
350
E0
  3
LAYOUTDICT
350
DC
  3
LWETCUNION
350
DF
  3
PLOTSETDICT
350
DD
  3
PLOTSTYLNAMDICT
350
DE
  3
PSVPSCALE
350
E4
  3
PUCSBASE
350
E7
  3
PUCSORGBACK
350
ED
  3
PUCSORGBOTTOM
350
E9
  3
PUCSORGFRONT
350
EC
  3
PUCSORGLEFT
350
EA
  3
PUCSORGRIGHT
350
EB
  3
PUCSORGTOP
350
E8
  3
PUCSORTHOREF
350
E5
  3
PUCSORTHOVIEW
350
E6
  3
STYLESHEET
350
DB
  3
TSTACKALIGN
350
D8
  3
TSTACKSIZE
350
D9
  3
UCSBASE
350
F0
  3
UCSORGBACK
350
F6
  3
UCSORGBOTTOM
350
F2
  3
UCSORGFRONT
350
F5
  3
UCSORGLEFT
350
F3
  3
UCSORGRIGHT
350
F4
  3
UCSORGTOP
350
F1
  3
UCSORTHOREF
350
EE
  3
UCSORTHOVIEW
350
EF
  3
VERSIONGUID
350
E3
  0
DICTIONARY
  5
FF
102
{ACAD_REACTORS
330
6B
102
}
100
AcDbDictionary
  3
DIMASSOC
350
100
  0
XRECORD
  5
D6
102
{ACAD_REACTORS
330
D5
102
}
100
AcDbXrecord
102
EXTNAMES
  1
*ACTIVE
  2
*Active
102
UCS
 74
     0
 71
     0
 10
0.0
 20
0.0
 30
0.0
 10
1.0
 20
0.0
 30
0.0
 10
0.0
 20
1.0
 30
0.0
146
0.0
 79
     0
102
VIEW
281
     0
  0
XRECORD
  5
D2
102
{ACAD_REACTORS
330
D1
102
}
100
AcDbXrecord
102
EXTNAMES
  1
BYBLOCK
  2
ByBlock
  0
XRECORD
  5
D4
102
{ACAD_REACTORS
330
D3
102
}
100
AcDbXrecord
102
EXTNAMES
  1
BYLAYER
  2
ByLayer
  0
XRECORD
  5
FE
102
{ACAD_REACTORS
330
FD
102
}
100
AcDbXrecord
102
ACADR14ROUNDTRIP
1000
DSTYLE
1002
{
1070
   279
 70
     2
1002
}
  0
XRECORD
  5
FC
102
{ACAD_REACTORS
330
CD
102
}
100
AcDbXrecord
340
7D
  0
XRECORD
  5
CE
102
{ACAD_REACTORS
330
CD
102
}
100
AcDbXrecord
102
EXTNAMES
  1
*MODEL_SPACE
  2
*Model_Space
  0
XRECORD
  5
FB
102
{ACAD_REACTORS
330
CF
102
}
100
AcDbXrecord
340
79
  0
XRECORD
  5
D0
102
{ACAD_REACTORS
330
CF
102
}
100
AcDbXrecord
102
EXTNAMES
  1
*PAPER_SPACE
  2
*Paper_Space
  0
DICTIONARY
  5
F9
100
AcDbDictionary
280
     1
  3
ACAD_XREC_ROUNDTRIP
360
FA
  0
ACAD_PROXY_OBJECT
  5
80
102
{ACAD_REACTORS
330
78
102
}
100
AcDbProxyObject
 90
      499
 91
      502
 93
      836
310
932433A5C50524F4752414D2046494C45535C4D4454365C706C6F74746572735C526F6C616E64204458592D313235302E7063332C01AAAAAAAAA5A69054D6F64656C901A800000000000000000000000000000000000000000000A1000000000000008902A6A6AAAA0
330
7D
330
0
340
0
340
0
 94
        0
  0
ACAD_PROXY_OBJECT
  5
7C
102
{ACAD_REACTORS
330
78
102
}
100
AcDbProxyObject
 90
      499
 91
      502
 93
     1252
310
932433A5C50524F4752414D2046494C45535C4D4454365C706C6F74746572735C526F6C616E64204458592D313235302E7063332C00AAAAAA416AA59106906DAB2B1B3C43140501A800000000000000000000000000000000000000000101E900000000000241C902A6A6A10232D5E076BC5510408CB5781DAF154410232D5
310
E076BC5510408CB5781DAF15C410232D5E076BC5710408CB5781DAF15C40
330
79
330
0
340
0
340
0
 94
        0
  0
DICTIONARY
  5
F7
100
AcDbDictionary
280
     1
  3
ACAD_XREC_ROUNDTRIP
360
F8
  0
MLINESTYLE
  5
76
102
{ACAD_REACTORS
330
75
102
}
100
AcDbMlineStyle
  2
STANDARD
 70
     0
  3

 62
   256
 51
90.0
 52
90.0
 71
     2
 49
0.5
 62
   256
  6
BYLAYER
 49
-0.5
 62
   256
  6
BYLAYER
  0
ACAD_PROXY_OBJECT
  5
6E
102
{ACAD_REACTORS
330
6D
102
}
100
AcDbProxyObject
 90
      499
 91
      501
 93
        0
 94
        0
  0
XRECORD
  5
E1
102
{ACAD_REACTORS
330
D7
102
}
100
AcDbXrecord
 90
        0
  0
XRECORD
  5
E2
102
{ACAD_REACTORS
330
D7
102
}
100
AcDbXrecord
  1
{B2465393-14F7-4CA8-B2CD-8CD11E6C4809}
  0
XRECORD
  5
DA
102
{ACAD_REACTORS
330
D7
102
}
100
AcDbXrecord
  1

  0
XRECORD
  5
E0
102
{ACAD_REACTORS
330
D7
102
}
100
AcDbXrecord
 90
        0
  0
XRECORD
  5
DC
102
{ACAD_REACTORS
330
D7
102
}
100
AcDbXrecord
340
78
  0
XRECORD
  5
DF
102
{ACAD_REACTORS
330
D7
102
}
100
AcDbXrecord
 90
    10781
  0
XRECORD
  5
DD
102
{ACAD_REACTORS
330
D7
102
}
100
AcDbXrecord
340
77
  0
XRECORD
  5
DE
102
{ACAD_REACTORS
330
D7
102
}
100
AcDbXrecord
340
6D
  0
XRECORD
  5
E4
102
{ACAD_REACTORS
330
D7
102
}
100
AcDbXrecord
 40
0.0
  0
XRECORD
  5
E7
102
{ACAD_REACTORS
330
D7
102
}
100
AcDbXrecord
340
0
  0
XRECORD
  5
ED
102
{ACAD_REACTORS
330
D7
102
}
100
AcDbXrecord
 10
0.0
 20
0.0
 30
0.0
  0
XRECORD
  5
E9
102
{ACAD_REACTORS
330
D7
102
}
100
AcDbXrecord
 10
0.0
 20
0.0
 30
0.0
  0
XRECORD
  5
EC
102
{ACAD_REACTORS
330
D7
102
}
100
AcDbXrecord
 10
0.0
 20
0.0
 30
0.0
  0
XRECORD
  5
EA
102
{ACAD_REACTORS
330
D7
102
}
100
AcDbXrecord
 10
0.0
 20
0.0
 30
0.0
  0
XRECORD
  5
EB
102
{ACAD_REACTORS
330
D7
102
}
100
AcDbXrecord
 10
0.0
 20
0.0
 30
0.0
  0
XRECORD
  5
E8
102
{ACAD_REACTORS
330
D7
102
}
100
AcDbXrecord
 10
0.0
 20
0.0
 30
0.0
  0
XRECORD
  5
E5
102
{ACAD_REACTORS
330
D7
102
}
100
AcDbXrecord
340
0
  0
XRECORD
  5
E6
102
{ACAD_REACTORS
330
D7
102
}
100
AcDbXrecord
 70
     0
  0
XRECORD
  5
DB
102
{ACAD_REACTORS
330
D7
102
}
100
AcDbXrecord
  1

  0
XRECORD
  5
D8
102
{ACAD_REACTORS
330
D7
102
}
100
AcDbXrecord
 90
        1
  0
XRECORD
  5
D9
102
{ACAD_REACTORS
330
D7
102
}
100
AcDbXrecord
 90
       70
  0
XRECORD
  5
F0
102
{ACAD_REACTORS
330
D7
102
}
100
AcDbXrecord
340
0
  0
XRECORD
  5
F6
102
{ACAD_REACTORS
330
D7
102
}
100
AcDbXrecord
 10
0.0
 20
0.0
 30
0.0
  0
XRECORD
  5
F2
102
{ACAD_REACTORS
330
D7
102
}
100
AcDbXrecord
 10
0.0
 20
0.0
 30
0.0
  0
XRECORD
  5
F5
102
{ACAD_REACTORS
330
D7
102
}
100
AcDbXrecord
 10
0.0
 20
0.0
 30
0.0
  0
XRECORD
  5
F3
102
{ACAD_REACTORS
330
D7
102
}
100
AcDbXrecord
 10
0.0
 20
0.0
 30
0.0
  0
XRECORD
  5
F4
102
{ACAD_REACTORS
330
D7
102
}
100
AcDbXrecord
 10
0.0
 20
0.0
 30
0.0
  0
XRECORD
  5
F1
102
{ACAD_REACTORS
330
D7
102
}
100
AcDbXrecord
 10
0.0
 20
0.0
 30
0.0
  0
XRECORD
  5
EE
102
{ACAD_REACTORS
330
D7
102
}
100
AcDbXrecord
340
0
  0
XRECORD
  5
EF
102
{ACAD_REACTORS
330
D7
102
}
100
AcDbXrecord
 70
     0
  0
XRECORD
  5
E3
102
{ACAD_REACTORS
330
D7
102
}
100
AcDbXrecord
  1
{CF40BD3C-287E-44B8-B06A-68A66F1B9A86}
  0
DICTIONARYVAR
  5
100
102
{ACAD_REACTORS
330
FF
102
}
100
DictionaryVariables
280
     0
  1
1
  0
XRECORD
  5
FA
102
{ACAD_REACTORS
330
F9
102
}
100
AcDbXrecord
102
EXTNAMES
  1
MODEL
  2
Model
  0
XRECORD
  5
F8
102
{ACAD_REACTORS
330
F7
102
}
100
AcDbXrecord
102
EXTNAMES
  1
STANDARD
  2
Standard
  0
ENDSEC
  0
EOF
