  0
SECTION
  2
HEADER
  9
$ACADVER
  1
AC1014
  9
$ACADMAINTVER
 70
     0
  9
$DWGCODEPAGE
  3
ANSI_932
  9
$INSBASE
 10
0.0
 20
0.0
 30
0.0
  9
$EXTMIN
 10
192.342189
 20
135.252641
 30
0.0
  9
$EXTMAX
 10
413.404018
 20
245.314362
 30
0.0
  9
$LIMMIN
 10
0.0
 20
0.0
  9
$LIMMAX
 10
594.0
 20
420.0
  9
$ORTHOMODE
 70
     1
  9
$REGENMODE
 70
     1
  9
$FILLMODE
 70
     1
  9
$QTEXTMODE
 70
     0
  9
$MIRRTEXT
 70
     1
  9
$DRAGMODE
 70
     2
  9
$LTSCALE
 40
0.25
  9
$OSMODE
 70
    37
  9
$ATTMODE
 70
     1
  9
$TEXTSIZE
 40
4.0
  9
$TRACEWID
 40
1.0
  9
$TEXTSTYLE
  7
STANDARD
  9
$CLAYER
  8
0
  9
$CELTYPE
  6
BYLAYER
  9
$CECOLOR
 62
   256
  9
$CELTSCALE
 40
1.0
  9
$DELOBJ
 70
     1
  9
$DISPSILH
 70
     0
  9
$DIMSCALE
 40
2.0
  9
$DIMASZ
 40
3.0
  9
$DIMEXO
 40
1.0
  9
$DIMDLI
 40
10.0
  9
$DIMRND
 40
0.0
  9
$DIMDLE
 40
0.0
  9
$DIMEXE
 40
1.0
  9
$DIMTP
 40
0.0
  9
$DIMTM
 40
0.0
  9
$DIMTXT
 40
3.2
  9
$DIMCEN
 40
0.0
  9
$DIMTSZ
 40
0.0
  9
$DIMTOL
 70
     0
  9
$DIMLIM
 70
     0
  9
$DIMTIH
 70
     0
  9
$DIMTOH
 70
     0
  9
$DIMSE1
 70
     0
  9
$DIMSE2
 70
     0
  9
$DIMTAD
 70
     3
  9
$DIMZIN
 70
     8
  9
$DIMBLK
  1
ARROW
  9
$DIMASO
 70
     1
  9
$DIMSHO
 70
     1
  9
$DIMPOST
  1

  9
$DIMAPOST
  1

  9
$DIMALT
 70
     0
  9
$DIMALTD
 70
     2
  9
$DIMALTF
 40
0.04
  9
$DIMLFAC
 40
1.0
  9
$DIMTOFL
 70
     1
  9
$DIMTVP
 40
1.0
  9
$DIMTIX
 70
     0
  9
$DIMSOXD
 70
     0
  9
$DIMSAH
 70
     1
  9
$DIMBLK1
  1
OPEN
  9
$DIMBLK2
  1
OPEN
  9
$DIMSTYLE
  2
AA1
  9
$DIMCLRD
 70
     0
  9
$DIMCLRE
 70
     0
  9
$DIMCLRT
 70
     0
  9
$DIMTFAC
 40
0.6
  9
$DIMGAP
 40
1.0
  9
$DIMJUST
 70
     0
  9
$DIMSD1
 70
     0
  9
$DIMSD2
 70
     0
  9
$DIMTOLJ
 70
     1
  9
$DIMTZIN
 70
     0
  9
$DIMALTZ
 70
     0
  9
$DIMALTTZ
 70
     0
  9
$DIMFIT
 70
     3
  9
$DIMUPT
 70
     0
  9
$DIMUNIT
 70
     2
  9
$DIMDEC
 70
     4
  9
$DIMTDEC
 70
     4
  9
$DIMALTU
 70
     2
  9
$DIMALTTD
 70
     2
  9
$DIMTXSTY
  7
STANDARD
  9
$DIMAUNIT
 70
     0
  9
$LUNITS
 70
     2
  9
$LUPREC
 70
     2
  9
$SKETCHINC
 40
1.0
  9
$FILLETRAD
 40
10.0
  9
$AUNITS
 70
     0
  9
$AUPREC
 70
     0
  9
$MENU
  1
acad
  9
$ELEVATION
 40
0.0
  9
$PELEVATION
 40
0.0
  9
$THICKNESS
 40
0.0
  9
$LIMCHECK
 70
     0
  9
$BLIPMODE
 70
     0
  9
$CHAMFERA
 40
0.0
  9
$CHAMFERB
 40
0.0
  9
$CHAMFERC
 40
0.0
  9
$CHAMFERD
 40
0.0
  9
$SKPOLY
 70
     0
  9
$TDCREATE
 40
2451466.512206828
  9
$TDUPDATE
 40
2452821.733572454
  9
$TDINDWG
 40
0.0002103009
  9
$TDUSRTIMER
 40
0.0002097222
  9
$USRTIMER
 70
     1
  9
$ANGBASE
 50
0.0
  9
$ANGDIR
 70
     0
  9
$PDMODE
 70
     1
  9
$PDSIZE
 40
0.0
  9
$PLINEWID
 40
0.0
  9
$COORDS
 70
     1
  9
$SPLFRAME
 70
     0
  9
$SPLINETYPE
 70
     6
  9
$SPLINESEGS
 70
     8
  9
$ATTDIA
 70
     0
  9
$ATTREQ
 70
     1
  9
$HANDLING
 70
     1
  9
$HANDSEED
  5
22C
  9
$SURFTAB1
 70
     6
  9
$SURFTAB2
 70
     6
  9
$SURFTYPE
 70
     6
  9
$SURFU
 70
     6
  9
$SURFV
 70
     6
  9
$UCSNAME
  2

  9
$UCSORG
 10
0.0
 20
0.0
 30
0.0
  9
$UCSXDIR
 10
1.0
 20
0.0
 30
0.0
  9
$UCSYDIR
 10
0.0
 20
1.0
 30
0.0
  9
$PUCSNAME
  2

  9
$PUCSORG
 10
0.0
 20
0.0
 30
0.0
  9
$PUCSXDIR
 10
1.0
 20
0.0
 30
0.0
  9
$PUCSYDIR
 10
0.0
 20
1.0
 30
0.0
  9
$USERI1
 70
     0
  9
$USERI2
 70
     0
  9
$USERI3
 70
     0
  9
$USERI4
 70
     0
  9
$USERI5
 70
     0
  9
$USERR1
 40
0.0
  9
$USERR2
 40
0.0
  9
$USERR3
 40
0.0
  9
$USERR4
 40
0.0
  9
$USERR5
 40
0.0
  9
$WORLDVIEW
 70
     1
  9
$SHADEDGE
 70
     3
  9
$SHADEDIF
 70
    70
  9
$TILEMODE
 70
     1
  9
$MAXACTVP
 70
    16
  9
$PINSBASE
 10
0.0
 20
0.0
 30
0.0
  9
$PLIMCHECK
 70
     0
  9
$PEXTMIN
 10
1.000000E+20
 20
1.000000E+20
 30
1.000000E+20
  9
$PEXTMAX
 10
-1.000000E+20
 20
-1.000000E+20
 30
-1.000000E+20
  9
$PLIMMIN
 10
0.0
 20
0.0
  9
$PLIMMAX
 10
420.0
 20
297.0
  9
$UNITMODE
 70
     0
  9
$VISRETAIN
 70
     0
  9
$PLINEGEN
 70
     0
  9
$PSLTSCALE
 70
     0
  9
$TREEDEPTH
 70
  3020
  9
$PICKSTYLE
 70
     1
  9
$CMLSTYLE
  2
STANDARD
  9
$CMLJUST
 70
     0
  9
$CMLSCALE
 40
1.0
  9
$PROXYGRAPHICS
 70
     1
  9
$MEASUREMENT
 70
     0
  0
ENDSEC
  0
SECTION
  2
CLASSES
  0
CLASS
  1
ACDBDICTIONARYWDFLT
  2
AcDbDictionaryWithDefault
  3
AutoCAD 2000
 90
        0
280
     0
281
     0
  0
CLASS
  1
ACDBPLACEHOLDER
  2
AcDbPlaceHolder
  3
AutoCAD 2000
 90
        0
280
     0
281
     0
  0
CLASS
  1
LAYOUT
  2
AcDbLayout
  3
AutoCAD 2000
 90
        0
280
     0
281
     0
  0
CLASS
  1
DICTIONARYVAR
  2
AcDbDictionaryVar
  3
"AutoCAD"
 90
        0
280
     0
281
     0
  0
CLASS
  1
LONG_TRANSACTION
  2
AcDbLongTransaction
  3
AutoCAD 2000
 90
        0
280
     0
281
     0
  0
CLASS
  1
LWPOLYLINE
  2
AcDbPolyline
  3
"AutoCAD"
 90
        0
280
     0
281
     1
  0
CLASS
  1
HATCH
  2
AcDbHatch
  3
"ACAD_SEDONA"
 90
        0
280
     0
281
     1
  0
CLASS
  1
XRECORD
  2
AcDbXrecord
  3
"<Built In>"
 90
        0
280
     0
281
     0
  0
ENDSEC
  0
SECTION
  2
TABLES
  0
TABLE
  2
VPORT
  5
FA
100
AcDbSymbolTable
 70
     1
  0
VPORT
  5
1F3
102
{ACAD_XDICTIONARY
360
1FC
102
}
100
AcDbSymbolTableRecord
100
AcDbViewportTableRecord
  2
*ACTIVE
 70
     0
 10
0.0
 20
0.0
 11
1.0
 21
1.0
 12
297.000001
 22
315.433306
 13
0.0
 23
0.0
 14
10.0
 24
10.0
 15
0.0
 25
0.0
 16
0.0
 26
0.0
 36
1.0
 17
0.0
 27
0.0
 37
0.0
 40
692.616442
 41
1.530211
 42
50.0
 43
0.0
 44
0.0
 50
0.0
 51
0.0
 71
     0
 72
   100
 73
     1
 74
     0
 75
     0
 76
     0
 77
     0
 78
     1
  0
ENDTAB
  0
TABLE
  2
LTYPE
  5
F7
100
AcDbSymbolTable
 70
     3
  0
LTYPE
  5
105
102
{ACAD_XDICTIONARY
360
1F8
102
}
100
AcDbSymbolTableRecord
100
AcDbLinetypeTableRecord
  2
BYBLOCK
 70
     0
  3

 72
    65
 73
     0
 40
0.0
  0
LTYPE
  5
106
102
{ACAD_XDICTIONARY
360
1FA
102
}
100
AcDbSymbolTableRecord
100
AcDbLinetypeTableRecord
  2
BYLAYER
 70
     0
  3

 72
    65
 73
     0
 40
0.0
  0
LTYPE
  5
107
100
AcDbSymbolTableRecord
100
AcDbLinetypeTableRecord
  2
CONTINUOUS
 70
     0
  3
Solid line
 72
    65
 73
     0
 40
0.0
  0
LTYPE
  5
115
100
AcDbSymbolTableRecord
100
AcDbLinetypeTableRecord
  2
CENTER
 70
     0
  3
____ _ ____ _ ____ _ ____ _ ____ _ ____ _ ____ 
 72
    65
 73
     4
 40
50.8
 49
31.75
 74
     0
 49
-6.35
 74
     0
 49
6.35
 74
     0
 49
-6.35
 74
     0
  0
LTYPE
  5
116
100
AcDbSymbolTableRecord
100
AcDbLinetypeTableRecord
  2
DASHED
 70
     0
  3
__ __ __ __ __ __ __ __ __ __ __ __ __ __ __ __
 72
    65
 73
     2
 40
0.75
 49
0.5
 74
     0
 49
-0.25
 74
     0
  0
ENDTAB
  0
TABLE
  2
LAYER
  5
F4
100
AcDbSymbolTable
 70
     3
  0
LAYER
  5
102
100
AcDbSymbolTableRecord
100
AcDbLayerTableRecord
  2
0
 70
     0
 62
     7
  6
CONTINUOUS
  0
LAYER
  5
117
100
AcDbSymbolTableRecord
100
AcDbLayerTableRecord
  2
DIMENSION
 70
     0
 62
    -4
  6
CONTINUOUS
  0
LAYER
  5
118
100
AcDbSymbolTableRecord
100
AcDbLayerTableRecord
  2
CENTER
 70
     0
 62
     1
  6
CENTER
  0
ENDTAB
  0
TABLE
  2
STYLE
  5
F5
100
AcDbSymbolTable
 70
     1
  0
STYLE
  5
103
100
AcDbSymbolTableRecord
100
AcDbTextStyleTableRecord
  2
STANDARD
 70
     0
 40
0.0
 41
1.0
 50
0.0
 71
     0
 42
4.0
  3
txt
  4

  0
ENDTAB
  0
TABLE
  2
VIEW
  5
F8
100
AcDbSymbolTable
 70
     0
  0
ENDTAB
  0
TABLE
  2
UCS
  5
F9
100
AcDbSymbolTable
 70
     0
  0
ENDTAB
  0
TABLE
  2
APPID
  5
FB
100
AcDbSymbolTable
 70
     1
  0
APPID
  5
104
100
AcDbSymbolTableRecord
100
AcDbRegAppTableRecord
  2
ACAD
 70
     0
  0
ENDTAB
  0
TABLE
  2
DIMSTYLE
  5
FC
100
AcDbSymbolTable
 70
     1
  0
DIMSTYLE
105
119
102
{ACAD_XDICTIONARY
360
225
102
}
100
AcDbSymbolTableRecord
100
AcDbDimStyleTableRecord
  2
AA1
 70
     0
  3

  4

  5

  6

  7

 40
2.0
 41
3.0
 42
1.0
 43
10.0
 44
1.0
 45
0.0
 46
0.0
 47
0.0
 48
0.0
140
3.2
141
0.0
142
0.0
143
0.04
144
1.0
145
1.0
146
0.6
147
0.0
 71
     0
 72
     0
 73
     0
 74
     0
 75
     0
 76
     0
 77
     0
 78
     8
170
     0
171
     2
172
     1
173
     0
174
     0
175
     0
176
     0
177
     0
178
     0
270
     2
271
     2
272
     2
273
     2
274
     2
340
103
275
     0
280
     0
281
     0
282
     0
283
     1
284
     8
285
     8
286
     8
287
     5
288
     0
  0
ENDTAB
  0
TABLE
  2
BLOCK_RECORD
  5
F3
100
AcDbSymbolTable
 70
     4
  0
BLOCK_RECORD
  5
110
102
{ACAD_XDICTIONARY
360
1F4
102
}
100
AcDbSymbolTableRecord
100
AcDbBlockTableRecord
  2
*MODEL_SPACE
  0
BLOCK_RECORD
  5
10C
102
{ACAD_XDICTIONARY
360
1F6
102
}
100
AcDbSymbolTableRecord
100
AcDbBlockTableRecord
  2
*PAPER_SPACE
  0
BLOCK_RECORD
  5
11B
100
AcDbSymbolTableRecord
100
AcDbBlockTableRecord
  2
$MODEL_SPACE
  0
BLOCK_RECORD
  5
11E
100
AcDbSymbolTableRecord
100
AcDbBlockTableRecord
  2
$PAPER_SPACE
  0
BLOCK_RECORD
  5
121
100
AcDbSymbolTableRecord
100
AcDbBlockTableRecord
  2
ARROW
  0
BLOCK_RECORD
  5
127
100
AcDbSymbolTableRecord
100
AcDbBlockTableRecord
  2
_OPEN
  0
ENDTAB
  0
ENDSEC
  0
SECTION
  2
BLOCKS
  0
BLOCK
  5
111
100
AcDbEntity
  8
0
100
AcDbBlockBegin
  2
*MODEL_SPACE
 70
     0
 10
0.0
 20
0.0
 30
0.0
  3
*MODEL_SPACE
  1

  0
ENDBLK
  5
112
100
AcDbEntity
  8
0
100
AcDbBlockEnd
  0
BLOCK
  5
10D
100
AcDbEntity
 67
     1
  8
0
100
AcDbBlockBegin
  2
*PAPER_SPACE
 70
     0
 10
0.0
 20
0.0
 30
0.0
  3
*PAPER_SPACE
  1

  0
ENDBLK
  5
10E
100
AcDbEntity
 67
     1
  8
0
100
AcDbBlockEnd
  0
BLOCK
  5
11C
100
AcDbEntity
  8
0
100
AcDbBlockBegin
  2
$MODEL_SPACE
 70
     0
 10
0.0
 20
0.0
 30
0.0
  3
$MODEL_SPACE
  1

  0
ENDBLK
  5
11D
100
AcDbEntity
  8
0
100
AcDbBlockEnd
  0
BLOCK
  5
11F
100
AcDbEntity
  8
0
100
AcDbBlockBegin
  2
$PAPER_SPACE
 70
     0
 10
0.0
 20
0.0
 30
0.0
  3
$PAPER_SPACE
  1

  0
ENDBLK
  5
120
100
AcDbEntity
  8
0
100
AcDbBlockEnd
  0
BLOCK
  5
122
100
AcDbEntity
  8
0
100
AcDbBlockBegin
  2
ARROW
 70
     0
 10
0.0
 20
0.0
 30
0.0
  3
ARROW
  1

  0
LINE
  5
123
100
AcDbEntity
  8
DIMENSION
100
AcDbLine
 10
0.0
 20
0.0
 30
0.0
 11
-1.0
 21
0.176327
 31
0.0
  0
LINE
  5
124
100
AcDbEntity
  8
DIMENSION
100
AcDbLine
 10
0.0
 20
0.0
 30
0.0
 11
-1.0
 21
-0.176327
 31
0.0
  0
LINE
  5
125
100
AcDbEntity
  8
DIMENSION
100
AcDbLine
 10
-1.0
 20
0.0
 30
0.0
 11
0.0
 21
0.0
 31
0.0
  0
ENDBLK
  5
126
100
AcDbEntity
  8
0
100
AcDbBlockEnd
  0
BLOCK
  5
128
100
AcDbEntity
  8
0
100
AcDbBlockBegin
  2
_OPEN
 70
     0
 10
0.0
 20
0.0
 30
0.0
  3
_OPEN
  1

  0
LINE
  5
129
100
AcDbEntity
  8
0
  6
BYBLOCK
 62
     0
100
AcDbLine
 10
-1.0
 20
0.166667
 30
0.0
 11
0.0
 21
0.0
 31
0.0
  0
LINE
  5
12A
100
AcDbEntity
  8
0
  6
BYBLOCK
 62
     0
100
AcDbLine
 10
0.0
 20
0.0
 30
0.0
 11
-1.0
 21
-0.166667
 31
0.0
  0
LINE
  5
12B
100
AcDbEntity
  8
0
  6
BYBLOCK
 62
     0
100
AcDbLine
 10
0.0
 20
0.0
 30
0.0
 11
-1.0
 21
0.0
 31
0.0
  0
ENDBLK
  5
12C
100
AcDbEntity
  8
0
100
AcDbBlockEnd
  0
ENDSEC
  0
SECTION
  2
ENTITIES
  0
LINE
  5
12D
100
AcDbEntity
  8
0
100
AcDbLine
 10
214.203152
 20
162.783502
 30
0.0
 11
214.203152
 21
217.783502
 31
0.0
  0
LINE
  5
12E
100
AcDbEntity
  8
0
100
AcDbLine
 10
199.203152
 20
165.883502
 30
0.0
 11
199.203152
 21
214.683502
 31
0.0
  0
LINE
  5
12F
100
AcDbEntity
  8
0
100
AcDbLine
 10
216.403152
 20
162.783502
 30
0.0
 11
216.403152
 21
217.783502
 31
0.0
  0
LINE
  5
130
100
AcDbEntity
  8
0
100
AcDbLine
 10
213.673152
 20
210.937582
 30
0.0
 11
213.673152
 21
207.133492
 31
0.0
  0
LINE
  5
131
100
AcDbEntity
  8
0
100
AcDbLine
 10
213.373152
 20
210.813512
 30
0.0
 11
213.373152
 21
207.133492
 31
0.0
  0
CIRCLE
  5
132
100
AcDbEntity
  8
0
100
AcDbCircle
 10
206.703152
 20
209.783502
 30
0.0
 40
3.96875
  0
LINE
  5
133
100
AcDbEntity
  8
0
100
AcDbLine
 10
199.733152
 20
210.937582
 30
0.0
 11
199.733152
 21
207.133492
 31
0.0
  0
LINE
  5
134
100
AcDbEntity
  8
0
100
AcDbLine
 10
200.033152
 20
210.813512
 30
0.0
 11
200.033152
 21
207.133492
 31
0.0
  0
LINE
  5
135
100
AcDbEntity
  8
0
100
AcDbLine
 10
219.203152
 20
237.283502
 30
0.0
 11
219.203152
 21
143.283502
 31
0.0
  0
LINE
  5
136
100
AcDbEntity
  8
0
100
AcDbLine
 10
197.203152
 20
220.283502
 30
0.0
 11
197.203152
 21
160.283502
 31
0.0
  0
LINE
  5
139
100
AcDbEntity
  8
CENTER
  6
CENTER
 62
     1
100
AcDbLine
 10
192.342189
 20
190.283502
 30
0.0
 11
223.06452
 21
190.283502
 31
0.0
  0
LINE
  5
13A
100
AcDbEntity
  8
CENTER
  6
CENTER
 62
     1
100
AcDbLine
 10
220.203152
 20
151.283502
 30
0.0
 11
196.203152
 21
151.283502
 31
0.0
  0
LINE
  5
13B
100
AcDbEntity
  8
0
100
AcDbLine
 10
210.603152
 20
155.533502
 30
0.0
 11
199.203152
 21
155.533502
 31
0.0
  0
LINE
  5
13C
100
AcDbEntity
  8
0
 62
     3
100
AcDbLine
 10
210.603152
 20
156.283502
 30
0.0
 11
199.203152
 21
156.283502
 31
0.0
  0
LINE
  5
13D
100
AcDbEntity
  8
0
 62
     3
100
AcDbLine
 10
210.603152
 20
146.283502
 30
0.0
 11
199.203152
 21
146.283502
 31
0.0
  0
LINE
  5
13E
100
AcDbEntity
  8
0
100
AcDbLine
 10
210.603152
 20
147.033502
 30
0.0
 11
199.203152
 21
147.033502
 31
0.0
  0
LINE
  5
13F
100
AcDbEntity
  8
0
100
AcDbLine
 10
219.203152
 20
143.283502
 30
0.0
 11
199.203152
 21
143.283502
 31
0.0
  0
LINE
  5
140
100
AcDbEntity
  8
0
100
AcDbLine
 10
200.803152
 20
164.283502
 30
0.0
 11
214.203152
 21
164.283502
 31
0.0
  0
LINE
  5
141
100
AcDbEntity
  8
0
100
AcDbLine
 10
200.803152
 20
177.783502
 30
0.0
 11
212.603152
 21
177.783502
 31
0.0
  0
CIRCLE
  5
142
100
AcDbEntity
  8
0
100
AcDbCircle
 10
206.703152
 20
170.783502
 30
0.0
 40
3.96875
  0
LINE
  5
143
100
AcDbEntity
  8
0
100
AcDbLine
 10
200.803152
 20
202.783502
 30
0.0
 11
212.603152
 21
202.783502
 31
0.0
  0
LINE
  5
144
100
AcDbEntity
  8
0
100
AcDbLine
 10
199.203152
 20
143.283502
 30
0.0
 11
199.203152
 21
160.283502
 31
0.0
  0
ARC
  5
145
100
AcDbEntity
  8
0
100
AcDbCircle
 10
200.803152
 20
176.183502
 30
0.0
 40
1.6
100
AcDbArc
 50
90.0
 51
180.0
  0
LINE
  5
146
100
AcDbEntity
  8
0
100
AcDbLine
 10
197.203152
 20
160.283502
 30
0.0
 11
199.203152
 21
160.283502
 31
0.0
  0
LINE
  5
147
100
AcDbEntity
  8
0
100
AcDbLine
 10
200.833115
 20
168.529448
 30
0.0
 11
199.733152
 21
169.629422
 31
0.0
  0
LINE
  5
148
100
AcDbEntity
  8
0
100
AcDbLine
 10
201.133152
 20
168.653522
 30
0.0
 11
200.033152
 21
169.753492
 31
0.0
  0
LINE
  5
149
100
AcDbEntity
  8
0
100
AcDbLine
 10
199.203152
 20
167.783502
 30
0.0
 11
197.203152
 21
167.783502
 31
0.0
  0
ARC
  5
14A
100
AcDbEntity
  8
0
100
AcDbCircle
 10
199.403152
 20
167.033512
 30
0.0
 40
0.2
100
AcDbArc
 50
90.0
 51
180.0
  0
ARC
  5
14B
100
AcDbEntity
  8
0
100
AcDbCircle
 10
200.803152
 20
165.883502
 30
0.0
 40
1.6
100
AcDbArc
 50
180.0
 51
270.0
  0
ARC
  5
14C
100
AcDbEntity
  8
0
100
AcDbCircle
 10
200.212363
 20
167.427083
 30
0.0
 40
0.3
100
AcDbArc
 50
130.000801
 51
220.08953
  0
LINE
  5
14D
100
AcDbEntity
  8
0
100
AcDbLine
 10
199.982852
 20
167.233888
 30
0.0
 11
200.265986
 21
166.897531
 31
0.0
  0
LINE
  5
14E
100
AcDbEntity
  8
0
100
AcDbLine
 10
200.442149
 20
167.619553
 30
0.0
 11
200.213181
 21
167.426559
 31
0.0
  0
LINE
  5
14F
100
AcDbEntity
  8
0
100
AcDbLine
 10
200.213181
 20
167.426559
 30
0.0
 11
200.495008
 21
167.090756
 31
0.0
  0
LINE
  5
150
100
AcDbEntity
  8
0
100
AcDbLine
 10
199.403152
 20
167.233512
 30
0.0
 11
199.983169
 21
167.233512
 31
0.0
  0
ARC
  5
151
100
AcDbEntity
  8
0
100
AcDbCircle
 10
200.617565
 20
167.193613
 30
0.0
 40
0.16
100
AcDbArc
 50
220.005416
 51
357.62463
  0
ARC
  5
152
100
AcDbEntity
  8
0
100
AcDbCircle
 10
200.617904
 20
167.193763
 30
0.0
 40
0.46
100
AcDbArc
 50
220.08953
 51
355.0131
  0
LINE
  5
153
100
AcDbEntity
  8
0
100
AcDbLine
 10
201.133152
 20
167.806512
 30
0.0
 11
201.133152
 21
168.653522
 31
0.0
  0
ARC
  5
154
100
AcDbEntity
  8
0
100
AcDbCircle
 10
201.362412
 20
168.133502
 30
0.0
 40
0.2
100
AcDbArc
 50
90.0
 51
175.0131
  0
LINE
  5
155
100
AcDbEntity
  8
0
100
AcDbLine
 10
201.362412
 20
168.333502
 30
0.0
 11
203.580897
 21
168.333502
 31
0.0
  0
LINE
  5
156
100
AcDbEntity
  8
0
100
AcDbLine
 10
201.076163
 20
167.153776
 30
0.0
 11
201.163169
 21
168.150887
 31
0.0
  0
LINE
  5
157
100
AcDbEntity
  8
0
100
AcDbLine
 10
200.777427
 20
167.186982
 30
0.0
 11
200.833115
 21
168.529448
 31
0.0
  0
LINE
  5
158
100
AcDbEntity
  8
0
100
AcDbLine
 10
200.249133
 20
167.849564
 30
0.0
 11
200.442149
 21
167.619553
 31
0.0
  0
LINE
  5
159
100
AcDbEntity
  8
0
100
AcDbLine
 10
200.249133
 20
167.849564
 30
0.0
 11
200.019524
 21
167.656894
 31
0.0
  0
ARC
  5
15A
100
AcDbEntity
  8
0
100
AcDbCircle
 10
201.544194
 20
173.433512
 30
0.0
 40
0.2
100
AcDbArc
 50
199.969588
 51
270.0
  0
LINE
  5
15B
100
AcDbEntity
  8
0
100
AcDbLine
 10
200.653152
 20
173.433512
 30
0.0
 11
200.033152
 21
173.433512
 31
0.0
  0
LINE
  5
15C
100
AcDbEntity
  8
0
100
AcDbLine
 10
199.733152
 20
169.629422
 30
0.0
 11
199.733152
 21
173.433512
 31
0.0
  0
LINE
  5
15D
100
AcDbEntity
  8
0
100
AcDbLine
 10
200.033152
 20
169.753492
 30
0.0
 11
200.033152
 21
173.433512
 31
0.0
  0
LINE
  5
15E
100
AcDbEntity
  8
0
100
AcDbLine
 10
201.544194
 20
173.233512
 30
0.0
 11
203.580905
 21
173.233512
 31
0.0
  0
ARC
  5
15F
100
AcDbEntity
  8
0
100
AcDbCircle
 10
199.403152
 20
174.233522
 30
0.0
 40
0.2
100
AcDbArc
 50
180.0
 51
270.0
  0
LINE
  5
160
100
AcDbEntity
  8
0
100
AcDbLine
 10
199.903102
 20
174.033522
 30
0.0
 11
200.277162
 21
174.407552
 31
0.0
  0
LINE
  5
161
100
AcDbEntity
  8
0
100
AcDbLine
 10
200.033152
 20
173.733512
 30
0.0
 11
200.653152
 21
173.733512
 31
0.0
  0
LINE
  5
162
100
AcDbEntity
  8
0
100
AcDbLine
 10
199.403152
 20
174.033522
 30
0.0
 11
199.903102
 21
174.033522
 31
0.0
  0
ARC
  5
163
100
AcDbEntity
  8
0
100
AcDbCircle
 10
200.701152
 20
173.983512
 30
0.0
 40
0.599648
100
AcDbArc
 50
87.172109
 51
134.997702
  0
ARC
  5
164
100
AcDbEntity
  8
0
100
AcDbCircle
 10
200.703152
 20
174.283522
 30
0.0
 40
0.300178
100
AcDbArc
 50
19.969588
 51
94.508609
  0
LINE
  5
165
100
AcDbEntity
  8
0
100
AcDbLine
 10
200.985142
 20
174.386422
 30
0.0
 11
201.35622
 21
173.365207
 31
0.0
  0
ARC
  5
166
100
AcDbEntity
  8
0
100
AcDbCircle
 10
200.033152
 20
173.433512
 30
0.0
 40
0.3
100
AcDbArc
 50
90.0
 51
180.0
  0
LINE
  5
167
100
AcDbEntity
  8
0
100
AcDbLine
 10
200.653152
 20
173.733512
 30
0.0
 11
200.653152
 21
173.433512
 31
0.0
  0
LINE
  5
168
100
AcDbEntity
  8
0
100
AcDbLine
 10
200.985142
 20
206.180582
 30
0.0
 11
201.35622
 21
207.201796
 31
0.0
  0
ARC
  5
169
100
AcDbEntity
  8
0
100
AcDbCircle
 10
201.544194
 20
207.133492
 30
0.0
 40
0.2
100
AcDbArc
 50
90.0
 51
160.030412
  0
LINE
  5
16A
100
AcDbEntity
  8
0
100
AcDbLine
 10
199.903102
 20
206.533482
 30
0.0
 11
200.277162
 21
206.159452
 31
0.0
  0
ARC
  5
16B
100
AcDbEntity
  8
0
100
AcDbCircle
 10
200.033152
 20
207.133492
 30
0.0
 40
0.3
100
AcDbArc
 50
180.0
 51
270.0
  0
LINE
  5
16C
100
AcDbEntity
  8
0
100
AcDbLine
 10
200.653152
 20
207.133492
 30
0.0
 11
200.033152
 21
207.133492
 31
0.0
  0
LINE
  5
16D
100
AcDbEntity
  8
0
100
AcDbLine
 10
200.653152
 20
206.833492
 30
0.0
 11
200.653152
 21
207.133492
 31
0.0
  0
LINE
  5
16E
100
AcDbEntity
  8
0
100
AcDbLine
 10
200.033152
 20
206.833492
 30
0.0
 11
200.653152
 21
206.833492
 31
0.0
  0
ARC
  5
16F
100
AcDbEntity
  8
0
100
AcDbCircle
 10
199.403152
 20
206.333482
 30
0.0
 40
0.2
100
AcDbArc
 50
90.0
 51
180.0
  0
LINE
  5
170
100
AcDbEntity
  8
0
100
AcDbLine
 10
199.403152
 20
206.533482
 30
0.0
 11
199.903102
 21
206.533482
 31
0.0
  0
ARC
  5
171
100
AcDbEntity
  8
0
100
AcDbCircle
 10
200.803152
 20
204.383502
 30
0.0
 40
1.6
100
AcDbArc
 50
180.0
 51
270.0
  0
ARC
  5
172
100
AcDbEntity
  8
0
100
AcDbCircle
 10
200.701152
 20
206.583492
 30
0.0
 40
0.599648
100
AcDbArc
 50
225.002298
 51
272.827891
  0
ARC
  5
173
100
AcDbEntity
  8
0
100
AcDbCircle
 10
200.703152
 20
206.283482
 30
0.0
 40
0.300178
100
AcDbArc
 50
265.491391
 51
340.030412
  0
LINE
  5
174
100
AcDbEntity
  8
0
100
AcDbLine
 10
201.544194
 20
207.333492
 30
0.0
 11
203.580905
 21
207.333492
 31
0.0
  0
LINE
  5
175
100
AcDbEntity
  8
0
100
AcDbLine
 10
210.603152
 20
144.283502
 30
0.0
 11
210.603152
 21
158.283502
 31
0.0
  0
LINE
  5
176
100
AcDbEntity
  8
0
100
AcDbLine
 10
219.203152
 20
144.283502
 30
0.0
 11
210.603152
 21
144.283502
 31
0.0
  0
ARC
  5
177
100
AcDbEntity
  8
0
100
AcDbCircle
 10
212.603152
 20
176.183502
 30
0.0
 40
1.6
100
AcDbArc
 50
0.0
 51
90.0
  0
LINE
  5
178
100
AcDbEntity
  8
0
100
AcDbLine
 10
219.203152
 20
158.283502
 30
0.0
 11
210.603152
 21
158.283502
 31
0.0
  0
LINE
  5
179
100
AcDbEntity
  8
0
100
AcDbLine
 10
216.403152
 20
162.783502
 30
0.0
 11
214.203152
 21
162.783502
 31
0.0
  0
LINE
  5
17A
100
AcDbEntity
  8
0
100
AcDbLine
 10
216.403152
 20
167.883502
 30
0.0
 11
214.203152
 21
167.883502
 31
0.0
  0
LINE
  5
17B
100
AcDbEntity
  8
0
100
AcDbLine
 10
212.573188
 20
168.529448
 30
0.0
 11
213.673152
 21
169.629422
 31
0.0
  0
LINE
  5
17C
100
AcDbEntity
  8
0
100
AcDbLine
 10
212.273152
 20
168.653522
 30
0.0
 11
213.373152
 21
169.753492
 31
0.0
  0
LINE
  5
17D
100
AcDbEntity
  8
0
100
AcDbLine
 10
212.043892
 20
168.333502
 30
0.0
 11
209.825407
 21
168.333502
 31
0.0
  0
LINE
  5
17E
100
AcDbEntity
  8
0
100
AcDbLine
 10
213.423452
 20
167.233888
 30
0.0
 11
213.140318
 21
166.897531
 31
0.0
  0
ARC
  5
17F
100
AcDbEntity
  8
0
100
AcDbCircle
 10
213.19394
 20
167.427083
 30
0.0
 40
0.3
100
AcDbArc
 50
319.91047
 51
49.999199
  0
LINE
  5
180
100
AcDbEntity
  8
0
100
AcDbLine
 10
212.964154
 20
167.619553
 30
0.0
 11
213.193123
 21
167.426559
 31
0.0
  0
LINE
  5
181
100
AcDbEntity
  8
0
100
AcDbLine
 10
214.003152
 20
167.233512
 30
0.0
 11
213.423135
 21
167.233512
 31
0.0
  0
ARC
  5
182
100
AcDbEntity
  8
0
100
AcDbCircle
 10
212.788739
 20
167.193613
 30
0.0
 40
0.16
100
AcDbArc
 50
182.37537
 51
319.994584
  0
ARC
  5
183
100
AcDbEntity
  8
0
100
AcDbCircle
 10
212.7884
 20
167.193763
 30
0.0
 40
0.46
100
AcDbArc
 50
184.9869
 51
319.91047
  0
LINE
  5
184
100
AcDbEntity
  8
0
100
AcDbLine
 10
213.193123
 20
167.426559
 30
0.0
 11
212.911296
 21
167.090756
 31
0.0
  0
ARC
  5
185
100
AcDbEntity
  8
0
100
AcDbCircle
 10
212.043892
 20
168.133502
 30
0.0
 40
0.2
100
AcDbArc
 50
4.9869
 51
90.0
  0
LINE
  5
186
100
AcDbEntity
  8
0
100
AcDbLine
 10
212.273152
 20
167.806512
 30
0.0
 11
212.273152
 21
168.653522
 31
0.0
  0
LINE
  5
187
100
AcDbEntity
  8
0
100
AcDbLine
 10
213.157171
 20
167.849564
 30
0.0
 11
213.38678
 21
167.656894
 31
0.0
  0
LINE
  5
188
100
AcDbEntity
  8
0
100
AcDbLine
 10
213.157171
 20
167.849564
 30
0.0
 11
212.964154
 21
167.619553
 31
0.0
  0
LINE
  5
189
100
AcDbEntity
  8
0
100
AcDbLine
 10
212.330141
 20
167.153776
 30
0.0
 11
212.243135
 21
168.150887
 31
0.0
  0
LINE
  5
18A
100
AcDbEntity
  8
0
100
AcDbLine
 10
212.628876
 20
167.186982
 30
0.0
 11
212.573188
 21
168.529448
 31
0.0
  0
ARC
  5
18B
100
AcDbEntity
  8
0
100
AcDbCircle
 10
214.003152
 20
167.033512
 30
0.0
 40
0.2
100
AcDbArc
 50
0.0
 51
90.0
  0
ARC
  5
18C
100
AcDbEntity
  8
0
100
AcDbCircle
 10
212.603152
 20
165.883502
 30
0.0
 40
1.6
100
AcDbArc
 50
270.0
 51
0.0
  0
LINE
  5
18D
100
AcDbEntity
  8
0
100
AcDbLine
 10
211.862109
 20
173.233512
 30
0.0
 11
209.825399
 21
173.233512
 31
0.0
  0
LINE
  5
18E
100
AcDbEntity
  8
0
100
AcDbLine
 10
213.673152
 20
169.629422
 30
0.0
 11
213.673152
 21
173.433512
 31
0.0
  0
LINE
  5
18F
100
AcDbEntity
  8
0
100
AcDbLine
 10
213.373152
 20
169.753492
 30
0.0
 11
213.373152
 21
173.433512
 31
0.0
  0
ARC
  5
190
100
AcDbEntity
  8
0
100
AcDbCircle
 10
211.862109
 20
173.433512
 30
0.0
 40
0.2
100
AcDbArc
 50
270.0
 51
340.030412
  0
LINE
  5
191
100
AcDbEntity
  8
0
100
AcDbLine
 10
212.753152
 20
173.433512
 30
0.0
 11
213.373152
 21
173.433512
 31
0.0
  0
LINE
  5
192
100
AcDbEntity
  8
0
100
AcDbLine
 10
213.503202
 20
174.033522
 30
0.0
 11
213.129142
 21
174.407552
 31
0.0
  0
LINE
  5
193
100
AcDbEntity
  8
0
100
AcDbLine
 10
214.003152
 20
174.033522
 30
0.0
 11
213.503202
 21
174.033522
 31
0.0
  0
LINE
  5
194
100
AcDbEntity
  8
0
100
AcDbLine
 10
213.373152
 20
173.733512
 30
0.0
 11
212.753152
 21
173.733512
 31
0.0
  0
ARC
  5
195
100
AcDbEntity
  8
0
100
AcDbCircle
 10
212.703152
 20
174.283522
 30
0.0
 40
0.300178
100
AcDbArc
 50
85.491391
 51
160.030412
  0
ARC
  5
196
100
AcDbEntity
  8
0
100
AcDbCircle
 10
212.705152
 20
173.983512
 30
0.0
 40
0.599648
100
AcDbArc
 50
45.002298
 51
92.827891
  0
ARC
  5
197
100
AcDbEntity
  8
0
100
AcDbCircle
 10
213.373152
 20
173.433512
 30
0.0
 40
0.3
100
AcDbArc
 50
0.0
 51
90.0
  0
LINE
  5
198
100
AcDbEntity
  8
0
100
AcDbLine
 10
212.421162
 20
174.386422
 30
0.0
 11
212.050084
 21
173.365207
 31
0.0
  0
LINE
  5
199
100
AcDbEntity
  8
0
100
AcDbLine
 10
212.753152
 20
173.733512
 30
0.0
 11
212.753152
 21
173.433512
 31
0.0
  0
ARC
  5
19A
100
AcDbEntity
  8
0
100
AcDbCircle
 10
214.003152
 20
174.233522
 30
0.0
 40
0.2
100
AcDbArc
 50
270.0
 51
0.0
  0
LINE
  5
19B
100
AcDbEntity
  8
0
100
AcDbLine
 10
219.203152
 20
164.283502
 30
0.0
 11
216.403152
 21
164.283502
 31
0.0
  0
LINE
  5
19C
100
AcDbEntity
  8
0
100
AcDbLine
 10
211.862109
 20
207.333492
 30
0.0
 11
209.825399
 21
207.333492
 31
0.0
  0
ARC
  5
19D
100
AcDbEntity
  8
0
100
AcDbCircle
 10
214.003152
 20
206.333482
 30
0.0
 40
0.2
100
AcDbArc
 50
0.0
 51
90.0
  0
ARC
  5
19E
100
AcDbEntity
  8
0
100
AcDbCircle
 10
213.373152
 20
207.133492
 30
0.0
 40
0.3
100
AcDbArc
 50
270.0
 51
0.0
  0
LINE
  5
19F
100
AcDbEntity
  8
0
100
AcDbLine
 10
213.503202
 20
206.533482
 30
0.0
 11
213.129142
 21
206.159452
 31
0.0
  0
LINE
  5
1A0
100
AcDbEntity
  8
0
100
AcDbLine
 10
214.003152
 20
206.533482
 30
0.0
 11
213.503202
 21
206.533482
 31
0.0
  0
LINE
  5
1A1
100
AcDbEntity
  8
0
100
AcDbLine
 10
212.421162
 20
206.180582
 30
0.0
 11
212.050084
 21
207.201796
 31
0.0
  0
LINE
  5
1A2
100
AcDbEntity
  8
0
100
AcDbLine
 10
212.753152
 20
206.833492
 30
0.0
 11
212.753152
 21
207.133492
 31
0.0
  0
ARC
  5
1A3
100
AcDbEntity
  8
0
100
AcDbCircle
 10
211.862109
 20
207.133492
 30
0.0
 40
0.2
100
AcDbArc
 50
19.969588
 51
90.0
  0
LINE
  5
1A4
100
AcDbEntity
  8
0
100
AcDbLine
 10
213.373152
 20
206.833492
 30
0.0
 11
212.753152
 21
206.833492
 31
0.0
  0
LINE
  5
1A5
100
AcDbEntity
  8
0
100
AcDbLine
 10
212.753152
 20
207.133492
 30
0.0
 11
213.373152
 21
207.133492
 31
0.0
  0
ARC
  5
1A6
100
AcDbEntity
  8
0
100
AcDbCircle
 10
212.603152
 20
204.383502
 30
0.0
 40
1.6
100
AcDbArc
 50
270.0
 51
0.0
  0
ARC
  5
1A7
100
AcDbEntity
  8
0
100
AcDbCircle
 10
212.703152
 20
206.283482
 30
0.0
 40
0.300178
100
AcDbArc
 50
199.969588
 51
274.508609
  0
ARC
  5
1A8
100
AcDbEntity
  8
0
100
AcDbCircle
 10
212.705152
 20
206.583492
 30
0.0
 40
0.599648
100
AcDbArc
 50
267.172109
 51
314.997702
  0
LINE
  5
1A9
100
AcDbEntity
  8
CENTER
  6
CENTER
 62
     1
100
AcDbLine
 10
220.203152
 20
229.283502
 30
0.0
 11
196.203152
 21
229.283502
 31
0.0
  0
LINE
  5
1AA
100
AcDbEntity
  8
0
100
AcDbLine
 10
200.803152
 20
216.283502
 30
0.0
 11
214.203152
 21
216.283502
 31
0.0
  0
LINE
  5
1AB
100
AcDbEntity
  8
0
100
AcDbLine
 10
210.603152
 20
225.033502
 30
0.0
 11
199.203152
 21
225.033502
 31
0.0
  0
LINE
  5
1AC
100
AcDbEntity
  8
0
 62
     3
100
AcDbLine
 10
210.603152
 20
224.283502
 30
0.0
 11
199.203152
 21
224.283502
 31
0.0
  0
LINE
  5
1AD
100
AcDbEntity
  8
0
 62
     3
100
AcDbLine
 10
210.603152
 20
234.283502
 30
0.0
 11
199.203152
 21
234.283502
 31
0.0
  0
LINE
  5
1AE
100
AcDbEntity
  8
0
100
AcDbLine
 10
210.603152
 20
233.533502
 30
0.0
 11
199.203152
 21
233.533502
 31
0.0
  0
LINE
  5
1AF
100
AcDbEntity
  8
0
100
AcDbLine
 10
219.203152
 20
237.283502
 30
0.0
 11
199.203152
 21
237.283502
 31
0.0
  0
LINE
  5
1B0
100
AcDbEntity
  8
0
100
AcDbLine
 10
199.203152
 20
237.283502
 30
0.0
 11
199.203152
 21
220.283502
 31
0.0
  0
LINE
  5
1B1
100
AcDbEntity
  8
0
100
AcDbLine
 10
199.203152
 20
212.783502
 30
0.0
 11
197.203152
 21
212.783502
 31
0.0
  0
LINE
  5
1B2
100
AcDbEntity
  8
0
100
AcDbLine
 10
201.076163
 20
213.413227
 30
0.0
 11
201.163169
 21
212.416116
 31
0.0
  0
LINE
  5
1B3
100
AcDbEntity
  8
0
100
AcDbLine
 10
201.133152
 20
212.760492
 30
0.0
 11
201.133152
 21
211.913482
 31
0.0
  0
LINE
  5
1B4
100
AcDbEntity
  8
0
100
AcDbLine
 10
200.777427
 20
213.380022
 30
0.0
 11
200.833115
 21
212.037555
 31
0.0
  0
ARC
  5
1B5
100
AcDbEntity
  8
0
100
AcDbCircle
 10
201.362412
 20
212.433502
 30
0.0
 40
0.2
100
AcDbArc
 50
184.9869
 51
270.0
  0
ARC
  5
1B6
100
AcDbEntity
  8
0
100
AcDbCircle
 10
200.212363
 20
213.13992
 30
0.0
 40
0.3
100
AcDbArc
 50
139.91047
 51
229.999199
  0
LINE
  5
1B7
100
AcDbEntity
  8
0
100
AcDbLine
 10
199.982852
 20
213.333115
 30
0.0
 11
200.265986
 21
213.669473
 31
0.0
  0
LINE
  5
1B8
100
AcDbEntity
  8
0
100
AcDbLine
 10
200.249133
 20
212.717439
 30
0.0
 11
200.442149
 21
212.947451
 31
0.0
  0
LINE
  5
1B9
100
AcDbEntity
  8
0
100
AcDbLine
 10
200.442149
 20
212.947451
 30
0.0
 11
200.213181
 21
213.140444
 31
0.0
  0
LINE
  5
1BA
100
AcDbEntity
  8
0
100
AcDbLine
 10
200.249133
 20
212.717439
 30
0.0
 11
200.019524
 21
212.910109
 31
0.0
  0
LINE
  5
1BB
100
AcDbEntity
  8
0
100
AcDbLine
 10
200.213181
 20
213.140444
 30
0.0
 11
200.495008
 21
213.476248
 31
0.0
  0
ARC
  5
1BC
100
AcDbEntity
  8
0
100
AcDbCircle
 10
199.403152
 20
213.533492
 30
0.0
 40
0.2
100
AcDbArc
 50
180.0
 51
270.0
  0
LINE
  5
1BD
100
AcDbEntity
  8
0
100
AcDbLine
 10
199.403152
 20
213.333492
 30
0.0
 11
199.983169
 21
213.333492
 31
0.0
  0
ARC
  5
1BE
100
AcDbEntity
  8
0
100
AcDbCircle
 10
200.803152
 20
214.683502
 30
0.0
 40
1.6
100
AcDbArc
 50
90.0
 51
180.0
  0
ARC
  5
1BF
100
AcDbEntity
  8
0
100
AcDbCircle
 10
200.617565
 20
213.37339
 30
0.0
 40
0.16
100
AcDbArc
 50
2.37537
 51
139.994584
  0
ARC
  5
1C0
100
AcDbEntity
  8
0
100
AcDbCircle
 10
200.617904
 20
213.37324
 30
0.0
 40
0.46
100
AcDbArc
 50
4.9869
 51
139.91047
  0
LINE
  5
1C1
100
AcDbEntity
  8
0
100
AcDbLine
 10
200.833115
 20
212.037555
 30
0.0
 11
199.733152
 21
210.937582
 31
0.0
  0
LINE
  5
1C2
100
AcDbEntity
  8
0
100
AcDbLine
 10
201.133152
 20
211.913482
 30
0.0
 11
200.033152
 21
210.813512
 31
0.0
  0
LINE
  5
1C3
100
AcDbEntity
  8
0
100
AcDbLine
 10
201.362412
 20
212.233502
 30
0.0
 11
203.580897
 21
212.233502
 31
0.0
  0
LINE
  5
1C4
100
AcDbEntity
  8
0
100
AcDbLine
 10
197.203152
 20
220.283502
 30
0.0
 11
199.203152
 21
220.283502
 31
0.0
  0
LINE
  5
1C5
100
AcDbEntity
  8
0
100
AcDbLine
 10
210.603152
 20
236.283502
 30
0.0
 11
210.603152
 21
222.283502
 31
0.0
  0
LINE
  5
1C6
100
AcDbEntity
  8
0
100
AcDbLine
 10
216.403152
 20
212.683502
 30
0.0
 11
214.203152
 21
212.683502
 31
0.0
  0
LINE
  5
1C7
100
AcDbEntity
  8
0
100
AcDbLine
 10
216.403152
 20
217.783502
 30
0.0
 11
214.203152
 21
217.783502
 31
0.0
  0
LINE
  5
1C8
100
AcDbEntity
  8
0
100
AcDbLine
 10
219.203152
 20
222.283502
 30
0.0
 11
210.603152
 21
222.283502
 31
0.0
  0
LINE
  5
1C9
100
AcDbEntity
  8
0
100
AcDbLine
 10
212.043892
 20
212.233502
 30
0.0
 11
209.825407
 21
212.233502
 31
0.0
  0
ARC
  5
1CA
100
AcDbEntity
  8
0
100
AcDbCircle
 10
214.003152
 20
213.533492
 30
0.0
 40
0.2
100
AcDbArc
 50
270.0
 51
0.0
  0
LINE
  5
1CB
100
AcDbEntity
  8
0
100
AcDbLine
 10
213.423452
 20
213.333115
 30
0.0
 11
213.140318
 21
213.669473
 31
0.0
  0
ARC
  5
1CC
100
AcDbEntity
  8
0
100
AcDbCircle
 10
213.19394
 20
213.13992
 30
0.0
 40
0.3
100
AcDbArc
 50
310.000801
 51
40.08953
  0
LINE
  5
1CD
100
AcDbEntity
  8
0
100
AcDbLine
 10
213.157171
 20
212.717439
 30
0.0
 11
213.38678
 21
212.910109
 31
0.0
  0
LINE
  5
1CE
100
AcDbEntity
  8
0
100
AcDbLine
 10
212.964154
 20
212.947451
 30
0.0
 11
213.193123
 21
213.140444
 31
0.0
  0
LINE
  5
1CF
100
AcDbEntity
  8
0
100
AcDbLine
 10
213.157171
 20
212.717439
 30
0.0
 11
212.964154
 21
212.947451
 31
0.0
  0
LINE
  5
1D0
100
AcDbEntity
  8
0
100
AcDbLine
 10
214.003152
 20
213.333492
 30
0.0
 11
213.423135
 21
213.333492
 31
0.0
  0
LINE
  5
1D1
100
AcDbEntity
  8
0
100
AcDbLine
 10
212.330141
 20
213.413227
 30
0.0
 11
212.243135
 21
212.416116
 31
0.0
  0
ARC
  5
1D2
100
AcDbEntity
  8
0
100
AcDbCircle
 10
212.788739
 20
213.37339
 30
0.0
 40
0.16
100
AcDbArc
 50
40.005416
 51
177.62463
  0
ARC
  5
1D3
100
AcDbEntity
  8
0
100
AcDbCircle
 10
212.043892
 20
212.433502
 30
0.0
 40
0.2
100
AcDbArc
 50
270.0
 51
355.0131
  0
LINE
  5
1D4
100
AcDbEntity
  8
0
100
AcDbLine
 10
212.628876
 20
213.380022
 30
0.0
 11
212.573188
 21
212.037555
 31
0.0
  0
LINE
  5
1D5
100
AcDbEntity
  8
0
100
AcDbLine
 10
212.273152
 20
212.760492
 30
0.0
 11
212.273152
 21
211.913482
 31
0.0
  0
ARC
  5
1D6
100
AcDbEntity
  8
0
100
AcDbCircle
 10
212.603152
 20
214.683502
 30
0.0
 40
1.6
100
AcDbArc
 50
0.0
 51
90.0
  0
ARC
  5
1D7
100
AcDbEntity
  8
0
100
AcDbCircle
 10
212.7884
 20
213.37324
 30
0.0
 40
0.46
100
AcDbArc
 50
40.08953
 51
175.0131
  0
LINE
  5
1D8
100
AcDbEntity
  8
0
100
AcDbLine
 10
213.193123
 20
213.140444
 30
0.0
 11
212.911296
 21
213.476248
 31
0.0
  0
LINE
  5
1D9
100
AcDbEntity
  8
0
100
AcDbLine
 10
212.573188
 20
212.037555
 30
0.0
 11
213.673152
 21
210.937582
 31
0.0
  0
LINE
  5
1DA
100
AcDbEntity
  8
0
100
AcDbLine
 10
212.273152
 20
211.913482
 30
0.0
 11
213.373152
 21
210.813512
 31
0.0
  0
LINE
  5
1DB
100
AcDbEntity
  8
0
100
AcDbLine
 10
219.203152
 20
216.283502
 30
0.0
 11
216.403152
 21
216.283502
 31
0.0
  0
LINE
  5
1DC
100
AcDbEntity
  8
0
100
AcDbLine
 10
219.203152
 20
236.283502
 30
0.0
 11
210.603152
 21
236.283502
 31
0.0
  0
LINE
  5
1DD
100
AcDbEntity
  8
0
100
AcDbLine
 10
209.203152
 20
237.283502
 30
0.0
 11
209.203252
 21
237.283502
 31
0.0
  0
LINE
  5
1DE
100
AcDbEntity
  8
0
100
AcDbLine
 10
214.203152
 20
237.283502
 30
0.0
 11
214.203152
 21
237.283602
 31
0.0
  0
LINE
  5
1DF
100
AcDbEntity
  8
CENTER
  6
CENTER
 62
     1
100
AcDbLine
 10
358.373158
 20
245.314362
 30
0.0
 11
358.373158
 21
135.252641
 31
0.0
  0
CIRCLE
  5
1E0
100
AcDbEntity
  8
CENTER
  6
CENTER
 62
     1
100
AcDbCircle
 10
358.373158
 20
190.283502
 30
0.0
 40
39.0
  0
CIRCLE
  5
1E1
100
AcDbEntity
  8
0
  6
DASHED
 62
     3
100
AcDbCircle
 10
358.373158
 20
190.283502
 30
0.0
 40
30.0
  0
CIRCLE
  5
1E2
100
AcDbEntity
  8
0
100
AcDbCircle
 10
358.373158
 20
190.283502
 30
0.0
 40
47.0
  0
CIRCLE
  5
1E3
100
AcDbEntity
  8
0
100
AcDbCircle
 10
358.373158
 20
190.283502
 30
0.0
 40
26.0
  0
LINE
  5
1E4
100
AcDbEntity
  8
CENTER
  6
CENTER
 62
     1
100
AcDbLine
 10
303.342297
 20
190.283502
 30
0.0
 11
413.404018
 21
190.283502
 31
0.0
  0
CIRCLE
  5
1E5
100
AcDbEntity
  8
0
100
AcDbCircle
 10
358.373158
 20
151.283502
 30
0.0
 40
7.0
  0
CIRCLE
  5
1E6
100
AcDbEntity
  8
0
100
AcDbCircle
 10
319.373158
 20
190.283502
 30
0.0
 40
7.0
  0
CIRCLE
  5
1E7
100
AcDbEntity
  8
0
 62
     3
100
AcDbCircle
 10
319.373158
 20
190.283502
 30
0.0
 40
5.0
  0
CIRCLE
  5
1E8
100
AcDbEntity
  8
0
100
AcDbCircle
 10
319.373158
 20
190.283502
 30
0.0
 40
4.25
  0
CIRCLE
  5
1E9
100
AcDbEntity
  8
0
 62
     3
100
AcDbCircle
 10
358.373158
 20
151.283502
 30
0.0
 40
5.0
  0
CIRCLE
  5
1EA
100
AcDbEntity
  8
0
100
AcDbCircle
 10
358.373158
 20
151.283502
 30
0.0
 40
4.25
  0
CIRCLE
  5
1EB
100
AcDbEntity
  8
0
100
AcDbCircle
 10
358.373158
 20
190.283502
 30
0.0
 40
12.5
  0
CIRCLE
  5
1EC
100
AcDbEntity
  8
0
100
AcDbCircle
 10
397.373158
 20
190.283502
 30
0.0
 40
7.0
  0
CIRCLE
  5
1ED
100
AcDbEntity
  8
0
 62
     3
100
AcDbCircle
 10
397.373158
 20
190.283502
 30
0.0
 40
5.0
  0
CIRCLE
  5
1EE
100
AcDbEntity
  8
0
100
AcDbCircle
 10
397.373158
 20
190.283502
 30
0.0
 40
4.25
  0
CIRCLE
  5
1EF
100
AcDbEntity
  8
0
100
AcDbCircle
 10
358.373158
 20
229.283502
 30
0.0
 40
7.0
  0
CIRCLE
  5
1F0
100
AcDbEntity
  8
0
 62
     3
100
AcDbCircle
 10
358.373158
 20
229.283502
 30
0.0
 40
5.0
  0
CIRCLE
  5
1F1
100
AcDbEntity
  8
0
100
AcDbCircle
 10
358.373158
 20
229.283502
 30
0.0
 40
4.25
  0
ENDSEC
  0
SECTION
  2
OBJECTS
  0
DICTIONARY
  5
FE
100
AcDbDictionary
  3
ACAD_GROUP
350
FF
  3
ACAD_LAYOUT
350
10B
  3
ACAD_MLINESTYLE
350
108
  3
ACAD_PLOTSETTINGS
350
10A
  3
ACAD_PLOTSTYLENAME
350
100
  3
ACDBHEADERROUNDTRIPXREC
350
1FE
  3
AcDbVariableDictionary
350
227
  0
DICTIONARY
  5
1FC
100
AcDbDictionary
280
     1
  3
ACAD_XREC_ROUNDTRIP
360
1FD
  0
DICTIONARY
  5
1F8
100
AcDbDictionary
280
     1
  3
ACAD_XREC_ROUNDTRIP
360
1F9
  0
DICTIONARY
  5
1FA
100
AcDbDictionary
280
     1
  3
ACAD_XREC_ROUNDTRIP
360
1FB
  0
DICTIONARY
  5
225
100
AcDbDictionary
280
     1
  3
ACAD_XREC_ROUNDTRIP
360
226
  0
DICTIONARY
  5
1F4
100
AcDbDictionary
280
     1
  3
ACAD_LAYOUTSELFREF
360
224
  3
ACAD_XREC_ROUNDTRIP
360
1F5
  0
DICTIONARY
  5
1F6
100
AcDbDictionary
280
     1
  3
ACAD_LAYOUTSELFREF
360
223
  3
ACAD_XREC_ROUNDTRIP
360
1F7
  0
DICTIONARY
  5
FF
102
{ACAD_REACTORS
330
FE
102
}
100
AcDbDictionary
  0
DICTIONARY
  5
10B
102
{ACAD_XDICTIONARY
360
221
102
}
102
{ACAD_REACTORS
330
FE
102
}
100
AcDbDictionary
  3
MODEL
350
113
  3
ﾚｲｱｳﾄ1
350
10F
  0
DICTIONARY
  5
108
102
{ACAD_XDICTIONARY
360
21F
102
}
102
{ACAD_REACTORS
330
FE
102
}
100
AcDbDictionary
  3
STANDARD
350
109
  0
DICTIONARY
  5
10A
102
{ACAD_REACTORS
330
FE
102
}
100
AcDbDictionary
  0
ACAD_PROXY_OBJECT
  5
100
102
{ACAD_REACTORS
330
FE
102
}
100
AcDbProxyObject
 90
      499
 91
      500
 93
       86
310
405010041939BDC9B585B0
350
101
340
101
 94
        0
  0
DICTIONARY
  5
1FE
102
{ACAD_REACTORS
330
FE
102
}
100
AcDbDictionary
  3
CEPSNTYPE
350
208
  3
DIMSTYLEDATA
350
20C
  3
FINGERPRINTGUID
350
209
  3
HYPERLINKBASE
350
201
  3
INSUNITS
350
207
  3
LAYOUTDICT
350
203
  3
LWETCUNION
350
206
  3
PLOTSETDICT
350
204
  3
PLOTSTYLNAMDICT
350
205
  3
PSVPSCALE
350
20B
  3
PUCSBASE
350
20F
  3
PUCSORGBACK
350
215
  3
PUCSORGBOTTOM
350
211
  3
PUCSORGFRONT
350
214
  3
PUCSORGLEFT
350
212
  3
PUCSORGRIGHT
350
213
  3
PUCSORGTOP
350
210
  3
PUCSORTHOREF
350
20D
  3
PUCSORTHOVIEW
350
20E
  3
STYLESHEET
350
202
  3
TSTACKALIGN
350
1FF
  3
TSTACKSIZE
350
200
  3
UCSBASE
350
218
  3
UCSORGBACK
350
21E
  3
UCSORGBOTTOM
350
21A
  3
UCSORGFRONT
350
21D
  3
UCSORGLEFT
350
21B
  3
UCSORGRIGHT
350
21C
  3
UCSORGTOP
350
219
  3
UCSORTHOREF
350
216
  3
UCSORTHOVIEW
350
217
  3
VERSIONGUID
350
20A
  0
DICTIONARY
  5
227
102
{ACAD_REACTORS
330
FE
102
}
100
AcDbDictionary
  3
DIMASSOC
350
228
  0
XRECORD
  5
1FD
102
{ACAD_REACTORS
330
1FC
102
}
100
AcDbXrecord
102
EXTNAMES
  1
*ACTIVE
  2
*Active
102
UCS
 74
     0
 71
     0
 10
0.0
 20
0.0
 30
0.0
 10
1.0
 20
0.0
 30
0.0
 10
0.0
 20
1.0
 30
0.0
146
0.0
 79
     0
102
VIEW
281
     0
  0
XRECORD
  5
1F9
102
{ACAD_REACTORS
330
1F8
102
}
100
AcDbXrecord
102
EXTNAMES
  1
BYBLOCK
  2
ByBlock
  0
XRECORD
  5
1FB
102
{ACAD_REACTORS
330
1FA
102
}
100
AcDbXrecord
102
EXTNAMES
  1
BYLAYER
  2
ByLayer
  0
XRECORD
  5
226
102
{ACAD_REACTORS
330
225
102
}
100
AcDbXrecord
102
ACADR14ROUNDTRIP
1000
DSTYLE
1002
{
1070
   279
 70
     2
1002
}
  0
XRECORD
  5
224
102
{ACAD_REACTORS
330
1F4
102
}
100
AcDbXrecord
340
110
  0
XRECORD
  5
1F5
102
{ACAD_REACTORS
330
1F4
102
}
100
AcDbXrecord
102
EXTNAMES
  1
*MODEL_SPACE
  2
*Model_Space
  0
XRECORD
  5
223
102
{ACAD_REACTORS
330
1F6
102
}
100
AcDbXrecord
340
10C
  0
XRECORD
  5
1F7
102
{ACAD_REACTORS
330
1F6
102
}
100
AcDbXrecord
102
EXTNAMES
  1
*PAPER_SPACE
  2
*Paper_Space
  0
DICTIONARY
  5
221
100
AcDbDictionary
280
     1
  3
ACAD_XREC_ROUNDTRIP
360
222
  0
ACAD_PROXY_OBJECT
  5
113
102
{ACAD_REACTORS
330
10B
102
}
100
AcDbProxyObject
 90
      499
 91
      502
 93
      836
310
932433A5C50524F4752414D2046494C45535C4D4454365C706C6F74746572735C526F6C616E64204458592D313235302E7063332C01AAAAAAAAA5A69054D6F64656C901A800000000000000000000000000000000000000000000A1000000000000008902A6A6AAAA4
330
110
330
0
340
0
340
0
 94
        0
  0
ACAD_PROXY_OBJECT
  5
10F
102
{ACAD_REACTORS
330
10B
102
}
100
AcDbProxyObject
 90
      499
 91
      502
 93
     1244
310
932433A5C50524F4752414D2046494C45535C4D4454365C706C6F74746572735C526F6C616E64204458592D313235302E7063332C00AAAAAA416AA59106906DAB2B1B3C431406A800000000000000000000000000000000000000000101E900000000000241C902A6A6A10232D5E076BC5510408CB5781DAF154410232D5E0
310
76BC5510408CB5781DAF15C410232D5E076BC5710408CB5781DAF15C40
330
10C
330
0
340
0
340
0
 94
        0
  0
DICTIONARY
  5
21F
100
AcDbDictionary
280
     1
  3
ACAD_XREC_ROUNDTRIP
360
220
  0
MLINESTYLE
  5
109
102
{ACAD_REACTORS
330
108
102
}
100
AcDbMlineStyle
  2
STANDARD
 70
     0
  3

 62
   256
 51
90.0
 52
90.0
 71
     2
 49
0.5
 62
   256
  6
BYLAYER
 49
-0.5
 62
   256
  6
BYLAYER
  0
ACAD_PROXY_OBJECT
  5
101
102
{ACAD_REACTORS
330
100
102
}
100
AcDbProxyObject
 90
      499
 91
      501
 93
        0
 94
        0
  0
XRECORD
  5
208
102
{ACAD_REACTORS
330
1FE
102
}
100
AcDbXrecord
 90
        0
  0
XRECORD
  5
20C
102
{ACAD_REACTORS
330
1FE
102
}
100
AcDbXrecord
1000
DSTYLE
1002
{
1070
   341
340
127
1070
   342
340
121
1070
   343
340
127
1070
   344
340
127
1002
}
  0
XRECORD
  5
209
102
{ACAD_REACTORS
330
1FE
102
}
100
AcDbXrecord
  1
{9C1A9B15-2D34-471C-9F93-ACEE048CE568}
  0
XRECORD
  5
201
102
{ACAD_REACTORS
330
1FE
102
}
100
AcDbXrecord
  1

  0
XRECORD
  5
207
102
{ACAD_REACTORS
330
1FE
102
}
100
AcDbXrecord
 90
        0
  0
XRECORD
  5
203
102
{ACAD_REACTORS
330
1FE
102
}
100
AcDbXrecord
340
10B
  0
XRECORD
  5
206
102
{ACAD_REACTORS
330
1FE
102
}
100
AcDbXrecord
 90
    10781
  0
XRECORD
  5
204
102
{ACAD_REACTORS
330
1FE
102
}
100
AcDbXrecord
340
10A
  0
XRECORD
  5
205
102
{ACAD_REACTORS
330
1FE
102
}
100
AcDbXrecord
340
100
  0
XRECORD
  5
20B
102
{ACAD_REACTORS
330
1FE
102
}
100
AcDbXrecord
 40
0.0
  0
XRECORD
  5
20F
102
{ACAD_REACTORS
330
1FE
102
}
100
AcDbXrecord
340
0
  0
XRECORD
  5
215
102
{ACAD_REACTORS
330
1FE
102
}
100
AcDbXrecord
 10
0.0
 20
0.0
 30
0.0
  0
XRECORD
  5
211
102
{ACAD_REACTORS
330
1FE
102
}
100
AcDbXrecord
 10
0.0
 20
0.0
 30
0.0
  0
XRECORD
  5
214
102
{ACAD_REACTORS
330
1FE
102
}
100
AcDbXrecord
 10
0.0
 20
0.0
 30
0.0
  0
XRECORD
  5
212
102
{ACAD_REACTORS
330
1FE
102
}
100
AcDbXrecord
 10
0.0
 20
0.0
 30
0.0
  0
XRECORD
  5
213
102
{ACAD_REACTORS
330
1FE
102
}
100
AcDbXrecord
 10
0.0
 20
0.0
 30
0.0
  0
XRECORD
  5
210
102
{ACAD_REACTORS
330
1FE
102
}
100
AcDbXrecord
 10
0.0
 20
0.0
 30
0.0
  0
XRECORD
  5
20D
102
{ACAD_REACTORS
330
1FE
102
}
100
AcDbXrecord
340
0
  0
XRECORD
  5
20E
102
{ACAD_REACTORS
330
1FE
102
}
100
AcDbXrecord
 70
     0
  0
XRECORD
  5
202
102
{ACAD_REACTORS
330
1FE
102
}
100
AcDbXrecord
  1

  0
XRECORD
  5
1FF
102
{ACAD_REACTORS
330
1FE
102
}
100
AcDbXrecord
 90
        1
  0
XRECORD
  5
200
102
{ACAD_REACTORS
330
1FE
102
}
100
AcDbXrecord
 90
       70
  0
XRECORD
  5
218
102
{ACAD_REACTORS
330
1FE
102
}
100
AcDbXrecord
340
0
  0
XRECORD
  5
21E
102
{ACAD_REACTORS
330
1FE
102
}
100
AcDbXrecord
 10
0.0
 20
0.0
 30
0.0
  0
XRECORD
  5
21A
102
{ACAD_REACTORS
330
1FE
102
}
100
AcDbXrecord
 10
0.0
 20
0.0
 30
0.0
  0
XRECORD
  5
21D
102
{ACAD_REACTORS
330
1FE
102
}
100
AcDbXrecord
 10
0.0
 20
0.0
 30
0.0
  0
XRECORD
  5
21B
102
{ACAD_REACTORS
330
1FE
102
}
100
AcDbXrecord
 10
0.0
 20
0.0
 30
0.0
  0
XRECORD
  5
21C
102
{ACAD_REACTORS
330
1FE
102
}
100
AcDbXrecord
 10
0.0
 20
0.0
 30
0.0
  0
XRECORD
  5
219
102
{ACAD_REACTORS
330
1FE
102
}
100
AcDbXrecord
 10
0.0
 20
0.0
 30
0.0
  0
XRECORD
  5
216
102
{ACAD_REACTORS
330
1FE
102
}
100
AcDbXrecord
340
0
  0
XRECORD
  5
217
102
{ACAD_REACTORS
330
1FE
102
}
100
AcDbXrecord
 70
     0
  0
XRECORD
  5
20A
102
{ACAD_REACTORS
330
1FE
102
}
100
AcDbXrecord
  1
{384F595F-0FAD-4B0A-BD4A-2D8D3D5C6C25}
  0
DICTIONARYVAR
  5
228
102
{ACAD_REACTORS
330
227
102
}
100
DictionaryVariables
280
     0
  1
1
  0
XRECORD
  5
222
102
{ACAD_REACTORS
330
221
102
}
100
AcDbXrecord
102
EXTNAMES
  1
MODEL
  2
Model
  0
XRECORD
  5
220
102
{ACAD_REACTORS
330
21F
102
}
100
AcDbXrecord
102
EXTNAMES
  1
STANDARD
  2
Standard
  0
ENDSEC
  0
EOF
