  0
SECTION
  2
HEADER
  9
$ACADVER
  1
AC1014
  9
$ACADMAINTVER
 70
     0
  9
$DWGCODEPAGE
  3
ANSI_932
  9
$INSBASE
 10
0.0
 20
0.0
 30
0.0
  9
$EXTMIN
 10
48.5
 20
-8.5
 30
0.0
  9
$EXTMAX
 10
208.5
 20
108.5
 30
0.0
  9
$LIMMIN
 10
0.0
 20
0.0
  9
$LIMMAX
 10
420.0
 20
297.0
  9
$ORTHOMODE
 70
     1
  9
$REGENMODE
 70
     1
  9
$FILLMODE
 70
     1
  9
$QTEXTMODE
 70
     0
  9
$MIRRTEXT
 70
     1
  9
$DRAGMODE
 70
     2
  9
$LTSCALE
 40
0.25
  9
$OSMODE
 70
    37
  9
$ATTMODE
 70
     1
  9
$TEXTSIZE
 40
2.0
  9
$TRACEWID
 40
1.0
  9
$TEXTSTYLE
  7
STANDARD
  9
$CLAYER
  8
0
  9
$CELTYPE
  6
BYLAYER
  9
$CECOLOR
 62
   256
  9
$CELTSCALE
 40
1.0
  9
$DELOBJ
 70
     1
  9
$DISPSILH
 70
     0
  9
$DIMSCALE
 40
1.0
  9
$DIMASZ
 40
0.18
  9
$DIMEXO
 40
0.0625
  9
$DIMDLI
 40
0.38
  9
$DIMRND
 40
0.0
  9
$DIMDLE
 40
0.0
  9
$DIMEXE
 40
0.18
  9
$DIMTP
 40
0.0
  9
$DIMTM
 40
0.0
  9
$DIMTXT
 40
0.18
  9
$DIMCEN
 40
0.09
  9
$DIMTSZ
 40
0.0
  9
$DIMTOL
 70
     0
  9
$DIMLIM
 70
     0
  9
$DIMTIH
 70
     1
  9
$DIMTOH
 70
     1
  9
$DIMSE1
 70
     0
  9
$DIMSE2
 70
     0
  9
$DIMTAD
 70
     0
  9
$DIMZIN
 70
     0
  9
$DIMBLK
  1

  9
$DIMASO
 70
     1
  9
$DIMSHO
 70
     1
  9
$DIMPOST
  1

  9
$DIMAPOST
  1

  9
$DIMALT
 70
     0
  9
$DIMALTD
 70
     2
  9
$DIMALTF
 40
25.4
  9
$DIMLFAC
 40
1.0
  9
$DIMTOFL
 70
     0
  9
$DIMTVP
 40
0.0
  9
$DIMTIX
 70
     0
  9
$DIMSOXD
 70
     0
  9
$DIMSAH
 70
     0
  9
$DIMBLK1
  1

  9
$DIMBLK2
  1

  9
$DIMSTYLE
  2
STANDARD
  9
$DIMCLRD
 70
     0
  9
$DIMCLRE
 70
     0
  9
$DIMCLRT
 70
     0
  9
$DIMTFAC
 40
1.0
  9
$DIMGAP
 40
0.09
  9
$DIMJUST
 70
     0
  9
$DIMSD1
 70
     0
  9
$DIMSD2
 70
     0
  9
$DIMTOLJ
 70
     1
  9
$DIMTZIN
 70
     0
  9
$DIMALTZ
 70
     0
  9
$DIMALTTZ
 70
     0
  9
$DIMFIT
 70
     3
  9
$DIMUPT
 70
     0
  9
$DIMUNIT
 70
     2
  9
$DIMDEC
 70
     4
  9
$DIMTDEC
 70
     4
  9
$DIMALTU
 70
     2
  9
$DIMALTTD
 70
     2
  9
$DIMTXSTY
  7
STANDARD
  9
$DIMAUNIT
 70
     0
  9
$LUNITS
 70
     2
  9
$LUPREC
 70
     2
  9
$SKETCHINC
 40
1.0
  9
$FILLETRAD
 40
2.5
  9
$AUNITS
 70
     0
  9
$AUPREC
 70
     0
  9
$MENU
  1
.
  9
$ELEVATION
 40
0.0
  9
$PELEVATION
 40
0.0
  9
$THICKNESS
 40
0.0
  9
$LIMCHECK
 70
     0
  9
$BLIPMODE
 70
     0
  9
$CHAMFERA
 40
2.5
  9
$CHAMFERB
 40
2.5
  9
$CHAMFERC
 40
0.0
  9
$CHAMFERD
 40
0.0
  9
$SKPOLY
 70
     1
  9
$TDCREATE
 40
2452095.696970995
  9
$TDUPDATE
 40
2452821.731372916
  9
$TDINDWG
 40
0.0035223148
  9
$TDUSRTIMER
 40
0.0035223148
  9
$USRTIMER
 70
     1
  9
$ANGBASE
 50
0.0
  9
$ANGDIR
 70
     0
  9
$PDMODE
 70
     0
  9
$PDSIZE
 40
0.0
  9
$PLINEWID
 40
0.0
  9
$COORDS
 70
     1
  9
$SPLFRAME
 70
     0
  9
$SPLINETYPE
 70
     6
  9
$SPLINESEGS
 70
     8
  9
$ATTDIA
 70
     0
  9
$ATTREQ
 70
     1
  9
$HANDLING
 70
     1
  9
$HANDSEED
  5
4E3
  9
$SURFTAB1
 70
     6
  9
$SURFTAB2
 70
     6
  9
$SURFTYPE
 70
     6
  9
$SURFU
 70
     6
  9
$SURFV
 70
     6
  9
$UCSNAME
  2

  9
$UCSORG
 10
0.0
 20
0.0
 30
0.0
  9
$UCSXDIR
 10
1.0
 20
0.0
 30
0.0
  9
$UCSYDIR
 10
0.0
 20
1.0
 30
0.0
  9
$PUCSNAME
  2

  9
$PUCSORG
 10
0.0
 20
0.0
 30
0.0
  9
$PUCSXDIR
 10
1.0
 20
0.0
 30
0.0
  9
$PUCSYDIR
 10
0.0
 20
1.0
 30
0.0
  9
$USERI1
 70
     0
  9
$USERI2
 70
     0
  9
$USERI3
 70
     0
  9
$USERI4
 70
     0
  9
$USERI5
 70
     0
  9
$USERR1
 40
0.0
  9
$USERR2
 40
0.0
  9
$USERR3
 40
0.0
  9
$USERR4
 40
0.0
  9
$USERR5
 40
0.0
  9
$WORLDVIEW
 70
     1
  9
$SHADEDGE
 70
     3
  9
$SHADEDIF
 70
    70
  9
$TILEMODE
 70
     1
  9
$MAXACTVP
 70
    48
  9
$PINSBASE
 10
0.0
 20
0.0
 30
0.0
  9
$PLIMCHECK
 70
     0
  9
$PEXTMIN
 10
1.000000E+20
 20
1.000000E+20
 30
1.000000E+20
  9
$PEXTMAX
 10
-1.000000E+20
 20
-1.000000E+20
 30
-1.000000E+20
  9
$PLIMMIN
 10
0.0
 20
0.0
  9
$PLIMMAX
 10
420.0
 20
297.0
  9
$UNITMODE
 70
     0
  9
$VISRETAIN
 70
     1
  9
$PLINEGEN
 70
     0
  9
$PSLTSCALE
 70
     1
  9
$TREEDEPTH
 70
  3020
  9
$PICKSTYLE
 70
     1
  9
$CMLSTYLE
  2
STANDARD
  9
$CMLJUST
 70
     0
  9
$CMLSCALE
 40
1.0
  9
$PROXYGRAPHICS
 70
     1
  9
$MEASUREMENT
 70
     0
  0
ENDSEC
  0
SECTION
  2
CLASSES
  0
CLASS
  1
ACDBDICTIONARYWDFLT
  2
AcDbDictionaryWithDefault
  3
AutoCAD 2000
 90
        0
280
     0
281
     0
  0
CLASS
  1
ACDBPLACEHOLDER
  2
AcDbPlaceHolder
  3
AutoCAD 2000
 90
        0
280
     0
281
     0
  0
CLASS
  1
LAYOUT
  2
AcDbLayout
  3
AutoCAD 2000
 90
        0
280
     0
281
     0
  0
CLASS
  1
DICTIONARYVAR
  2
AcDbDictionaryVar
  3
"AutoCAD"
 90
        0
280
     0
281
     0
  0
CLASS
  1
LONG_TRANSACTION
  2
AcDbLongTransaction
  3
AutoCAD 2000
 90
        0
280
     0
281
     0
  0
CLASS
  1
LWPOLYLINE
  2
AcDbPolyline
  3
"AutoCAD"
 90
        0
280
     0
281
     1
  0
CLASS
  1
HATCH
  2
AcDbHatch
  3
"ACAD_SEDONA"
 90
        0
280
     0
281
     1
  0
CLASS
  1
XRECORD
  2
AcDbXrecord
  3
"<Built In>"
 90
        0
280
     0
281
     0
  0
ENDSEC
  0
SECTION
  2
TABLES
  0
TABLE
  2
VPORT
  5
385
100
AcDbSymbolTable
 70
     1
  0
VPORT
  5
4AB
102
{ACAD_XDICTIONARY
360
4B4
102
}
100
AcDbSymbolTableRecord
100
AcDbViewportTableRecord
  2
*ACTIVE
 70
     0
 10
0.0
 20
0.0
 11
1.0
 21
1.0
 12
117.799989
 22
50.00491
 13
0.0
 23
0.0
 14
1.0
 24
1.0
 15
10.0
 25
10.0
 16
0.0
 26
0.0
 36
1.0
 17
0.0
 27
0.0
 37
0.0
 40
142.309596
 41
1.530211
 42
50.0
 43
0.0
 44
0.0
 50
0.0
 51
0.0
 71
     0
 72
   100
 73
     1
 74
     1
 75
     0
 76
     0
 77
     0
 78
     0
  0
ENDTAB
  0
TABLE
  2
LTYPE
  5
382
100
AcDbSymbolTable
 70
     3
  0
LTYPE
  5
390
102
{ACAD_XDICTIONARY
360
4B0
102
}
100
AcDbSymbolTableRecord
100
AcDbLinetypeTableRecord
  2
BYBLOCK
 70
     0
  3

 72
    65
 73
     0
 40
0.0
  0
LTYPE
  5
391
102
{ACAD_XDICTIONARY
360
4B2
102
}
100
AcDbSymbolTableRecord
100
AcDbLinetypeTableRecord
  2
BYLAYER
 70
     0
  3

 72
    65
 73
     0
 40
0.0
  0
LTYPE
  5
392
100
AcDbSymbolTableRecord
100
AcDbLinetypeTableRecord
  2
CONTINUOUS
 70
     0
  3
Solid line
 72
    65
 73
     0
 40
0.0
  0
LTYPE
  5
3A0
100
AcDbSymbolTableRecord
100
AcDbLinetypeTableRecord
  2
CENTER
 70
     0
  3
Center ____ _ ____ _ ____ _ ____ _ ____ _ ____
 72
    65
 73
     4
 40
50.8
 49
31.75
 74
     0
 49
-6.35
 74
     0
 49
6.35
 74
     0
 49
-6.35
 74
     0
  0
LTYPE
  5
3A1
100
AcDbSymbolTableRecord
100
AcDbLinetypeTableRecord
  2
DASHED
 70
     0
  3
Dashed __ __ __ __ __ __ __ __ __ __ __ __ __ _
 72
    65
 73
     2
 40
19.05
 49
12.7
 74
     0
 49
-6.35
 74
     0
  0
ENDTAB
  0
TABLE
  2
LAYER
  5
37F
100
AcDbSymbolTable
 70
     2
  0
LAYER
  5
38D
100
AcDbSymbolTableRecord
100
AcDbLayerTableRecord
  2
0
 70
     0
 62
     7
  6
CONTINUOUS
  0
LAYER
  5
3A2
100
AcDbSymbolTableRecord
100
AcDbLayerTableRecord
  2
CENTER
 70
     0
 62
     1
  6
CENTER
  0
ENDTAB
  0
TABLE
  2
STYLE
  5
380
100
AcDbSymbolTable
 70
     1
  0
STYLE
  5
38E
100
AcDbSymbolTableRecord
100
AcDbTextStyleTableRecord
  2
STANDARD
 70
     0
 40
0.0
 41
1.0
 50
0.0
 71
     0
 42
2.0
  3
txt.shx
  4

  0
ENDTAB
  0
TABLE
  2
VIEW
  5
383
100
AcDbSymbolTable
 70
     0
  0
ENDTAB
  0
TABLE
  2
UCS
  5
384
100
AcDbSymbolTable
 70
     0
  0
ENDTAB
  0
TABLE
  2
APPID
  5
386
100
AcDbSymbolTable
 70
     1
  0
APPID
  5
38F
100
AcDbSymbolTableRecord
100
AcDbRegAppTableRecord
  2
ACAD
 70
     0
  0
ENDTAB
  0
TABLE
  2
DIMSTYLE
  5
387
100
AcDbSymbolTable
 70
     1
  0
DIMSTYLE
105
3A3
102
{ACAD_XDICTIONARY
360
4DC
102
}
100
AcDbSymbolTableRecord
100
AcDbDimStyleTableRecord
  2
STANDARD
 70
     0
  3

  4

  5

  6

  7

 40
1.0
 41
0.18
 42
0.0625
 43
0.38
 44
0.18
 45
0.0
 46
0.0
 47
0.0
 48
0.0
140
0.18
141
0.09
142
0.0
143
25.4
144
1.0
145
0.0
146
1.0
147
0.09
 71
     0
 72
     0
 73
     1
 74
     1
 75
     0
 76
     0
 77
     0
 78
     0
170
     0
171
     2
172
     0
173
     0
174
     0
175
     0
176
     0
177
     0
178
     0
270
     2
271
     2
272
     2
273
     2
274
     2
340
38E
275
     0
280
     0
281
     0
282
     0
283
     1
284
     0
285
     0
286
     0
287
     5
288
     0
  0
ENDTAB
  0
TABLE
  2
BLOCK_RECORD
  5
37E
100
AcDbSymbolTable
 70
     2
  0
BLOCK_RECORD
  5
39B
102
{ACAD_XDICTIONARY
360
4AC
102
}
100
AcDbSymbolTableRecord
100
AcDbBlockTableRecord
  2
*MODEL_SPACE
  0
BLOCK_RECORD
  5
397
102
{ACAD_XDICTIONARY
360
4AE
102
}
100
AcDbSymbolTableRecord
100
AcDbBlockTableRecord
  2
*PAPER_SPACE
  0
BLOCK_RECORD
  5
3A5
100
AcDbSymbolTableRecord
100
AcDbBlockTableRecord
  2
$MODEL_SPACE
  0
BLOCK_RECORD
  5
3A8
100
AcDbSymbolTableRecord
100
AcDbBlockTableRecord
  2
$PAPER_SPACE
  0
ENDTAB
  0
ENDSEC
  0
SECTION
  2
BLOCKS
  0
BLOCK
  5
39C
100
AcDbEntity
  8
0
100
AcDbBlockBegin
  2
*MODEL_SPACE
 70
     0
 10
0.0
 20
0.0
 30
0.0
  3
*MODEL_SPACE
  1

  0
ENDBLK
  5
39D
100
AcDbEntity
  8
0
100
AcDbBlockEnd
  0
BLOCK
  5
398
100
AcDbEntity
 67
     1
  8
0
100
AcDbBlockBegin
  2
*PAPER_SPACE
 70
     0
 10
0.0
 20
0.0
 30
0.0
  3
*PAPER_SPACE
  1

  0
ENDBLK
  5
399
100
AcDbEntity
 67
     1
  8
0
100
AcDbBlockEnd
  0
BLOCK
  5
3A6
100
AcDbEntity
  8
0
100
AcDbBlockBegin
  2
$MODEL_SPACE
 70
     0
 10
0.0
 20
0.0
 30
0.0
  3
$MODEL_SPACE
  1

  0
ENDBLK
  5
3A7
100
AcDbEntity
  8
0
100
AcDbBlockEnd
  0
BLOCK
  5
3A9
100
AcDbEntity
  8
0
100
AcDbBlockBegin
  2
$PAPER_SPACE
 70
     0
 10
0.0
 20
0.0
 30
0.0
  3
$PAPER_SPACE
  1

  0
ENDBLK
  5
3AA
100
AcDbEntity
  8
0
100
AcDbBlockEnd
  0
ENDSEC
  0
SECTION
  2
ENTITIES
  0
LINE
  5
3AB
100
AcDbEntity
  8
0
100
AcDbLine
 10
50.0
 20
50.0
 30
0.0
 11
50.0
 21
11.0
 31
0.0
  0
LINE
  5
3AC
100
AcDbEntity
  8
0
100
AcDbLine
 10
73.0
 20
-7.0
 30
0.0
 11
73.0
 21
50.0
 31
0.0
  0
LINE
  5
3AF
100
AcDbEntity
  8
0
100
AcDbLine
 10
64.4
 20
-5.0
 30
0.0
 11
64.4
 21
2.0
 31
0.0
  0
LINE
  5
3B0
100
AcDbEntity
  8
0
100
AcDbLine
 10
52.0
 20
10.7
 30
0.0
 11
52.0
 21
-7.0
 31
0.0
  0
LINE
  5
3B1
100
AcDbEntity
  8
0
100
AcDbLine
 10
64.4
 20
-2.25
 30
0.0
 11
52.0
 21
-2.25
 31
0.0
  0
LINE
  5
3B2
100
AcDbEntity
  8
0
 62
     3
100
AcDbLine
 10
64.4
 20
-3.0
 30
0.0
 11
52.0
 21
-3.0
 31
0.0
  0
LINE
  5
3B3
100
AcDbEntity
  8
0
100
AcDbLine
 10
52.0
 20
-7.0
 30
0.0
 11
73.0
 21
-7.0
 31
0.0
  0
LINE
  5
3B4
100
AcDbEntity
  8
0
100
AcDbLine
 10
73.0
 20
-5.0
 30
0.0
 11
64.4
 21
-5.0
 31
0.0
  0
LINE
  5
3B5
100
AcDbEntity
  8
CENTER
  6
CENTER
 62
     1
100
AcDbLine
 10
74.5
 20
2.0
 30
0.0
 11
48.5
 21
2.0
 31
0.0
  0
LINE
  5
3B6
100
AcDbEntity
  8
0
 62
     3
100
AcDbLine
 10
64.4
 20
7.0
 30
0.0
 11
52.0
 21
7.0
 31
0.0
  0
LINE
  5
3B7
100
AcDbEntity
  8
0
100
AcDbLine
 10
64.4
 20
6.25
 30
0.0
 11
52.0
 21
6.25
 31
0.0
  0
LINE
  5
3B8
100
AcDbEntity
  8
0
100
AcDbLine
 10
51.7
 20
11.0
 30
0.0
 11
50.0
 21
11.0
 31
0.0
  0
ARC
  5
3B9
100
AcDbEntity
  8
0
100
AcDbCircle
 10
51.7
 20
10.7
 30
0.0
 40
0.3
100
AcDbArc
 50
0.0
 51
90.0
  0
LINE
  5
3BA
100
AcDbEntity
  8
0
100
AcDbLine
 10
73.0
 20
9.0
 30
0.0
 11
64.4
 21
9.0
 31
0.0
  0
LINE
  5
3BB
100
AcDbEntity
  8
0
100
AcDbLine
 10
64.4
 20
9.0
 30
0.0
 11
64.4
 21
2.0
 31
0.0
  0
LINE
  5
3BC
100
AcDbEntity
  8
0
100
AcDbLine
 10
64.4
 20
91.0
 30
0.0
 11
64.4
 21
98.0
 31
0.0
  0
LINE
  5
3BD
100
AcDbEntity
  8
0
100
AcDbLine
 10
52.0
 20
89.3
 30
0.0
 11
52.0
 21
107.0
 31
0.0
  0
LINE
  5
3BE
100
AcDbEntity
  8
0
100
AcDbLine
 10
73.0
 20
107.0
 30
0.0
 11
73.0
 21
50.0
 31
0.0
  0
LINE
  5
3BF
100
AcDbEntity
  8
0
100
AcDbLine
 10
50.0
 20
50.0
 30
0.0
 11
50.0
 21
89.0
 31
0.0
  0
LINE
  5
3C0
100
AcDbEntity
  8
CENTER
  6
CENTER
 62
     1
100
AcDbLine
 10
48.5
 20
50.0
 30
0.0
 11
74.5
 21
50.0
 31
0.0
  0
LINE
  5
3C1
100
AcDbEntity
  8
0
100
AcDbLine
 10
64.4
 20
93.75
 30
0.0
 11
52.0
 21
93.75
 31
0.0
  0
LINE
  5
3C2
100
AcDbEntity
  8
0
 62
     3
100
AcDbLine
 10
64.4
 20
93.0
 30
0.0
 11
52.0
 21
93.0
 31
0.0
  0
LINE
  5
3C3
100
AcDbEntity
  8
0
100
AcDbLine
 10
51.7
 20
89.0
 30
0.0
 11
50.0
 21
89.0
 31
0.0
  0
ARC
  5
3C4
100
AcDbEntity
  8
0
100
AcDbCircle
 10
51.7
 20
89.3
 30
0.0
 40
0.3
100
AcDbArc
 50
270.0
 51
0.0
  0
LINE
  5
3C5
100
AcDbEntity
  8
0
100
AcDbLine
 10
73.0
 20
91.0
 30
0.0
 11
64.4
 21
91.0
 31
0.0
  0
LINE
  5
3C6
100
AcDbEntity
  8
CENTER
  6
CENTER
 62
     1
100
AcDbLine
 10
74.5
 20
98.0
 30
0.0
 11
48.5
 21
98.0
 31
0.0
  0
LINE
  5
3C7
100
AcDbEntity
  8
0
 62
     3
100
AcDbLine
 10
64.4
 20
103.0
 30
0.0
 11
52.0
 21
103.0
 31
0.0
  0
LINE
  5
3C8
100
AcDbEntity
  8
0
100
AcDbLine
 10
64.4
 20
102.25
 30
0.0
 11
52.0
 21
102.25
 31
0.0
  0
LINE
  5
3C9
100
AcDbEntity
  8
0
100
AcDbLine
 10
52.0
 20
107.0
 30
0.0
 11
73.0
 21
107.0
 31
0.0
  0
LINE
  5
3CA
100
AcDbEntity
  8
0
100
AcDbLine
 10
73.0
 20
105.0
 30
0.0
 11
64.4
 21
105.0
 31
0.0
  0
LINE
  5
3CB
100
AcDbEntity
  8
0
100
AcDbLine
 10
64.4
 20
105.0
 30
0.0
 11
64.4
 21
98.0
 31
0.0
  0
CIRCLE
  5
3CC
100
AcDbEntity
  8
CENTER
  6
CENTER
 62
     1
100
AcDbCircle
 10
150.0
 20
50.0
 30
0.0
 40
48.0
  0
LINE
  5
3CD
100
AcDbEntity
  8
CENTER
  6
CENTER
 62
     1
100
AcDbLine
 10
150.0
 20
108.5
 30
0.0
 11
150.0
 21
-8.5
 31
0.0
  0
CIRCLE
  5
3CE
100
AcDbEntity
  8
0
  6
DASHED
 62
     3
100
AcDbCircle
 10
150.0
 20
50.0
 30
0.0
 40
30.0
  0
CIRCLE
  5
3CF
100
AcDbEntity
  8
0
  6
DASHED
 62
     3
100
AcDbCircle
 10
150.0
 20
50.0
 30
0.0
 40
39.0
  0
CIRCLE
  5
3D0
100
AcDbEntity
  8
0
100
AcDbCircle
 10
198.0
 20
50.0
 30
0.0
 40
4.25
  0
CIRCLE
  5
3D1
100
AcDbEntity
  8
0
100
AcDbCircle
 10
198.0
 20
50.0
 30
0.0
 40
7.0
  0
CIRCLE
  5
3D2
100
AcDbEntity
  8
0
100
AcDbCircle
 10
150.0
 20
50.0
 30
0.0
 40
20.0
  0
CIRCLE
  5
3D3
100
AcDbEntity
  8
0
100
AcDbCircle
 10
102.0
 20
50.0
 30
0.0
 40
7.0
  0
CIRCLE
  5
3D4
100
AcDbEntity
  8
0
100
AcDbCircle
 10
102.0
 20
50.0
 30
0.0
 40
4.25
  0
CIRCLE
  5
3D5
100
AcDbEntity
  8
0
100
AcDbCircle
 10
150.0
 20
50.0
 30
0.0
 40
34.0
  0
CIRCLE
  5
3D6
100
AcDbEntity
  8
0
100
AcDbCircle
 10
150.0
 20
50.0
 30
0.0
 40
57.0
  0
CIRCLE
  5
3D7
100
AcDbEntity
  8
0
100
AcDbCircle
 10
150.0
 20
2.0
 30
0.0
 40
7.0
  0
CIRCLE
  5
3D8
100
AcDbEntity
  8
0
100
AcDbCircle
 10
150.0
 20
2.0
 30
0.0
 40
4.25
  0
LINE
  5
3D9
100
AcDbEntity
  8
CENTER
  6
CENTER
 62
     1
100
AcDbLine
 10
208.5
 20
50.0
 30
0.0
 11
91.5
 21
50.0
 31
0.0
  0
CIRCLE
  5
3DA
100
AcDbEntity
  8
0
100
AcDbCircle
 10
150.0
 20
98.0
 30
0.0
 40
7.0
  0
CIRCLE
  5
3DB
100
AcDbEntity
  8
0
100
AcDbCircle
 10
150.0
 20
98.0
 30
0.0
 40
4.25
  0
LINE
  5
3DC
100
AcDbEntity
  8
0
100
AcDbLine
 10
53.6
 20
30.0
 30
0.0
 11
65.4
 21
30.0
 31
0.0
  0
LINE
  5
3DD
100
AcDbEntity
  8
0
100
AcDbLine
 10
53.6
 20
16.5
 30
0.0
 11
67.0
 21
16.5
 31
0.0
  0
CIRCLE
  5
3DE
100
AcDbEntity
  8
0
100
AcDbCircle
 10
59.5
 20
22.75
 30
0.0
 40
3.96875
  0
LINE
  5
3DF
100
AcDbEntity
  8
0
100
AcDbLine
 10
52.0
 20
18.1
 30
0.0
 11
52.0
 21
81.9
 31
0.0
  0
ARC
  5
3E0
100
AcDbEntity
  8
0
100
AcDbCircle
 10
53.6
 20
18.1
 30
0.0
 40
1.6
100
AcDbArc
 50
180.0
 51
270.0
  0
LINE
  5
3E1
100
AcDbEntity
  8
0
100
AcDbLine
 10
52.53
 20
21.59601
 30
0.0
 11
52.53
 21
25.40001
 31
0.0
  0
LINE
  5
3E2
100
AcDbEntity
  8
0
100
AcDbLine
 10
52.83
 20
21.71997
 30
0.0
 11
52.83
 21
25.40001
 31
0.0
  0
LINE
  5
3E3
100
AcDbEntity
  8
0
100
AcDbLine
 10
53.93
 20
20.61996
 30
0.0
 11
52.83
 21
21.71997
 31
0.0
  0
ARC
  5
3E4
100
AcDbEntity
  8
0
100
AcDbCircle
 10
53.383282
 20
19.259779
 30
0.0
 40
0.5
100
AcDbArc
 50
220.090214
 51
355.01295
  0
LINE
  5
3E5
100
AcDbEntity
  8
0
100
AcDbLine
 10
53.578552
 20
19.256572
 30
0.0
 11
53.629968
 21
20.496052
 31
0.0
  0
ARC
  5
3E6
100
AcDbEntity
  8
0
100
AcDbCircle
 10
53.009257
 20
19.39354
 30
0.0
 40
0.3
100
AcDbArc
 50
130.003724
 51
220.090214
  0
LINE
  5
3E7
100
AcDbEntity
  8
0
100
AcDbLine
 10
52.2
 20
19.20001
 30
0.0
 11
52.780027
 21
19.20001
 31
0.0
  0
ARC
  5
3E8
100
AcDbEntity
  8
0
100
AcDbCircle
 10
52.2
 20
19.00001
 30
0.0
 40
0.2
100
AcDbArc
 50
90.0
 51
180.0
  0
LINE
  5
3E9
100
AcDbEntity
  8
0
100
AcDbLine
 10
53.010002
 20
19.393072
 30
0.0
 11
53.225533
 21
19.136283
 31
0.0
  0
LINE
  5
3EA
100
AcDbEntity
  8
0
100
AcDbLine
 10
53.238974
 20
19.586047
 30
0.0
 11
53.010002
 21
19.393072
 31
0.0
  0
ARC
  5
3EB
100
AcDbEntity
  8
0
100
AcDbCircle
 10
53.378724
 20
19.264861
 30
0.0
 40
0.2
100
AcDbArc
 50
220.007775
 51
357.62463
  0
LINE
  5
3EC
100
AcDbEntity
  8
0
100
AcDbLine
 10
53.046001
 20
19.816019
 30
0.0
 11
52.816406
 21
19.62334
 31
0.0
  0
LINE
  5
3ED
100
AcDbEntity
  8
0
100
AcDbLine
 10
53.046001
 20
19.816019
 30
0.0
 11
53.238974
 21
19.586047
 31
0.0
  0
LINE
  5
3EE
100
AcDbEntity
  8
0
100
AcDbLine
 10
53.629968
 20
20.496052
 30
0.0
 11
52.53
 21
21.59601
 31
0.0
  0
LINE
  5
3EF
100
AcDbEntity
  8
0
100
AcDbLine
 10
52.779748
 20
19.200342
 30
0.0
 11
53.000766
 21
18.937783
 31
0.0
  0
LINE
  5
3F0
100
AcDbEntity
  8
0
100
AcDbLine
 10
54.15926
 20
20.3
 30
0.0
 11
56.377745
 21
20.3
 31
0.0
  0
LINE
  5
3F1
100
AcDbEntity
  8
0
100
AcDbLine
 10
53.93
 20
19.77301
 30
0.0
 11
53.93
 21
20.61996
 31
0.0
  0
LINE
  5
3F2
100
AcDbEntity
  8
0
100
AcDbLine
 10
53.881389
 20
19.216314
 30
0.0
 11
53.960017
 21
20.117386
 31
0.0
  0
ARC
  5
3F3
100
AcDbEntity
  8
0
100
AcDbCircle
 10
54.15926
 20
20.1
 30
0.0
 40
0.2
100
AcDbArc
 50
90.0
 51
175.01295
  0
ARC
  5
3F4
100
AcDbEntity
  8
0
100
AcDbCircle
 10
53.5
 20
26.25002
 30
0.0
 40
0.300167
100
AcDbArc
 50
19.970128
 51
94.462605
  0
LINE
  5
3F5
100
AcDbEntity
  8
0
100
AcDbLine
 10
52.69998
 20
26.00002
 30
0.0
 11
53.07401
 21
26.37405
 31
0.0
  0
ARC
  5
3F6
100
AcDbEntity
  8
0
100
AcDbCircle
 10
52.2
 20
26.20002
 30
0.0
 40
0.2
100
AcDbArc
 50
180.0
 51
270.0
  0
LINE
  5
3F7
100
AcDbEntity
  8
0
100
AcDbLine
 10
52.2
 20
26.00002
 30
0.0
 11
52.69998
 21
26.00002
 31
0.0
  0
LINE
  5
3F8
100
AcDbEntity
  8
0
100
AcDbLine
 10
52.83
 20
25.70001
 30
0.0
 11
53.45
 21
25.70001
 31
0.0
  0
LINE
  5
3F9
100
AcDbEntity
  8
0
100
AcDbLine
 10
53.45
 20
25.40001
 30
0.0
 11
52.83
 21
25.40001
 31
0.0
  0
ARC
  5
3FA
100
AcDbEntity
  8
0
100
AcDbCircle
 10
52.83
 20
25.40001
 30
0.0
 40
0.3
100
AcDbArc
 50
90.0
 51
180.0
  0
LINE
  5
3FB
100
AcDbEntity
  8
0
100
AcDbLine
 10
53.45
 20
25.70001
 30
0.0
 11
53.45
 21
25.40001
 31
0.0
  0
ARC
  5
3FC
100
AcDbEntity
  8
0
100
AcDbCircle
 10
53.498
 20
25.95001
 30
0.0
 40
0.599648
100
AcDbArc
 50
87.195159
 51
135.0
  0
LINE
  5
3FD
100
AcDbEntity
  8
0
100
AcDbLine
 10
54.341043
 20
25.20001
 30
0.0
 11
56.377753
 21
25.20001
 31
0.0
  0
LINE
  5
3FE
100
AcDbEntity
  8
0
100
AcDbLine
 10
53.78199
 20
26.35289
 30
0.0
 11
54.153069
 21
25.331704
 31
0.0
  0
ARC
  5
3FF
100
AcDbEntity
  8
0
100
AcDbCircle
 10
54.341043
 20
25.40001
 30
0.0
 40
0.2
100
AcDbArc
 50
199.970128
 51
270.0
  0
ARC
  5
400
100
AcDbEntity
  8
0
100
AcDbCircle
 10
53.6
 20
28.4
 30
0.0
 40
1.6
100
AcDbArc
 50
90.0
 51
180.0
  0
LINE
  5
401
100
AcDbEntity
  8
0
100
AcDbLine
 10
69.2
 20
12.5
 30
0.0
 11
69.2
 21
87.5
 31
0.0
  0
LINE
  5
402
100
AcDbEntity
  8
0
100
AcDbLine
 10
67.0
 20
12.5
 30
0.0
 11
67.0
 21
87.5
 31
0.0
  0
ARC
  5
403
100
AcDbEntity
  8
0
100
AcDbCircle
 10
65.4
 20
18.1
 30
0.0
 40
1.6
100
AcDbArc
 50
270.0
 51
0.0
  0
LINE
  5
404
100
AcDbEntity
  8
0
100
AcDbLine
 10
73.0
 20
16.0
 30
0.0
 11
69.2
 21
16.0
 31
0.0
  0
LINE
  5
405
100
AcDbEntity
  8
0
100
AcDbLine
 10
69.2
 20
12.5
 30
0.0
 11
67.0
 21
12.5
 31
0.0
  0
LINE
  5
406
100
AcDbEntity
  8
0
100
AcDbLine
 10
66.30002
 20
26.00002
 30
0.0
 11
65.92599
 21
26.37405
 31
0.0
  0
LINE
  5
407
100
AcDbEntity
  8
0
100
AcDbLine
 10
65.55
 20
25.40001
 30
0.0
 11
66.17
 21
25.40001
 31
0.0
  0
LINE
  5
408
100
AcDbEntity
  8
0
100
AcDbLine
 10
66.17
 20
25.70001
 30
0.0
 11
65.55
 21
25.70001
 31
0.0
  0
LINE
  5
409
100
AcDbEntity
  8
0
100
AcDbLine
 10
65.953999
 20
19.816019
 30
0.0
 11
66.183594
 21
19.62334
 31
0.0
  0
LINE
  5
40A
100
AcDbEntity
  8
0
100
AcDbLine
 10
65.07
 20
20.61996
 30
0.0
 11
66.17
 21
21.71997
 31
0.0
  0
LINE
  5
40B
100
AcDbEntity
  8
0
100
AcDbLine
 10
65.370032
 20
20.496052
 30
0.0
 11
66.47
 21
21.59601
 31
0.0
  0
LINE
  5
40C
100
AcDbEntity
  8
0
100
AcDbLine
 10
66.220252
 20
19.200342
 30
0.0
 11
65.999234
 21
18.937783
 31
0.0
  0
LINE
  5
40D
100
AcDbEntity
  8
0
100
AcDbLine
 10
64.84074
 20
20.3
 30
0.0
 11
62.622255
 21
20.3
 31
0.0
  0
LINE
  5
40E
100
AcDbEntity
  8
0
100
AcDbLine
 10
65.421448
 20
19.256572
 30
0.0
 11
65.370032
 21
20.496052
 31
0.0
  0
LINE
  5
40F
100
AcDbEntity
  8
0
100
AcDbLine
 10
65.07
 20
19.77301
 30
0.0
 11
65.07
 21
20.61996
 31
0.0
  0
ARC
  5
410
100
AcDbEntity
  8
0
100
AcDbCircle
 10
64.84074
 20
20.1
 30
0.0
 40
0.2
100
AcDbArc
 50
4.98705
 51
90.0
  0
LINE
  5
411
100
AcDbEntity
  8
0
100
AcDbLine
 10
65.953999
 20
19.816019
 30
0.0
 11
65.761026
 21
19.586047
 31
0.0
  0
LINE
  5
412
100
AcDbEntity
  8
0
100
AcDbLine
 10
65.118611
 20
19.216314
 30
0.0
 11
65.039983
 21
20.117386
 31
0.0
  0
ARC
  5
413
100
AcDbEntity
  8
0
100
AcDbCircle
 10
65.621276
 20
19.264861
 30
0.0
 40
0.2
100
AcDbArc
 50
182.37537
 51
319.992225
  0
LINE
  5
414
100
AcDbEntity
  8
0
100
AcDbLine
 10
65.761026
 20
19.586047
 30
0.0
 11
65.989998
 21
19.393072
 31
0.0
  0
LINE
  5
415
100
AcDbEntity
  8
0
100
AcDbLine
 10
65.989998
 20
19.393072
 30
0.0
 11
65.774467
 21
19.136283
 31
0.0
  0
ARC
  5
416
100
AcDbEntity
  8
0
100
AcDbCircle
 10
65.616718
 20
19.259779
 30
0.0
 40
0.5
100
AcDbArc
 50
184.98705
 51
319.909786
  0
LINE
  5
417
100
AcDbEntity
  8
0
100
AcDbLine
 10
65.21801
 20
26.35289
 30
0.0
 11
64.846931
 21
25.331704
 31
0.0
  0
LINE
  5
418
100
AcDbEntity
  8
0
100
AcDbLine
 10
64.658957
 20
25.20001
 30
0.0
 11
62.622247
 21
25.20001
 31
0.0
  0
ARC
  5
419
100
AcDbEntity
  8
0
100
AcDbCircle
 10
64.658957
 20
25.40001
 30
0.0
 40
0.2
100
AcDbArc
 50
270.0
 51
340.029872
  0
LINE
  5
41A
100
AcDbEntity
  8
0
100
AcDbLine
 10
65.55
 20
25.70001
 30
0.0
 11
65.55
 21
25.40001
 31
0.0
  0
ARC
  5
41B
100
AcDbEntity
  8
0
100
AcDbCircle
 10
65.502
 20
25.95001
 30
0.0
 40
0.599648
100
AcDbArc
 50
45.0
 51
92.804841
  0
ARC
  5
41C
100
AcDbEntity
  8
0
100
AcDbCircle
 10
65.5
 20
26.25002
 30
0.0
 40
0.300167
100
AcDbArc
 50
85.537395
 51
160.029872
  0
LINE
  5
41D
100
AcDbEntity
  8
0
100
AcDbLine
 10
66.47
 20
21.59601
 30
0.0
 11
66.47
 21
25.40001
 31
0.0
  0
LINE
  5
41E
100
AcDbEntity
  8
0
100
AcDbLine
 10
66.17
 20
21.71997
 30
0.0
 11
66.17
 21
25.40001
 31
0.0
  0
ARC
  5
41F
100
AcDbEntity
  8
0
100
AcDbCircle
 10
66.8
 20
19.00001
 30
0.0
 40
0.2
100
AcDbArc
 50
0.0
 51
90.0
  0
ARC
  5
420
100
AcDbEntity
  8
0
100
AcDbCircle
 10
65.990743
 20
19.39354
 30
0.0
 40
0.3
100
AcDbArc
 50
319.909786
 51
49.996276
  0
LINE
  5
421
100
AcDbEntity
  8
0
100
AcDbLine
 10
66.8
 20
19.20001
 30
0.0
 11
66.219973
 21
19.20001
 31
0.0
  0
LINE
  5
422
100
AcDbEntity
  8
0
100
AcDbLine
 10
69.2
 20
18.0
 30
0.0
 11
67.0
 21
18.0
 31
0.0
  0
ARC
  5
423
100
AcDbEntity
  8
0
100
AcDbCircle
 10
66.8
 20
26.20002
 30
0.0
 40
0.2
100
AcDbArc
 50
270.0
 51
0.0
  0
LINE
  5
424
100
AcDbEntity
  8
0
100
AcDbLine
 10
66.8
 20
26.00002
 30
0.0
 11
66.30002
 21
26.00002
 31
0.0
  0
ARC
  5
425
100
AcDbEntity
  8
0
100
AcDbCircle
 10
66.17
 20
25.40001
 30
0.0
 40
0.3
100
AcDbArc
 50
0.0
 51
90.0
  0
ARC
  5
426
100
AcDbEntity
  8
0
100
AcDbCircle
 10
65.4
 20
28.4
 30
0.0
 40
1.6
100
AcDbArc
 50
0.0
 51
90.0
  0
LINE
  5
427
100
AcDbEntity
  8
0
100
AcDbLine
 10
52.0
 20
20.0
 30
0.0
 11
50.0
 21
20.0
 31
0.0
  0
CIRCLE
  5
428
100
AcDbEntity
  8
0
100
AcDbCircle
 10
59.5
 20
77.25
 30
0.0
 40
3.96875
  0
LINE
  5
429
100
AcDbEntity
  8
0
100
AcDbLine
 10
53.6
 20
83.5
 30
0.0
 11
67.0
 21
83.5
 31
0.0
  0
LINE
  5
42A
100
AcDbEntity
  8
0
100
AcDbLine
 10
53.6
 20
70.0
 30
0.0
 11
65.4
 21
70.0
 31
0.0
  0
LINE
  5
42B
100
AcDbEntity
  8
0
100
AcDbLine
 10
52.83
 20
78.28003
 30
0.0
 11
52.83
 21
74.59999
 31
0.0
  0
LINE
  5
42C
100
AcDbEntity
  8
0
100
AcDbLine
 10
52.53
 20
78.40399
 30
0.0
 11
52.53
 21
74.59999
 31
0.0
  0
ARC
  5
42D
100
AcDbEntity
  8
0
100
AcDbCircle
 10
53.6
 20
71.6
 30
0.0
 40
1.6
100
AcDbArc
 50
180.0
 51
270.0
  0
ARC
  5
42E
100
AcDbEntity
  8
0
100
AcDbCircle
 10
53.5
 20
73.74998
 30
0.0
 40
0.300167
100
AcDbArc
 50
265.537395
 51
340.029872
  0
LINE
  5
42F
100
AcDbEntity
  8
0
100
AcDbLine
 10
52.69998
 20
73.99998
 30
0.0
 11
53.07401
 21
73.62595
 31
0.0
  0
ARC
  5
430
100
AcDbEntity
  8
0
100
AcDbCircle
 10
52.2
 20
73.79998
 30
0.0
 40
0.2
100
AcDbArc
 50
90.0
 51
180.0
  0
ARC
  5
431
100
AcDbEntity
  8
0
100
AcDbCircle
 10
53.498
 20
74.04999
 30
0.0
 40
0.599648
100
AcDbArc
 50
225.0
 51
272.804841
  0
ARC
  5
432
100
AcDbEntity
  8
0
100
AcDbCircle
 10
52.83
 20
74.59999
 30
0.0
 40
0.3
100
AcDbArc
 50
180.0
 51
270.0
  0
LINE
  5
433
100
AcDbEntity
  8
0
100
AcDbLine
 10
52.2
 20
73.99998
 30
0.0
 11
52.69998
 21
73.99998
 31
0.0
  0
LINE
  5
434
100
AcDbEntity
  8
0
100
AcDbLine
 10
53.45
 20
74.29999
 30
0.0
 11
53.45
 21
74.59999
 31
0.0
  0
LINE
  5
435
100
AcDbEntity
  8
0
100
AcDbLine
 10
53.45
 20
74.59999
 30
0.0
 11
52.83
 21
74.59999
 31
0.0
  0
LINE
  5
436
100
AcDbEntity
  8
0
100
AcDbLine
 10
52.83
 20
74.29999
 30
0.0
 11
53.45
 21
74.29999
 31
0.0
  0
LINE
  5
437
100
AcDbEntity
  8
0
100
AcDbLine
 10
54.341043
 20
74.79999
 30
0.0
 11
56.377753
 21
74.79999
 31
0.0
  0
LINE
  5
438
100
AcDbEntity
  8
0
100
AcDbLine
 10
53.78199
 20
73.64711
 30
0.0
 11
54.153069
 21
74.668296
 31
0.0
  0
ARC
  5
439
100
AcDbEntity
  8
0
100
AcDbCircle
 10
54.341043
 20
74.59999
 30
0.0
 40
0.2
100
AcDbArc
 50
90.0
 51
160.029872
  0
ARC
  5
43A
100
AcDbEntity
  8
0
100
AcDbCircle
 10
53.6
 20
81.9
 30
0.0
 40
1.6
100
AcDbArc
 50
90.0
 51
180.0
  0
ARC
  5
43B
100
AcDbEntity
  8
0
100
AcDbCircle
 10
53.383282
 20
80.740221
 30
0.0
 40
0.5
100
AcDbArc
 50
4.98705
 51
139.909786
  0
LINE
  5
43C
100
AcDbEntity
  8
0
100
AcDbLine
 10
53.93
 20
79.38004
 30
0.0
 11
52.83
 21
78.28003
 31
0.0
  0
LINE
  5
43D
100
AcDbEntity
  8
0
100
AcDbLine
 10
53.578552
 20
80.743428
 30
0.0
 11
53.629968
 21
79.503948
 31
0.0
  0
LINE
  5
43E
100
AcDbEntity
  8
0
100
AcDbLine
 10
52.2
 20
80.79999
 30
0.0
 11
52.780027
 21
80.79999
 31
0.0
  0
ARC
  5
43F
100
AcDbEntity
  8
0
100
AcDbCircle
 10
53.009257
 20
80.60646
 30
0.0
 40
0.3
100
AcDbArc
 50
139.909786
 51
229.996276
  0
ARC
  5
440
100
AcDbEntity
  8
0
100
AcDbCircle
 10
52.2
 20
80.99999
 30
0.0
 40
0.2
100
AcDbArc
 50
180.0
 51
270.0
  0
ARC
  5
441
100
AcDbEntity
  8
0
100
AcDbCircle
 10
53.378724
 20
80.735139
 30
0.0
 40
0.2
100
AcDbArc
 50
2.37537
 51
139.992225
  0
LINE
  5
442
100
AcDbEntity
  8
0
100
AcDbLine
 10
52.779748
 20
80.799658
 30
0.0
 11
53.000766
 21
81.062217
 31
0.0
  0
LINE
  5
443
100
AcDbEntity
  8
0
100
AcDbLine
 10
53.046001
 20
80.183981
 30
0.0
 11
53.238974
 21
80.413953
 31
0.0
  0
LINE
  5
444
100
AcDbEntity
  8
0
100
AcDbLine
 10
53.238974
 20
80.413953
 30
0.0
 11
53.010002
 21
80.606928
 31
0.0
  0
LINE
  5
445
100
AcDbEntity
  8
0
100
AcDbLine
 10
53.046001
 20
80.183981
 30
0.0
 11
52.816406
 21
80.37666
 31
0.0
  0
LINE
  5
446
100
AcDbEntity
  8
0
100
AcDbLine
 10
53.010002
 20
80.606928
 30
0.0
 11
53.225533
 21
80.863717
 31
0.0
  0
LINE
  5
447
100
AcDbEntity
  8
0
100
AcDbLine
 10
53.629968
 20
79.503948
 30
0.0
 11
52.53
 21
78.40399
 31
0.0
  0
LINE
  5
448
100
AcDbEntity
  8
0
100
AcDbLine
 10
54.15926
 20
79.7
 30
0.0
 11
56.377745
 21
79.7
 31
0.0
  0
LINE
  5
449
100
AcDbEntity
  8
0
100
AcDbLine
 10
53.93
 20
80.22699
 30
0.0
 11
53.93
 21
79.38004
 31
0.0
  0
LINE
  5
44A
100
AcDbEntity
  8
0
100
AcDbLine
 10
53.881389
 20
80.783686
 30
0.0
 11
53.960017
 21
79.882614
 31
0.0
  0
ARC
  5
44B
100
AcDbEntity
  8
0
100
AcDbCircle
 10
54.15926
 20
79.9
 30
0.0
 40
0.2
100
AcDbArc
 50
184.98705
 51
270.0
  0
LINE
  5
44C
100
AcDbEntity
  8
0
100
AcDbLine
 10
66.47
 20
78.40399
 30
0.0
 11
66.47
 21
74.59999
 31
0.0
  0
LINE
  5
44D
100
AcDbEntity
  8
0
100
AcDbLine
 10
66.17
 20
78.28003
 30
0.0
 11
66.17
 21
74.59999
 31
0.0
  0
LINE
  5
44E
100
AcDbEntity
  8
0
100
AcDbLine
 10
66.30002
 20
73.99998
 30
0.0
 11
65.92599
 21
73.62595
 31
0.0
  0
LINE
  5
44F
100
AcDbEntity
  8
0
100
AcDbLine
 10
65.55
 20
74.59999
 30
0.0
 11
66.17
 21
74.59999
 31
0.0
  0
LINE
  5
450
100
AcDbEntity
  8
0
100
AcDbLine
 10
66.17
 20
74.29999
 30
0.0
 11
65.55
 21
74.29999
 31
0.0
  0
ARC
  5
451
100
AcDbEntity
  8
0
100
AcDbCircle
 10
65.4
 20
71.6
 30
0.0
 40
1.6
100
AcDbArc
 50
270.0
 51
0.0
  0
LINE
  5
452
100
AcDbEntity
  8
0
100
AcDbLine
 10
65.21801
 20
73.64711
 30
0.0
 11
64.846931
 21
74.668296
 31
0.0
  0
ARC
  5
453
100
AcDbEntity
  8
0
100
AcDbCircle
 10
65.5
 20
73.74998
 30
0.0
 40
0.300167
100
AcDbArc
 50
199.970128
 51
274.462605
  0
ARC
  5
454
100
AcDbEntity
  8
0
100
AcDbCircle
 10
65.502
 20
74.04999
 30
0.0
 40
0.599648
100
AcDbArc
 50
267.195159
 51
315.0
  0
LINE
  5
455
100
AcDbEntity
  8
0
100
AcDbLine
 10
64.658957
 20
74.79999
 30
0.0
 11
62.622247
 21
74.79999
 31
0.0
  0
ARC
  5
456
100
AcDbEntity
  8
0
100
AcDbCircle
 10
64.658957
 20
74.59999
 30
0.0
 40
0.2
100
AcDbArc
 50
19.970128
 51
90.0
  0
LINE
  5
457
100
AcDbEntity
  8
0
100
AcDbLine
 10
65.55
 20
74.29999
 30
0.0
 11
65.55
 21
74.59999
 31
0.0
  0
ARC
  5
458
100
AcDbEntity
  8
0
100
AcDbCircle
 10
66.8
 20
73.79998
 30
0.0
 40
0.2
100
AcDbArc
 50
0.0
 51
90.0
  0
LINE
  5
459
100
AcDbEntity
  8
0
100
AcDbLine
 10
66.8
 20
73.99998
 30
0.0
 11
66.30002
 21
73.99998
 31
0.0
  0
ARC
  5
45A
100
AcDbEntity
  8
0
100
AcDbCircle
 10
66.17
 20
74.59999
 30
0.0
 40
0.3
100
AcDbArc
 50
270.0
 51
0.0
  0
LINE
  5
45B
100
AcDbEntity
  8
0
100
AcDbLine
 10
65.953999
 20
80.183981
 30
0.0
 11
66.183594
 21
80.37666
 31
0.0
  0
LINE
  5
45C
100
AcDbEntity
  8
0
100
AcDbLine
 10
66.220252
 20
80.799658
 30
0.0
 11
65.999234
 21
81.062217
 31
0.0
  0
ARC
  5
45D
100
AcDbEntity
  8
0
100
AcDbCircle
 10
65.4
 20
81.9
 30
0.0
 40
1.6
100
AcDbArc
 50
0.0
 51
90.0
  0
LINE
  5
45E
100
AcDbEntity
  8
0
100
AcDbLine
 10
65.07
 20
79.38004
 30
0.0
 11
66.17
 21
78.28003
 31
0.0
  0
LINE
  5
45F
100
AcDbEntity
  8
0
100
AcDbLine
 10
65.370032
 20
79.503948
 30
0.0
 11
66.47
 21
78.40399
 31
0.0
  0
LINE
  5
460
100
AcDbEntity
  8
0
100
AcDbLine
 10
64.84074
 20
79.7
 30
0.0
 11
62.622255
 21
79.7
 31
0.0
  0
ARC
  5
461
100
AcDbEntity
  8
0
100
AcDbCircle
 10
64.84074
 20
79.9
 30
0.0
 40
0.2
100
AcDbArc
 50
270.0
 51
355.01295
  0
LINE
  5
462
100
AcDbEntity
  8
0
100
AcDbLine
 10
65.07
 20
80.22699
 30
0.0
 11
65.07
 21
79.38004
 31
0.0
  0
LINE
  5
463
100
AcDbEntity
  8
0
100
AcDbLine
 10
65.421448
 20
80.743428
 30
0.0
 11
65.370032
 21
79.503948
 31
0.0
  0
LINE
  5
464
100
AcDbEntity
  8
0
100
AcDbLine
 10
65.118611
 20
80.783686
 30
0.0
 11
65.039983
 21
79.882614
 31
0.0
  0
LINE
  5
465
100
AcDbEntity
  8
0
100
AcDbLine
 10
65.989998
 20
80.606928
 30
0.0
 11
65.774467
 21
80.863717
 31
0.0
  0
LINE
  5
466
100
AcDbEntity
  8
0
100
AcDbLine
 10
65.953999
 20
80.183981
 30
0.0
 11
65.761026
 21
80.413953
 31
0.0
  0
LINE
  5
467
100
AcDbEntity
  8
0
100
AcDbLine
 10
65.761026
 20
80.413953
 30
0.0
 11
65.989998
 21
80.606928
 31
0.0
  0
ARC
  5
468
100
AcDbEntity
  8
0
100
AcDbCircle
 10
65.621276
 20
80.735139
 30
0.0
 40
0.2
100
AcDbArc
 50
40.007775
 51
177.62463
  0
ARC
  5
469
100
AcDbEntity
  8
0
100
AcDbCircle
 10
65.616718
 20
80.740221
 30
0.0
 40
0.5
100
AcDbArc
 50
40.090214
 51
175.01295
  0
ARC
  5
46A
100
AcDbEntity
  8
0
100
AcDbCircle
 10
66.8
 20
80.99999
 30
0.0
 40
0.2
100
AcDbArc
 50
270.0
 51
0.0
  0
ARC
  5
46B
100
AcDbEntity
  8
0
100
AcDbCircle
 10
65.990743
 20
80.60646
 30
0.0
 40
0.3
100
AcDbArc
 50
310.003724
 51
40.090214
  0
LINE
  5
46C
100
AcDbEntity
  8
0
100
AcDbLine
 10
66.8
 20
80.79999
 30
0.0
 11
66.219973
 21
80.79999
 31
0.0
  0
LINE
  5
46D
100
AcDbEntity
  8
0
100
AcDbLine
 10
73.0
 20
84.0
 30
0.0
 11
69.2
 21
84.0
 31
0.0
  0
LINE
  5
46E
100
AcDbEntity
  8
0
100
AcDbLine
 10
69.2
 20
82.0
 30
0.0
 11
67.0
 21
82.0
 31
0.0
  0
LINE
  5
46F
100
AcDbEntity
  8
0
100
AcDbLine
 10
69.2
 20
87.5
 30
0.0
 11
67.0
 21
87.5
 31
0.0
  0
LINE
  5
470
100
AcDbEntity
  8
0
100
AcDbLine
 10
52.0
 20
80.0
 30
0.0
 11
50.0
 21
80.0
 31
0.0
  0
CIRCLE
  5
471
100
AcDbEntity
  8
0
 62
     3
100
AcDbCircle
 10
150.0
 20
98.0
 30
0.0
 40
5.0
  0
CIRCLE
  5
472
100
AcDbEntity
  8
0
 62
     3
100
AcDbCircle
 10
198.0
 20
50.0
 30
0.0
 40
5.0
  0
CIRCLE
  5
473
100
AcDbEntity
  8
0
 62
     3
100
AcDbCircle
 10
150.0
 20
2.0
 30
0.0
 40
5.0
  0
CIRCLE
  5
474
100
AcDbEntity
  8
0
 62
     3
100
AcDbCircle
 10
102.0
 20
50.0
 30
0.0
 40
5.0
  0
ENDSEC
  0
SECTION
  2
OBJECTS
  0
DICTIONARY
  5
389
100
AcDbDictionary
  3
ACAD_GROUP
350
38A
  3
ACAD_LAYOUT
350
396
  3
ACAD_MLINESTYLE
350
393
  3
ACAD_PLOTSETTINGS
350
395
  3
ACAD_PLOTSTYLENAME
350
38B
  3
ACDBHEADERROUNDTRIPXREC
350
4B6
  3
AcDbVariableDictionary
350
4DE
  0
DICTIONARY
  5
4B4
100
AcDbDictionary
280
     1
  3
ACAD_XREC_ROUNDTRIP
360
4B5
  0
DICTIONARY
  5
4B0
100
AcDbDictionary
280
     1
  3
ACAD_XREC_ROUNDTRIP
360
4B1
  0
DICTIONARY
  5
4B2
100
AcDbDictionary
280
     1
  3
ACAD_XREC_ROUNDTRIP
360
4B3
  0
DICTIONARY
  5
4DC
100
AcDbDictionary
280
     1
  3
ACAD_XREC_ROUNDTRIP
360
4DD
  0
DICTIONARY
  5
4AC
100
AcDbDictionary
280
     1
  3
ACAD_LAYOUTSELFREF
360
4DB
  3
ACAD_XREC_ROUNDTRIP
360
4AD
  0
DICTIONARY
  5
4AE
100
AcDbDictionary
280
     1
  3
ACAD_LAYOUTSELFREF
360
4DA
  3
ACAD_XREC_ROUNDTRIP
360
4AF
  0
DICTIONARY
  5
38A
102
{ACAD_REACTORS
330
389
102
}
100
AcDbDictionary
  0
DICTIONARY
  5
396
102
{ACAD_XDICTIONARY
360
4D8
102
}
102
{ACAD_REACTORS
330
389
102
}
100
AcDbDictionary
  3
MODEL
350
39E
  3
ﾚｲｱｳﾄ1
350
39A
  0
DICTIONARY
  5
393
102
{ACAD_XDICTIONARY
360
4D6
102
}
102
{ACAD_REACTORS
330
389
102
}
100
AcDbDictionary
  3
STANDARD
350
394
  0
DICTIONARY
  5
395
102
{ACAD_REACTORS
330
389
102
}
100
AcDbDictionary
  0
ACAD_PROXY_OBJECT
  5
38B
102
{ACAD_REACTORS
330
389
102
}
100
AcDbProxyObject
 90
      499
 91
      500
 93
       86
310
405010041939BDC9B585B1
350
38C
340
38C
 94
        0
  0
DICTIONARY
  5
4B6
102
{ACAD_REACTORS
330
389
102
}
100
AcDbDictionary
  3
CEPSNTYPE
350
4C0
  3
FINGERPRINTGUID
350
4C1
  3
HYPERLINKBASE
350
4B9
  3
INSUNITS
350
4BF
  3
LAYOUTDICT
350
4BB
  3
LWETCUNION
350
4BE
  3
PLOTSETDICT
350
4BC
  3
PLOTSTYLNAMDICT
350
4BD
  3
PSVPSCALE
350
4C3
  3
PUCSBASE
350
4C6
  3
PUCSORGBACK
350
4CC
  3
PUCSORGBOTTOM
350
4C8
  3
PUCSORGFRONT
350
4CB
  3
PUCSORGLEFT
350
4C9
  3
PUCSORGRIGHT
350
4CA
  3
PUCSORGTOP
350
4C7
  3
PUCSORTHOREF
350
4C4
  3
PUCSORTHOVIEW
350
4C5
  3
STYLESHEET
350
4BA
  3
TSTACKALIGN
350
4B7
  3
TSTACKSIZE
350
4B8
  3
UCSBASE
350
4CF
  3
UCSORGBACK
350
4D5
  3
UCSORGBOTTOM
350
4D1
  3
UCSORGFRONT
350
4D4
  3
UCSORGLEFT
350
4D2
  3
UCSORGRIGHT
350
4D3
  3
UCSORGTOP
350
4D0
  3
UCSORTHOREF
350
4CD
  3
UCSORTHOVIEW
350
4CE
  3
VERSIONGUID
350
4C2
  0
DICTIONARY
  5
4DE
102
{ACAD_REACTORS
330
389
102
}
100
AcDbDictionary
  3
DIMASSOC
350
4DF
  0
XRECORD
  5
4B5
102
{ACAD_REACTORS
330
4B4
102
}
100
AcDbXrecord
102
EXTNAMES
  1
*ACTIVE
  2
*Active
102
UCS
 74
     0
 71
     0
 10
0.0
 20
0.0
 30
0.0
 10
1.0
 20
0.0
 30
0.0
 10
0.0
 20
1.0
 30
0.0
146
0.0
 79
     0
102
VIEW
281
     0
  0
XRECORD
  5
4B1
102
{ACAD_REACTORS
330
4B0
102
}
100
AcDbXrecord
102
EXTNAMES
  1
BYBLOCK
  2
ByBlock
  0
XRECORD
  5
4B3
102
{ACAD_REACTORS
330
4B2
102
}
100
AcDbXrecord
102
EXTNAMES
  1
BYLAYER
  2
ByLayer
  0
XRECORD
  5
4DD
102
{ACAD_REACTORS
330
4DC
102
}
100
AcDbXrecord
102
ACADR14ROUNDTRIP
1000
DSTYLE
1002
{
1070
   279
 70
     2
1002
}
  0
XRECORD
  5
4DB
102
{ACAD_REACTORS
330
4AC
102
}
100
AcDbXrecord
340
39B
  0
XRECORD
  5
4AD
102
{ACAD_REACTORS
330
4AC
102
}
100
AcDbXrecord
102
EXTNAMES
  1
*MODEL_SPACE
  2
*Model_Space
  0
XRECORD
  5
4DA
102
{ACAD_REACTORS
330
4AE
102
}
100
AcDbXrecord
340
397
  0
XRECORD
  5
4AF
102
{ACAD_REACTORS
330
4AE
102
}
100
AcDbXrecord
102
EXTNAMES
  1
*PAPER_SPACE
  2
*Paper_Space
  0
DICTIONARY
  5
4D8
100
AcDbDictionary
280
     1
  3
ACAD_XREC_ROUNDTRIP
360
4D9
  0
ACAD_PROXY_OBJECT
  5
39E
102
{ACAD_REACTORS
330
396
102
}
100
AcDbProxyObject
 90
      499
 91
      502
 93
      836
310
932433A5C50524F4752414D2046494C45535C4D4454365C706C6F74746572735C526F6C616E64204458592D313235302E7063332C01AAAAAAAAA5A69054D6F64656C901A800000000000000000000000000000000000000000000A1000000000000008902A6A6AAAA0
330
39B
330
0
340
0
340
0
 94
        0
  0
ACAD_PROXY_OBJECT
  5
39A
102
{ACAD_REACTORS
330
396
102
}
100
AcDbProxyObject
 90
      499
 91
      502
 93
     1252
310
932433A5C50524F4752414D2046494C45535C4D4454365C706C6F74746572735C526F6C616E64204458592D313235302E7063332C00AAAAAA416AA59106906DAB2B1B3C43140501A800000000000000000000000000000000000000000101E900000000000241C902A6A6A10232D5E076BC5510408CB5781DAF154410232D5
310
E076BC5510408CB5781DAF15C410232D5E076BC5710408CB5781DAF15C40
330
397
330
0
340
0
340
0
 94
        0
  0
DICTIONARY
  5
4D6
100
AcDbDictionary
280
     1
  3
ACAD_XREC_ROUNDTRIP
360
4D7
  0
MLINESTYLE
  5
394
102
{ACAD_REACTORS
330
393
102
}
100
AcDbMlineStyle
  2
STANDARD
 70
     0
  3

 62
   256
 51
90.0
 52
90.0
 71
     2
 49
0.5
 62
   256
  6
BYLAYER
 49
-0.5
 62
   256
  6
BYLAYER
  0
ACAD_PROXY_OBJECT
  5
38C
102
{ACAD_REACTORS
330
38B
102
}
100
AcDbProxyObject
 90
      499
 91
      501
 93
        0
 94
        0
  0
XRECORD
  5
4C0
102
{ACAD_REACTORS
330
4B6
102
}
100
AcDbXrecord
 90
        0
  0
XRECORD
  5
4C1
102
{ACAD_REACTORS
330
4B6
102
}
100
AcDbXrecord
  1
{37154263-B770-47CA-854E-20A7A15BBB7D}
  0
XRECORD
  5
4B9
102
{ACAD_REACTORS
330
4B6
102
}
100
AcDbXrecord
  1

  0
XRECORD
  5
4BF
102
{ACAD_REACTORS
330
4B6
102
}
100
AcDbXrecord
 90
        0
  0
XRECORD
  5
4BB
102
{ACAD_REACTORS
330
4B6
102
}
100
AcDbXrecord
340
396
  0
XRECORD
  5
4BE
102
{ACAD_REACTORS
330
4B6
102
}
100
AcDbXrecord
 90
    10781
  0
XRECORD
  5
4BC
102
{ACAD_REACTORS
330
4B6
102
}
100
AcDbXrecord
340
395
  0
XRECORD
  5
4BD
102
{ACAD_REACTORS
330
4B6
102
}
100
AcDbXrecord
340
38B
  0
XRECORD
  5
4C3
102
{ACAD_REACTORS
330
4B6
102
}
100
AcDbXrecord
 40
0.0
  0
XRECORD
  5
4C6
102
{ACAD_REACTORS
330
4B6
102
}
100
AcDbXrecord
340
0
  0
XRECORD
  5
4CC
102
{ACAD_REACTORS
330
4B6
102
}
100
AcDbXrecord
 10
0.0
 20
0.0
 30
0.0
  0
XRECORD
  5
4C8
102
{ACAD_REACTORS
330
4B6
102
}
100
AcDbXrecord
 10
0.0
 20
0.0
 30
0.0
  0
XRECORD
  5
4CB
102
{ACAD_REACTORS
330
4B6
102
}
100
AcDbXrecord
 10
0.0
 20
0.0
 30
0.0
  0
XRECORD
  5
4C9
102
{ACAD_REACTORS
330
4B6
102
}
100
AcDbXrecord
 10
0.0
 20
0.0
 30
0.0
  0
XRECORD
  5
4CA
102
{ACAD_REACTORS
330
4B6
102
}
100
AcDbXrecord
 10
0.0
 20
0.0
 30
0.0
  0
XRECORD
  5
4C7
102
{ACAD_REACTORS
330
4B6
102
}
100
AcDbXrecord
 10
0.0
 20
0.0
 30
0.0
  0
XRECORD
  5
4C4
102
{ACAD_REACTORS
330
4B6
102
}
100
AcDbXrecord
340
0
  0
XRECORD
  5
4C5
102
{ACAD_REACTORS
330
4B6
102
}
100
AcDbXrecord
 70
     0
  0
XRECORD
  5
4BA
102
{ACAD_REACTORS
330
4B6
102
}
100
AcDbXrecord
  1

  0
XRECORD
  5
4B7
102
{ACAD_REACTORS
330
4B6
102
}
100
AcDbXrecord
 90
        1
  0
XRECORD
  5
4B8
102
{ACAD_REACTORS
330
4B6
102
}
100
AcDbXrecord
 90
       70
  0
XRECORD
  5
4CF
102
{ACAD_REACTORS
330
4B6
102
}
100
AcDbXrecord
340
0
  0
XRECORD
  5
4D5
102
{ACAD_REACTORS
330
4B6
102
}
100
AcDbXrecord
 10
0.0
 20
0.0
 30
0.0
  0
XRECORD
  5
4D1
102
{ACAD_REACTORS
330
4B6
102
}
100
AcDbXrecord
 10
0.0
 20
0.0
 30
0.0
  0
XRECORD
  5
4D4
102
{ACAD_REACTORS
330
4B6
102
}
100
AcDbXrecord
 10
0.0
 20
0.0
 30
0.0
  0
XRECORD
  5
4D2
102
{ACAD_REACTORS
330
4B6
102
}
100
AcDbXrecord
 10
0.0
 20
0.0
 30
0.0
  0
XRECORD
  5
4D3
102
{ACAD_REACTORS
330
4B6
102
}
100
AcDbXrecord
 10
0.0
 20
0.0
 30
0.0
  0
XRECORD
  5
4D0
102
{ACAD_REACTORS
330
4B6
102
}
100
AcDbXrecord
 10
0.0
 20
0.0
 30
0.0
  0
XRECORD
  5
4CD
102
{ACAD_REACTORS
330
4B6
102
}
100
AcDbXrecord
340
0
  0
XRECORD
  5
4CE
102
{ACAD_REACTORS
330
4B6
102
}
100
AcDbXrecord
 70
     0
  0
XRECORD
  5
4C2
102
{ACAD_REACTORS
330
4B6
102
}
100
AcDbXrecord
  1
{D17B56BF-4B39-46AF-867D-41865DB2FD17}
  0
DICTIONARYVAR
  5
4DF
102
{ACAD_REACTORS
330
4DE
102
}
100
DictionaryVariables
280
     0
  1
1
  0
XRECORD
  5
4D9
102
{ACAD_REACTORS
330
4D8
102
}
100
AcDbXrecord
102
EXTNAMES
  1
MODEL
  2
Model
  0
XRECORD
  5
4D7
102
{ACAD_REACTORS
330
4D6
102
}
100
AcDbXrecord
102
EXTNAMES
  1
STANDARD
  2
Standard
  0
ENDSEC
  0
EOF
