  0
SECTION
  2
HEADER
  9
$ACADVER
  1
AC1014
  9
$ACADMAINTVER
 70
     0
  9
$DWGCODEPAGE
  3
ANSI_932
  9
$INSBASE
 10
0.0
 20
0.0
 30
0.0
  9
$EXTMIN
 10
101.106304
 20
62.110921
 30
0.0
  9
$EXTMAX
 10
218.854569
 20
126.301294
 30
0.0
  9
$LIMMIN
 10
0.0
 20
0.0
  9
$LIMMAX
 10
297.0
 20
210.0
  9
$ORTHOMODE
 70
     1
  9
$REGENMODE
 70
     1
  9
$FILLMODE
 70
     1
  9
$QTEXTMODE
 70
     0
  9
$MIRRTEXT
 70
     1
  9
$DRAGMODE
 70
     2
  9
$LTSCALE
 40
0.25
  9
$OSMODE
 70
    37
  9
$ATTMODE
 70
     1
  9
$TEXTSIZE
 40
4.0
  9
$TRACEWID
 40
1.0
  9
$TEXTSTYLE
  7
STANDARD
  9
$CLAYER
  8
0
  9
$CELTYPE
  6
BYLAYER
  9
$CECOLOR
 62
   256
  9
$CELTSCALE
 40
1.0
  9
$DELOBJ
 70
     1
  9
$DISPSILH
 70
     0
  9
$DIMSCALE
 40
1.0
  9
$DIMASZ
 40
3.0
  9
$DIMEXO
 40
1.0
  9
$DIMDLI
 40
10.0
  9
$DIMRND
 40
0.0
  9
$DIMDLE
 40
0.0
  9
$DIMEXE
 40
1.0
  9
$DIMTP
 40
0.0
  9
$DIMTM
 40
0.0
  9
$DIMTXT
 40
3.2
  9
$DIMCEN
 40
0.0
  9
$DIMTSZ
 40
0.0
  9
$DIMTOL
 70
     0
  9
$DIMLIM
 70
     0
  9
$DIMTIH
 70
     0
  9
$DIMTOH
 70
     0
  9
$DIMSE1
 70
     0
  9
$DIMSE2
 70
     0
  9
$DIMTAD
 70
     3
  9
$DIMZIN
 70
     8
  9
$DIMBLK
  1
ARROW
  9
$DIMASO
 70
     1
  9
$DIMSHO
 70
     1
  9
$DIMPOST
  1

  9
$DIMAPOST
  1

  9
$DIMALT
 70
     0
  9
$DIMALTD
 70
     2
  9
$DIMALTF
 40
0.04
  9
$DIMLFAC
 40
1.0
  9
$DIMTOFL
 70
     1
  9
$DIMTVP
 40
1.0
  9
$DIMTIX
 70
     0
  9
$DIMSOXD
 70
     0
  9
$DIMSAH
 70
     1
  9
$DIMBLK1
  1
OPEN
  9
$DIMBLK2
  1
OPEN
  9
$DIMSTYLE
  2
AA1
  9
$DIMCLRD
 70
     0
  9
$DIMCLRE
 70
     0
  9
$DIMCLRT
 70
     0
  9
$DIMTFAC
 40
0.6
  9
$DIMGAP
 40
1.0
  9
$DIMJUST
 70
     0
  9
$DIMSD1
 70
     0
  9
$DIMSD2
 70
     0
  9
$DIMTOLJ
 70
     1
  9
$DIMTZIN
 70
     0
  9
$DIMALTZ
 70
     0
  9
$DIMALTTZ
 70
     0
  9
$DIMFIT
 70
     3
  9
$DIMUPT
 70
     0
  9
$DIMUNIT
 70
     2
  9
$DIMDEC
 70
     4
  9
$DIMTDEC
 70
     4
  9
$DIMALTU
 70
     2
  9
$DIMALTTD
 70
     2
  9
$DIMTXSTY
  7
STANDARD
  9
$DIMAUNIT
 70
     0
  9
$LUNITS
 70
     2
  9
$LUPREC
 70
     2
  9
$SKETCHINC
 40
1.0
  9
$FILLETRAD
 40
10.0
  9
$AUNITS
 70
     0
  9
$AUPREC
 70
     0
  9
$MENU
  1
acad
  9
$ELEVATION
 40
0.0
  9
$PELEVATION
 40
0.0
  9
$THICKNESS
 40
0.0
  9
$LIMCHECK
 70
     0
  9
$BLIPMODE
 70
     0
  9
$CHAMFERA
 40
0.0
  9
$CHAMFERB
 40
0.0
  9
$CHAMFERC
 40
0.0
  9
$CHAMFERD
 40
0.0
  9
$SKPOLY
 70
     0
  9
$TDCREATE
 40
2451466.511327662
  9
$TDUPDATE
 40
2452821.728017014
  9
$TDINDWG
 40
0.0002994213
  9
$TDUSRTIMER
 40
0.0002994213
  9
$USRTIMER
 70
     1
  9
$ANGBASE
 50
0.0
  9
$ANGDIR
 70
     0
  9
$PDMODE
 70
     1
  9
$PDSIZE
 40
0.0
  9
$PLINEWID
 40
0.0
  9
$COORDS
 70
     1
  9
$SPLFRAME
 70
     0
  9
$SPLINETYPE
 70
     6
  9
$SPLINESEGS
 70
     8
  9
$ATTDIA
 70
     0
  9
$ATTREQ
 70
     1
  9
$HANDLING
 70
     1
  9
$HANDSEED
  5
23A
  9
$SURFTAB1
 70
     6
  9
$SURFTAB2
 70
     6
  9
$SURFTYPE
 70
     6
  9
$SURFU
 70
     6
  9
$SURFV
 70
     6
  9
$UCSNAME
  2

  9
$UCSORG
 10
0.0
 20
0.0
 30
0.0
  9
$UCSXDIR
 10
1.0
 20
0.0
 30
0.0
  9
$UCSYDIR
 10
0.0
 20
1.0
 30
0.0
  9
$PUCSNAME
  2

  9
$PUCSORG
 10
0.0
 20
0.0
 30
0.0
  9
$PUCSXDIR
 10
1.0
 20
0.0
 30
0.0
  9
$PUCSYDIR
 10
0.0
 20
1.0
 30
0.0
  9
$USERI1
 70
     0
  9
$USERI2
 70
     0
  9
$USERI3
 70
     0
  9
$USERI4
 70
     0
  9
$USERI5
 70
     0
  9
$USERR1
 40
0.0
  9
$USERR2
 40
0.0
  9
$USERR3
 40
0.0
  9
$USERR4
 40
0.0
  9
$USERR5
 40
0.0
  9
$WORLDVIEW
 70
     1
  9
$SHADEDGE
 70
     3
  9
$SHADEDIF
 70
    70
  9
$TILEMODE
 70
     1
  9
$MAXACTVP
 70
    16
  9
$PINSBASE
 10
0.0
 20
0.0
 30
0.0
  9
$PLIMCHECK
 70
     0
  9
$PEXTMIN
 10
1.000000E+20
 20
1.000000E+20
 30
1.000000E+20
  9
$PEXTMAX
 10
-1.000000E+20
 20
-1.000000E+20
 30
-1.000000E+20
  9
$PLIMMIN
 10
0.0
 20
0.0
  9
$PLIMMAX
 10
420.0
 20
297.0
  9
$UNITMODE
 70
     0
  9
$VISRETAIN
 70
     0
  9
$PLINEGEN
 70
     0
  9
$PSLTSCALE
 70
     0
  9
$TREEDEPTH
 70
  3020
  9
$PICKSTYLE
 70
     1
  9
$CMLSTYLE
  2
STANDARD
  9
$CMLJUST
 70
     0
  9
$CMLSCALE
 40
1.0
  9
$PROXYGRAPHICS
 70
     1
  9
$MEASUREMENT
 70
     0
  0
ENDSEC
  0
SECTION
  2
CLASSES
  0
CLASS
  1
ACDBDICTIONARYWDFLT
  2
AcDbDictionaryWithDefault
  3
AutoCAD 2000
 90
        0
280
     0
281
     0
  0
CLASS
  1
ACDBPLACEHOLDER
  2
AcDbPlaceHolder
  3
AutoCAD 2000
 90
        0
280
     0
281
     0
  0
CLASS
  1
LAYOUT
  2
AcDbLayout
  3
AutoCAD 2000
 90
        0
280
     0
281
     0
  0
CLASS
  1
DICTIONARYVAR
  2
AcDbDictionaryVar
  3
"AutoCAD"
 90
        0
280
     0
281
     0
  0
CLASS
  1
LONG_TRANSACTION
  2
AcDbLongTransaction
  3
AutoCAD 2000
 90
        0
280
     0
281
     0
  0
CLASS
  1
LWPOLYLINE
  2
AcDbPolyline
  3
"AutoCAD"
 90
        0
280
     0
281
     1
  0
CLASS
  1
HATCH
  2
AcDbHatch
  3
"ACAD_SEDONA"
 90
        0
280
     0
281
     1
  0
CLASS
  1
XRECORD
  2
AcDbXrecord
  3
"<Built In>"
 90
        0
280
     0
281
     0
  0
ENDSEC
  0
SECTION
  2
TABLES
  0
TABLE
  2
VPORT
  5
101
100
AcDbSymbolTable
 70
     1
  0
VPORT
  5
201
102
{ACAD_XDICTIONARY
360
20A
102
}
100
AcDbSymbolTableRecord
100
AcDbViewportTableRecord
  2
*ACTIVE
 70
     0
 10
0.0
 20
0.0
 11
1.0
 21
1.0
 12
148.500001
 22
157.716653
 13
0.0
 23
0.0
 14
10.0
 24
10.0
 15
0.0
 25
0.0
 16
0.0
 26
0.0
 36
1.0
 17
0.0
 27
0.0
 37
0.0
 40
346.308221
 41
1.530211
 42
50.0
 43
0.0
 44
0.0
 50
0.0
 51
0.0
 71
     0
 72
   100
 73
     1
 74
     0
 75
     0
 76
     0
 77
     0
 78
     1
  0
ENDTAB
  0
TABLE
  2
LTYPE
  5
FE
100
AcDbSymbolTable
 70
     3
  0
LTYPE
  5
10C
102
{ACAD_XDICTIONARY
360
206
102
}
100
AcDbSymbolTableRecord
100
AcDbLinetypeTableRecord
  2
BYBLOCK
 70
     0
  3

 72
    65
 73
     0
 40
0.0
  0
LTYPE
  5
10D
102
{ACAD_XDICTIONARY
360
208
102
}
100
AcDbSymbolTableRecord
100
AcDbLinetypeTableRecord
  2
BYLAYER
 70
     0
  3

 72
    65
 73
     0
 40
0.0
  0
LTYPE
  5
10E
100
AcDbSymbolTableRecord
100
AcDbLinetypeTableRecord
  2
CONTINUOUS
 70
     0
  3
Solid line
 72
    65
 73
     0
 40
0.0
  0
LTYPE
  5
11C
100
AcDbSymbolTableRecord
100
AcDbLinetypeTableRecord
  2
CENTER
 70
     0
  3
____ _ ____ _ ____ _ ____ _ ____ _ ____ _ ____ 
 72
    65
 73
     4
 40
50.8
 49
31.75
 74
     0
 49
-6.35
 74
     0
 49
6.35
 74
     0
 49
-6.35
 74
     0
  0
LTYPE
  5
11D
100
AcDbSymbolTableRecord
100
AcDbLinetypeTableRecord
  2
DASHED
 70
     0
  3
__ __ __ __ __ __ __ __ __ __ __ __ __ __ __ __
 72
    65
 73
     2
 40
0.75
 49
0.5
 74
     0
 49
-0.25
 74
     0
  0
ENDTAB
  0
TABLE
  2
LAYER
  5
FB
100
AcDbSymbolTable
 70
     3
  0
LAYER
  5
109
100
AcDbSymbolTableRecord
100
AcDbLayerTableRecord
  2
0
 70
     0
 62
     7
  6
CONTINUOUS
  0
LAYER
  5
11E
100
AcDbSymbolTableRecord
100
AcDbLayerTableRecord
  2
DIMENSION
 70
     0
 62
    -4
  6
CONTINUOUS
  0
LAYER
  5
11F
100
AcDbSymbolTableRecord
100
AcDbLayerTableRecord
  2
CENTER
 70
     0
 62
     1
  6
CENTER
  0
ENDTAB
  0
TABLE
  2
STYLE
  5
FC
100
AcDbSymbolTable
 70
     1
  0
STYLE
  5
10A
100
AcDbSymbolTableRecord
100
AcDbTextStyleTableRecord
  2
STANDARD
 70
     0
 40
0.0
 41
1.0
 50
0.0
 71
     0
 42
4.0
  3
txt
  4

  0
ENDTAB
  0
TABLE
  2
VIEW
  5
FF
100
AcDbSymbolTable
 70
     0
  0
ENDTAB
  0
TABLE
  2
UCS
  5
100
100
AcDbSymbolTable
 70
     0
  0
ENDTAB
  0
TABLE
  2
APPID
  5
102
100
AcDbSymbolTable
 70
     1
  0
APPID
  5
10B
100
AcDbSymbolTableRecord
100
AcDbRegAppTableRecord
  2
ACAD
 70
     0
  0
ENDTAB
  0
TABLE
  2
DIMSTYLE
  5
103
100
AcDbSymbolTable
 70
     1
  0
DIMSTYLE
105
120
102
{ACAD_XDICTIONARY
360
233
102
}
100
AcDbSymbolTableRecord
100
AcDbDimStyleTableRecord
  2
AA1
 70
     0
  3

  4

  5

  6

  7

 40
1.0
 41
3.0
 42
1.0
 43
10.0
 44
1.0
 45
0.0
 46
0.0
 47
0.0
 48
0.0
140
3.2
141
0.0
142
0.0
143
0.04
144
1.0
145
1.0
146
0.6
147
0.0
 71
     0
 72
     0
 73
     0
 74
     0
 75
     0
 76
     0
 77
     0
 78
     8
170
     0
171
     2
172
     1
173
     0
174
     0
175
     0
176
     0
177
     0
178
     0
270
     2
271
     2
272
     2
273
     2
274
     2
340
10A
275
     0
280
     0
281
     0
282
     0
283
     1
284
     8
285
     8
286
     8
287
     5
288
     0
  0
ENDTAB
  0
TABLE
  2
BLOCK_RECORD
  5
FA
100
AcDbSymbolTable
 70
     4
  0
BLOCK_RECORD
  5
117
102
{ACAD_XDICTIONARY
360
202
102
}
100
AcDbSymbolTableRecord
100
AcDbBlockTableRecord
  2
*MODEL_SPACE
  0
BLOCK_RECORD
  5
113
102
{ACAD_XDICTIONARY
360
204
102
}
100
AcDbSymbolTableRecord
100
AcDbBlockTableRecord
  2
*PAPER_SPACE
  0
BLOCK_RECORD
  5
122
100
AcDbSymbolTableRecord
100
AcDbBlockTableRecord
  2
$MODEL_SPACE
  0
BLOCK_RECORD
  5
125
100
AcDbSymbolTableRecord
100
AcDbBlockTableRecord
  2
$PAPER_SPACE
  0
BLOCK_RECORD
  5
128
100
AcDbSymbolTableRecord
100
AcDbBlockTableRecord
  2
ARROW
  0
BLOCK_RECORD
  5
12E
100
AcDbSymbolTableRecord
100
AcDbBlockTableRecord
  2
_OPEN
  0
ENDTAB
  0
ENDSEC
  0
SECTION
  2
BLOCKS
  0
BLOCK
  5
118
100
AcDbEntity
  8
0
100
AcDbBlockBegin
  2
*MODEL_SPACE
 70
     0
 10
0.0
 20
0.0
 30
0.0
  3
*MODEL_SPACE
  1

  0
ENDBLK
  5
119
100
AcDbEntity
  8
0
100
AcDbBlockEnd
  0
BLOCK
  5
114
100
AcDbEntity
 67
     1
  8
0
100
AcDbBlockBegin
  2
*PAPER_SPACE
 70
     0
 10
0.0
 20
0.0
 30
0.0
  3
*PAPER_SPACE
  1

  0
ENDBLK
  5
115
100
AcDbEntity
 67
     1
  8
0
100
AcDbBlockEnd
  0
BLOCK
  5
123
100
AcDbEntity
  8
0
100
AcDbBlockBegin
  2
$MODEL_SPACE
 70
     0
 10
0.0
 20
0.0
 30
0.0
  3
$MODEL_SPACE
  1

  0
ENDBLK
  5
124
100
AcDbEntity
  8
0
100
AcDbBlockEnd
  0
BLOCK
  5
126
100
AcDbEntity
  8
0
100
AcDbBlockBegin
  2
$PAPER_SPACE
 70
     0
 10
0.0
 20
0.0
 30
0.0
  3
$PAPER_SPACE
  1

  0
ENDBLK
  5
127
100
AcDbEntity
  8
0
100
AcDbBlockEnd
  0
BLOCK
  5
129
100
AcDbEntity
  8
0
100
AcDbBlockBegin
  2
ARROW
 70
     0
 10
0.0
 20
0.0
 30
0.0
  3
ARROW
  1

  0
LINE
  5
12A
100
AcDbEntity
  8
DIMENSION
100
AcDbLine
 10
0.0
 20
0.0
 30
0.0
 11
-1.0
 21
0.176327
 31
0.0
  0
LINE
  5
12B
100
AcDbEntity
  8
DIMENSION
100
AcDbLine
 10
0.0
 20
0.0
 30
0.0
 11
-1.0
 21
-0.176327
 31
0.0
  0
LINE
  5
12C
100
AcDbEntity
  8
DIMENSION
100
AcDbLine
 10
-1.0
 20
0.0
 30
0.0
 11
0.0
 21
0.0
 31
0.0
  0
ENDBLK
  5
12D
100
AcDbEntity
  8
0
100
AcDbBlockEnd
  0
BLOCK
  5
12F
100
AcDbEntity
  8
0
100
AcDbBlockBegin
  2
_OPEN
 70
     0
 10
0.0
 20
0.0
 30
0.0
  3
_OPEN
  1

  0
LINE
  5
130
100
AcDbEntity
  8
0
  6
BYBLOCK
 62
     0
100
AcDbLine
 10
-1.0
 20
0.166667
 30
0.0
 11
0.0
 21
0.0
 31
0.0
  0
LINE
  5
131
100
AcDbEntity
  8
0
  6
BYBLOCK
 62
     0
100
AcDbLine
 10
0.0
 20
0.0
 30
0.0
 11
-1.0
 21
-0.166667
 31
0.0
  0
LINE
  5
132
100
AcDbEntity
  8
0
  6
BYBLOCK
 62
     0
100
AcDbLine
 10
0.0
 20
0.0
 30
0.0
 11
-1.0
 21
0.0
 31
0.0
  0
ENDBLK
  5
133
100
AcDbEntity
  8
0
100
AcDbBlockEnd
  0
ENDSEC
  0
SECTION
  2
ENTITIES
  0
LINE
  5
134
100
AcDbEntity
  8
0
100
AcDbLine
 10
115.318937
 20
108.906107
 30
0.0
 11
115.318937
 21
79.506107
 31
0.0
  0
LINE
  5
135
100
AcDbEntity
  8
0
100
AcDbLine
 10
113.968937
 20
108.906107
 30
0.0
 11
113.968937
 21
79.506107
 31
0.0
  0
CIRCLE
  5
136
100
AcDbEntity
  8
0
100
AcDbCircle
 10
109.968937
 20
104.456107
 30
0.0
 40
2.38125
  0
LINE
  5
137
100
AcDbEntity
  8
0
100
AcDbLine
 10
106.601937
 20
105.056097
 30
0.0
 11
106.601937
 21
102.756097
 31
0.0
  0
LINE
  5
138
100
AcDbEntity
  8
0
100
AcDbLine
 10
106.401937
 20
105.139087
 30
0.0
 11
106.401937
 21
102.756097
 31
0.0
  0
LINE
  5
139
100
AcDbEntity
  8
0
100
AcDbLine
 10
113.535937
 20
105.139087
 30
0.0
 11
113.535937
 21
102.756097
 31
0.0
  0
LINE
  5
13A
100
AcDbEntity
  8
0
100
AcDbLine
 10
113.335937
 20
105.056097
 30
0.0
 11
113.335937
 21
102.756097
 31
0.0
  0
LINE
  5
13B
100
AcDbEntity
  8
0
100
AcDbLine
 10
105.968937
 20
80.806107
 30
0.0
 11
105.968937
 21
107.606107
 31
0.0
  0
LINE
  5
13C
100
AcDbEntity
  8
0
100
AcDbLine
 10
116.968937
 20
120.206107
 30
0.0
 11
116.968937
 21
68.206107
 31
0.0
  0
LINE
  5
13D
100
AcDbEntity
  8
0
100
AcDbLine
 10
103.968937
 20
111.206107
 30
0.0
 11
103.968937
 21
77.206107
 31
0.0
  0
LINE
  5
140
100
AcDbEntity
  8
CENTER
  6
CENTER
 62
     1
100
AcDbLine
 10
101.106304
 20
94.206107
 30
0.0
 11
120.187734
 21
94.206107
 31
0.0
  0
LINE
  5
141
100
AcDbEntity
  8
CENTER
  6
CENTER
 62
     1
100
AcDbLine
 10
119.184778
 20
73.206107
 30
0.0
 11
101.106304
 21
73.206107
 31
0.0
  0
LINE
  5
142
100
AcDbEntity
  8
0
100
AcDbLine
 10
105.968937
 20
68.206107
 30
0.0
 11
105.968937
 21
77.206107
 31
0.0
  0
LINE
  5
143
100
AcDbEntity
  8
0
100
AcDbLine
 10
112.568937
 20
69.206107
 30
0.0
 11
112.568937
 21
77.206107
 31
0.0
  0
LINE
  5
144
100
AcDbEntity
  8
0
100
AcDbLine
 10
116.968937
 20
68.206107
 30
0.0
 11
105.968937
 21
68.206107
 31
0.0
  0
LINE
  5
145
100
AcDbEntity
  8
0
100
AcDbLine
 10
116.968937
 20
69.206107
 30
0.0
 11
112.568937
 21
69.206107
 31
0.0
  0
LINE
  5
146
100
AcDbEntity
  8
0
100
AcDbLine
 10
112.568937
 20
71.056107
 30
0.0
 11
105.968937
 21
71.056107
 31
0.0
  0
LINE
  5
147
100
AcDbEntity
  8
0
 62
     3
100
AcDbLine
 10
112.568937
 20
70.706107
 30
0.0
 11
105.968937
 21
70.706107
 31
0.0
  0
LINE
  5
148
100
AcDbEntity
  8
0
100
AcDbLine
 10
116.968937
 20
77.206107
 30
0.0
 11
112.568937
 21
77.206107
 31
0.0
  0
ARC
  5
149
100
AcDbEntity
  8
0
100
AcDbCircle
 10
113.368937
 20
87.606107
 30
0.0
 40
0.6
100
AcDbArc
 50
0.0
 51
90.0
  0
LINE
  5
14A
100
AcDbEntity
  8
0
100
AcDbLine
 10
113.768937
 20
86.056127
 30
0.0
 11
113.468937
 21
86.056127
 31
0.0
  0
LINE
  5
14B
100
AcDbEntity
  8
0
100
AcDbLine
 10
113.868937
 20
81.756127
 30
0.0
 11
113.408937
 21
81.756127
 31
0.0
  0
ARC
  5
14C
100
AcDbEntity
  8
0
100
AcDbCircle
 10
113.368937
 20
80.806107
 30
0.0
 40
0.6
100
AcDbArc
 50
270.0
 51
0.0
  0
LINE
  5
14D
100
AcDbEntity
  8
0
100
AcDbLine
 10
106.568937
 20
80.206107
 30
0.0
 11
113.968937
 21
80.206107
 31
0.0
  0
ARC
  5
14E
100
AcDbEntity
  8
0
100
AcDbCircle
 10
106.568937
 20
80.806107
 30
0.0
 40
0.6
100
AcDbArc
 50
180.0
 51
270.0
  0
LINE
  5
14F
100
AcDbEntity
  8
0
100
AcDbLine
 10
112.568937
 20
75.356107
 30
0.0
 11
105.968937
 21
75.356107
 31
0.0
  0
LINE
  5
150
100
AcDbEntity
  8
0
 62
     3
100
AcDbLine
 10
112.568937
 20
75.706107
 30
0.0
 11
105.968937
 21
75.706107
 31
0.0
  0
LINE
  5
151
100
AcDbEntity
  8
0
100
AcDbLine
 10
103.968937
 20
77.206107
 30
0.0
 11
105.968937
 21
77.206107
 31
0.0
  0
LINE
  5
152
100
AcDbEntity
  8
0
100
AcDbLine
 10
107.607031
 20
85.456107
 30
0.0
 11
108.119517
 21
85.456107
 31
0.0
  0
LINE
  5
153
100
AcDbEntity
  8
0
100
AcDbLine
 10
107.471529
 20
82.456127
 30
0.0
 11
108.119527
 21
82.456137
 31
0.0
  0
LINE
  5
154
100
AcDbEntity
  8
0
100
AcDbLine
 10
106.568937
 20
88.206107
 30
0.0
 11
113.368937
 21
88.206107
 31
0.0
  0
CIRCLE
  5
155
100
AcDbEntity
  8
0
100
AcDbCircle
 10
109.968937
 20
83.956107
 30
0.0
 40
2.38125
  0
LINE
  5
156
100
AcDbEntity
  8
0
100
AcDbLine
 10
106.401937
 20
83.273127
 30
0.0
 11
106.401937
 21
85.656117
 31
0.0
  0
LINE
  5
157
100
AcDbEntity
  8
0
100
AcDbLine
 10
106.601937
 20
83.356117
 30
0.0
 11
106.601937
 21
85.656117
 31
0.0
  0
LINE
  5
158
100
AcDbEntity
  8
0
100
AcDbLine
 10
103.968937
 20
82.206107
 30
0.0
 11
105.968937
 21
82.206107
 31
0.0
  0
ARC
  5
159
100
AcDbEntity
  8
0
100
AcDbCircle
 10
107.471531
 20
82.356127
 30
0.0
 40
0.1
100
AcDbArc
 50
90.000885
 51
175.003239
  0
LINE
  5
15A
100
AcDbEntity
  8
0
100
AcDbLine
 10
107.307252
 20
81.6253
 30
0.0
 11
107.371911
 21
82.364837
 31
0.0
  0
ARC
  5
15B
100
AcDbEntity
  8
0
100
AcDbCircle
 10
107.00887
 20
81.651063
 30
0.0
 40
0.1
100
AcDbArc
 50
219.997846
 51
357.180215
  0
LINE
  5
15C
100
AcDbEntity
  8
0
100
AcDbLine
 10
107.108749
 20
81.646144
 30
0.0
 11
107.151947
 21
82.523187
 31
0.0
  0
ARC
  5
15D
100
AcDbEntity
  8
0
100
AcDbCircle
 10
107.008392
 20
81.65143
 30
0.0
 40
0.3
100
AcDbArc
 50
219.998032
 51
355.003239
  0
LINE
  5
15E
100
AcDbEntity
  8
0
100
AcDbLine
 10
107.351937
 20
82.136117
 30
0.0
 11
107.351937
 21
82.606117
 31
0.0
  0
ARC
  5
15F
100
AcDbEntity
  8
0
100
AcDbCircle
 10
106.068937
 20
81.656127
 30
0.0
 40
0.1
100
AcDbArc
 50
90.0
 51
180.0
  0
ARC
  5
160
100
AcDbEntity
  8
0
100
AcDbCircle
 10
106.682163
 20
81.884662
 30
0.0
 40
0.2
100
AcDbArc
 50
129.913694
 51
219.998032
  0
LINE
  5
161
100
AcDbEntity
  8
0
100
AcDbLine
 10
106.706947
 20
82.166147
 30
0.0
 11
106.553837
 21
82.038065
 31
0.0
  0
LINE
  5
162
100
AcDbEntity
  8
0
100
AcDbLine
 10
106.068937
 20
81.756127
 30
0.0
 11
106.528937
 21
81.756127
 31
0.0
  0
LINE
  5
163
100
AcDbEntity
  8
0
100
AcDbLine
 10
106.52895
 20
81.75611
 30
0.0
 11
106.778572
 21
81.458601
 31
0.0
  0
LINE
  5
164
100
AcDbEntity
  8
0
100
AcDbLine
 10
106.681937
 20
81.885137
 30
0.0
 11
106.932263
 21
81.586788
 31
0.0
  0
LINE
  5
165
100
AcDbEntity
  8
0
100
AcDbLine
 10
107.351927
 20
82.606097
 30
0.0
 11
106.601927
 21
83.356097
 31
0.0
  0
LINE
  5
166
100
AcDbEntity
  8
0
100
AcDbLine
 10
106.706947
 20
82.166127
 30
0.0
 11
106.834937
 21
82.013147
 31
0.0
  0
LINE
  5
167
100
AcDbEntity
  8
0
100
AcDbLine
 10
106.834947
 20
82.013157
 30
0.0
 11
106.681957
 21
81.885167
 31
0.0
  0
LINE
  5
168
100
AcDbEntity
  8
0
100
AcDbLine
 10
107.151927
 20
82.523107
 30
0.0
 11
106.401937
 21
83.273097
 31
0.0
  0
ARC
  5
169
100
AcDbEntity
  8
0
100
AcDbCircle
 10
106.568937
 20
87.606107
 30
0.0
 40
0.6
100
AcDbArc
 50
90.0
 51
180.0
  0
LINE
  5
16A
100
AcDbEntity
  8
0
100
AcDbLine
 10
106.897778
 20
86.456107
 30
0.0
 11
106.962856
 21
86.456107
 31
0.0
  0
ARC
  5
16B
100
AcDbEntity
  8
0
100
AcDbCircle
 10
106.962856
 20
86.256107
 30
0.0
 40
0.2
100
AcDbArc
 50
20.008355
 51
90.0
  0
LINE
  5
16C
100
AcDbEntity
  8
0
100
AcDbLine
 10
107.150785
 20
86.324539
 30
0.0
 11
107.419102
 21
85.587676
 31
0.0
  0
ARC
  5
16D
100
AcDbEntity
  8
0
100
AcDbCircle
 10
107.607031
 20
85.656107
 30
0.0
 40
0.2
100
AcDbArc
 50
200.008355
 51
270.0
  0
LINE
  5
16E
100
AcDbEntity
  8
0
100
AcDbLine
 10
107.051937
 20
85.856117
 30
0.0
 11
107.051937
 21
85.656137
 31
0.0
  0
ARC
  5
16F
100
AcDbEntity
  8
0
100
AcDbCircle
 10
106.168937
 20
86.256127
 30
0.0
 40
0.2
100
AcDbArc
 50
180.0
 51
270.0
  0
LINE
  5
170
100
AcDbEntity
  8
0
100
AcDbLine
 10
106.168937
 20
86.056127
 30
0.0
 11
106.468937
 21
86.056127
 31
0.0
  0
ARC
  5
171
100
AcDbEntity
  8
0
100
AcDbCircle
 10
106.601937
 20
85.656117
 30
0.0
 40
0.2
100
AcDbArc
 50
90.0
 51
180.0
  0
ARC
  5
172
100
AcDbEntity
  8
0
100
AcDbCircle
 10
106.897778
 20
86.256107
 30
0.0
 40
0.2
100
AcDbArc
 50
90.0
 51
140.004804
  0
LINE
  5
173
100
AcDbEntity
  8
0
100
AcDbLine
 10
106.468957
 20
86.056147
 30
0.0
 11
106.744558
 21
86.384652
 31
0.0
  0
LINE
  5
174
100
AcDbEntity
  8
0
100
AcDbLine
 10
106.601937
 20
85.856117
 30
0.0
 11
107.051937
 21
85.856117
 31
0.0
  0
LINE
  5
175
100
AcDbEntity
  8
0
100
AcDbLine
 10
107.051937
 20
85.656117
 30
0.0
 11
106.601937
 21
85.656117
 31
0.0
  0
LINE
  5
176
100
AcDbEntity
  8
0
100
AcDbLine
 10
113.335937
 20
83.356117
 30
0.0
 11
113.335937
 21
85.656117
 31
0.0
  0
LINE
  5
177
100
AcDbEntity
  8
0
100
AcDbLine
 10
113.535937
 20
83.273127
 30
0.0
 11
113.535937
 21
85.656117
 31
0.0
  0
LINE
  5
178
100
AcDbEntity
  8
0
100
AcDbLine
 10
113.102927
 20
82.013157
 30
0.0
 11
113.255917
 21
81.885167
 31
0.0
  0
LINE
  5
179
100
AcDbEntity
  8
0
100
AcDbLine
 10
113.230927
 20
82.166127
 30
0.0
 11
113.102937
 21
82.013147
 31
0.0
  0
LINE
  5
17A
100
AcDbEntity
  8
0
100
AcDbLine
 10
113.255937
 20
81.885137
 30
0.0
 11
113.005611
 21
81.586788
 31
0.0
  0
LINE
  5
17B
100
AcDbEntity
  8
0
100
AcDbLine
 10
113.408924
 20
81.75611
 30
0.0
 11
113.159302
 21
81.458601
 31
0.0
  0
LINE
  5
17C
100
AcDbEntity
  8
0
100
AcDbLine
 10
113.230927
 20
82.166147
 30
0.0
 11
113.384038
 21
82.038065
 31
0.0
  0
ARC
  5
17D
100
AcDbEntity
  8
0
100
AcDbCircle
 10
113.255711
 20
81.884662
 30
0.0
 40
0.2
100
AcDbArc
 50
320.001968
 51
50.086306
  0
LINE
  5
17E
100
AcDbEntity
  8
0
100
AcDbLine
 10
112.585937
 20
82.136117
 30
0.0
 11
112.585937
 21
82.606117
 31
0.0
  0
LINE
  5
17F
100
AcDbEntity
  8
0
100
AcDbLine
 10
112.829125
 20
81.646144
 30
0.0
 11
112.785927
 21
82.523187
 31
0.0
  0
LINE
  5
180
100
AcDbEntity
  8
0
100
AcDbLine
 10
112.630622
 20
81.6253
 30
0.0
 11
112.565963
 21
82.364837
 31
0.0
  0
ARC
  5
181
100
AcDbEntity
  8
0
100
AcDbCircle
 10
112.466343
 20
82.356127
 30
0.0
 40
0.1
100
AcDbArc
 50
4.996761
 51
89.999115
  0
LINE
  5
182
100
AcDbEntity
  8
0
100
AcDbLine
 10
112.785947
 20
82.523107
 30
0.0
 11
113.535937
 21
83.273097
 31
0.0
  0
LINE
  5
183
100
AcDbEntity
  8
0
100
AcDbLine
 10
112.585947
 20
82.606097
 30
0.0
 11
113.335947
 21
83.356097
 31
0.0
  0
ARC
  5
184
100
AcDbEntity
  8
0
100
AcDbCircle
 10
112.929482
 20
81.65143
 30
0.0
 40
0.3
100
AcDbArc
 50
184.996761
 51
320.001968
  0
ARC
  5
185
100
AcDbEntity
  8
0
100
AcDbCircle
 10
112.929004
 20
81.651063
 30
0.0
 40
0.1
100
AcDbArc
 50
182.819785
 51
320.002154
  0
LINE
  5
186
100
AcDbEntity
  8
0
100
AcDbLine
 10
112.466345
 20
82.456127
 30
0.0
 11
111.818347
 21
82.456137
 31
0.0
  0
ARC
  5
187
100
AcDbEntity
  8
0
100
AcDbCircle
 10
113.335937
 20
85.656117
 30
0.0
 40
0.2
100
AcDbArc
 50
0.0
 51
90.0
  0
LINE
  5
188
100
AcDbEntity
  8
0
100
AcDbLine
 10
113.040096
 20
86.456107
 30
0.0
 11
112.975018
 21
86.456107
 31
0.0
  0
LINE
  5
189
100
AcDbEntity
  8
0
100
AcDbLine
 10
113.468917
 20
86.056147
 30
0.0
 11
113.193316
 21
86.384652
 31
0.0
  0
ARC
  5
18A
100
AcDbEntity
  8
0
100
AcDbCircle
 10
113.040096
 20
86.256107
 30
0.0
 40
0.2
100
AcDbArc
 50
39.995196
 51
90.0
  0
ARC
  5
18B
100
AcDbEntity
  8
0
100
AcDbCircle
 10
112.330843
 20
85.656107
 30
0.0
 40
0.2
100
AcDbArc
 50
270.0
 51
339.991645
  0
LINE
  5
18C
100
AcDbEntity
  8
0
100
AcDbLine
 10
112.885937
 20
85.856117
 30
0.0
 11
112.885937
 21
85.656137
 31
0.0
  0
LINE
  5
18D
100
AcDbEntity
  8
0
100
AcDbLine
 10
112.78709
 20
86.324539
 30
0.0
 11
112.518772
 21
85.587676
 31
0.0
  0
LINE
  5
18E
100
AcDbEntity
  8
0
100
AcDbLine
 10
112.885937
 20
85.656117
 30
0.0
 11
113.335937
 21
85.656117
 31
0.0
  0
LINE
  5
18F
100
AcDbEntity
  8
0
100
AcDbLine
 10
113.335937
 20
85.856117
 30
0.0
 11
112.885937
 21
85.856117
 31
0.0
  0
ARC
  5
190
100
AcDbEntity
  8
0
100
AcDbCircle
 10
112.975018
 20
86.256107
 30
0.0
 40
0.2
100
AcDbArc
 50
90.0
 51
159.991645
  0
LINE
  5
191
100
AcDbEntity
  8
0
100
AcDbLine
 10
112.330843
 20
85.456107
 30
0.0
 11
111.818357
 21
85.456107
 31
0.0
  0
LINE
  5
192
100
AcDbEntity
  8
0
100
AcDbLine
 10
115.318937
 20
80.206107
 30
0.0
 11
116.968937
 21
80.206107
 31
0.0
  0
LINE
  5
193
100
AcDbEntity
  8
0
100
AcDbLine
 10
113.968937
 20
79.506107
 30
0.0
 11
115.318937
 21
79.506107
 31
0.0
  0
LINE
  5
194
100
AcDbEntity
  8
0
100
AcDbLine
 10
113.968937
 20
82.506107
 30
0.0
 11
115.318937
 21
82.506107
 31
0.0
  0
ARC
  5
195
100
AcDbEntity
  8
0
100
AcDbCircle
 10
113.868937
 20
81.656127
 30
0.0
 40
0.1
100
AcDbArc
 50
0.0
 51
90.0
  0
ARC
  5
196
100
AcDbEntity
  8
0
100
AcDbCircle
 10
113.768937
 20
86.256127
 30
0.0
 40
0.2
100
AcDbArc
 50
270.0
 51
0.0
  0
LINE
  5
197
100
AcDbEntity
  8
0
100
AcDbLine
 10
113.768937
 20
102.356087
 30
0.0
 11
113.468937
 21
102.356087
 31
0.0
  0
ARC
  5
198
100
AcDbEntity
  8
0
100
AcDbCircle
 10
113.368937
 20
100.806107
 30
0.0
 40
0.6
100
AcDbArc
 50
270.0
 51
0.0
  0
LINE
  5
199
100
AcDbEntity
  8
0
100
AcDbLine
 10
107.607031
 20
102.956107
 30
0.0
 11
108.119517
 21
102.956107
 31
0.0
  0
LINE
  5
19A
100
AcDbEntity
  8
0
100
AcDbLine
 10
106.568937
 20
100.206107
 30
0.0
 11
113.368937
 21
100.206107
 31
0.0
  0
ARC
  5
19B
100
AcDbEntity
  8
0
100
AcDbCircle
 10
106.568937
 20
100.806107
 30
0.0
 40
0.6
100
AcDbArc
 50
180.0
 51
270.0
  0
LINE
  5
19C
100
AcDbEntity
  8
0
100
AcDbLine
 10
107.051937
 20
102.556097
 30
0.0
 11
107.051937
 21
102.756077
 31
0.0
  0
ARC
  5
19D
100
AcDbEntity
  8
0
100
AcDbCircle
 10
107.607031
 20
102.756107
 30
0.0
 40
0.2
100
AcDbArc
 50
90.0
 51
159.991645
  0
LINE
  5
19E
100
AcDbEntity
  8
0
100
AcDbLine
 10
107.150785
 20
102.087676
 30
0.0
 11
107.419102
 21
102.824539
 31
0.0
  0
ARC
  5
19F
100
AcDbEntity
  8
0
100
AcDbCircle
 10
106.962856
 20
102.156107
 30
0.0
 40
0.2
100
AcDbArc
 50
270.0
 51
339.991645
  0
LINE
  5
1A0
100
AcDbEntity
  8
0
100
AcDbLine
 10
106.897778
 20
101.956107
 30
0.0
 11
106.962856
 21
101.956107
 31
0.0
  0
ARC
  5
1A1
100
AcDbEntity
  8
0
100
AcDbCircle
 10
106.601937
 20
102.756097
 30
0.0
 40
0.2
100
AcDbArc
 50
180.0
 51
270.0
  0
LINE
  5
1A2
100
AcDbEntity
  8
0
100
AcDbLine
 10
106.168937
 20
102.356087
 30
0.0
 11
106.468937
 21
102.356087
 31
0.0
  0
ARC
  5
1A3
100
AcDbEntity
  8
0
100
AcDbCircle
 10
106.168937
 20
102.156087
 30
0.0
 40
0.2
100
AcDbArc
 50
90.0
 51
180.0
  0
LINE
  5
1A4
100
AcDbEntity
  8
0
100
AcDbLine
 10
107.051937
 20
102.756097
 30
0.0
 11
106.601937
 21
102.756097
 31
0.0
  0
LINE
  5
1A5
100
AcDbEntity
  8
0
100
AcDbLine
 10
106.601937
 20
102.556097
 30
0.0
 11
107.051937
 21
102.556097
 31
0.0
  0
LINE
  5
1A6
100
AcDbEntity
  8
0
100
AcDbLine
 10
106.468957
 20
102.356067
 30
0.0
 11
106.744558
 21
102.027563
 31
0.0
  0
ARC
  5
1A7
100
AcDbEntity
  8
0
100
AcDbCircle
 10
106.897778
 20
102.156107
 30
0.0
 40
0.2
100
AcDbArc
 50
219.995196
 51
270.0
  0
ARC
  5
1A8
100
AcDbEntity
  8
0
100
AcDbCircle
 10
113.040096
 20
102.156107
 30
0.0
 40
0.2
100
AcDbArc
 50
270.0
 51
320.004804
  0
LINE
  5
1A9
100
AcDbEntity
  8
0
100
AcDbLine
 10
113.468917
 20
102.356067
 30
0.0
 11
113.193316
 21
102.027563
 31
0.0
  0
LINE
  5
1AA
100
AcDbEntity
  8
0
100
AcDbLine
 10
113.040096
 20
101.956107
 30
0.0
 11
112.975018
 21
101.956107
 31
0.0
  0
ARC
  5
1AB
100
AcDbEntity
  8
0
100
AcDbCircle
 10
113.335937
 20
102.756097
 30
0.0
 40
0.2
100
AcDbArc
 50
270.0
 51
0.0
  0
LINE
  5
1AC
100
AcDbEntity
  8
0
100
AcDbLine
 10
112.78709
 20
102.087676
 30
0.0
 11
112.518772
 21
102.824539
 31
0.0
  0
LINE
  5
1AD
100
AcDbEntity
  8
0
100
AcDbLine
 10
112.885937
 20
102.556097
 30
0.0
 11
112.885937
 21
102.756077
 31
0.0
  0
ARC
  5
1AE
100
AcDbEntity
  8
0
100
AcDbCircle
 10
112.330843
 20
102.756107
 30
0.0
 40
0.2
100
AcDbArc
 50
20.008355
 51
90.0
  0
ARC
  5
1AF
100
AcDbEntity
  8
0
100
AcDbCircle
 10
112.975018
 20
102.156107
 30
0.0
 40
0.2
100
AcDbArc
 50
200.008355
 51
270.0
  0
LINE
  5
1B0
100
AcDbEntity
  8
0
100
AcDbLine
 10
113.335937
 20
102.556097
 30
0.0
 11
112.885937
 21
102.556097
 31
0.0
  0
LINE
  5
1B1
100
AcDbEntity
  8
0
100
AcDbLine
 10
112.885937
 20
102.756097
 30
0.0
 11
113.335937
 21
102.756097
 31
0.0
  0
LINE
  5
1B2
100
AcDbEntity
  8
0
100
AcDbLine
 10
112.330843
 20
102.956107
 30
0.0
 11
111.818357
 21
102.956107
 31
0.0
  0
ARC
  5
1B3
100
AcDbEntity
  8
0
100
AcDbCircle
 10
113.768937
 20
102.156087
 30
0.0
 40
0.2
100
AcDbArc
 50
0.0
 51
90.0
  0
LINE
  5
1B4
100
AcDbEntity
  8
CENTER
  6
CENTER
 62
     1
100
AcDbLine
 10
119.184778
 20
115.206107
 30
0.0
 11
101.106304
 21
115.206107
 31
0.0
  0
LINE
  5
1B5
100
AcDbEntity
  8
0
100
AcDbLine
 10
116.968937
 20
111.206107
 30
0.0
 11
112.568937
 21
111.206107
 31
0.0
  0
LINE
  5
1B6
100
AcDbEntity
  8
0
100
AcDbLine
 10
116.968937
 20
119.206107
 30
0.0
 11
112.568937
 21
119.206107
 31
0.0
  0
LINE
  5
1B7
100
AcDbEntity
  8
0
100
AcDbLine
 10
113.868937
 20
106.656087
 30
0.0
 11
113.408937
 21
106.656087
 31
0.0
  0
ARC
  5
1B8
100
AcDbEntity
  8
0
100
AcDbCircle
 10
113.368937
 20
107.606107
 30
0.0
 40
0.6
100
AcDbArc
 50
0.0
 51
90.0
  0
LINE
  5
1B9
100
AcDbEntity
  8
0
100
AcDbLine
 10
106.568937
 20
108.206107
 30
0.0
 11
113.968937
 21
108.206107
 31
0.0
  0
LINE
  5
1BA
100
AcDbEntity
  8
0
100
AcDbLine
 10
116.968937
 20
120.206107
 30
0.0
 11
105.968937
 21
120.206107
 31
0.0
  0
LINE
  5
1BB
100
AcDbEntity
  8
0
100
AcDbLine
 10
105.968937
 20
120.206107
 30
0.0
 11
105.968937
 21
111.206107
 31
0.0
  0
LINE
  5
1BC
100
AcDbEntity
  8
0
100
AcDbLine
 10
112.568937
 20
119.206107
 30
0.0
 11
112.568937
 21
111.206107
 31
0.0
  0
LINE
  5
1BD
100
AcDbEntity
  8
0
 62
     3
100
AcDbLine
 10
112.568937
 20
112.706107
 30
0.0
 11
105.968937
 21
112.706107
 31
0.0
  0
LINE
  5
1BE
100
AcDbEntity
  8
0
100
AcDbLine
 10
112.568937
 20
113.056107
 30
0.0
 11
105.968937
 21
113.056107
 31
0.0
  0
LINE
  5
1BF
100
AcDbEntity
  8
0
100
AcDbLine
 10
107.471529
 20
105.956087
 30
0.0
 11
108.119527
 21
105.956077
 31
0.0
  0
LINE
  5
1C0
100
AcDbEntity
  8
0
100
AcDbLine
 10
103.968937
 20
106.206107
 30
0.0
 11
105.968937
 21
106.206107
 31
0.0
  0
ARC
  5
1C1
100
AcDbEntity
  8
0
100
AcDbCircle
 10
106.568937
 20
107.606107
 30
0.0
 40
0.6
100
AcDbArc
 50
90.0
 51
180.0
  0
LINE
  5
1C2
100
AcDbEntity
  8
0
100
AcDbLine
 10
107.351937
 20
106.276097
 30
0.0
 11
107.351937
 21
105.806097
 31
0.0
  0
LINE
  5
1C3
100
AcDbEntity
  8
0
100
AcDbLine
 10
107.108749
 20
106.766071
 30
0.0
 11
107.151947
 21
105.889027
 31
0.0
  0
ARC
  5
1C4
100
AcDbEntity
  8
0
100
AcDbCircle
 10
107.00887
 20
106.761151
 30
0.0
 40
0.1
100
AcDbArc
 50
2.819785
 51
140.002154
  0
LINE
  5
1C5
100
AcDbEntity
  8
0
100
AcDbLine
 10
107.307252
 20
106.786915
 30
0.0
 11
107.371911
 21
106.047377
 31
0.0
  0
ARC
  5
1C6
100
AcDbEntity
  8
0
100
AcDbCircle
 10
107.471531
 20
106.056087
 30
0.0
 40
0.1
100
AcDbArc
 50
184.996761
 51
269.999115
  0
LINE
  5
1C7
100
AcDbEntity
  8
0
100
AcDbLine
 10
106.068937
 20
106.656087
 30
0.0
 11
106.528937
 21
106.656087
 31
0.0
  0
LINE
  5
1C8
100
AcDbEntity
  8
0
100
AcDbLine
 10
106.706947
 20
106.246067
 30
0.0
 11
106.553837
 21
106.37415
 31
0.0
  0
ARC
  5
1C9
100
AcDbEntity
  8
0
100
AcDbCircle
 10
106.682163
 20
106.527552
 30
0.0
 40
0.2
100
AcDbArc
 50
140.001968
 51
230.086306
  0
ARC
  5
1CA
100
AcDbEntity
  8
0
100
AcDbCircle
 10
106.068937
 20
106.756087
 30
0.0
 40
0.1
100
AcDbArc
 50
180.0
 51
270.0
  0
LINE
  5
1CB
100
AcDbEntity
  8
0
100
AcDbLine
 10
107.151927
 20
105.889107
 30
0.0
 11
106.401937
 21
105.139117
 31
0.0
  0
LINE
  5
1CC
100
AcDbEntity
  8
0
100
AcDbLine
 10
106.834947
 20
106.399057
 30
0.0
 11
106.681957
 21
106.527047
 31
0.0
  0
LINE
  5
1CD
100
AcDbEntity
  8
0
100
AcDbLine
 10
106.706947
 20
106.246087
 30
0.0
 11
106.834937
 21
106.399067
 31
0.0
  0
LINE
  5
1CE
100
AcDbEntity
  8
0
100
AcDbLine
 10
107.351927
 20
105.806117
 30
0.0
 11
106.601927
 21
105.056117
 31
0.0
  0
LINE
  5
1CF
100
AcDbEntity
  8
0
100
AcDbLine
 10
106.681937
 20
106.527077
 30
0.0
 11
106.932263
 21
106.825427
 31
0.0
  0
LINE
  5
1D0
100
AcDbEntity
  8
0
100
AcDbLine
 10
106.52895
 20
106.656104
 30
0.0
 11
106.778572
 21
106.953613
 31
0.0
  0
ARC
  5
1D1
100
AcDbEntity
  8
0
100
AcDbCircle
 10
107.008392
 20
106.760785
 30
0.0
 40
0.3
100
AcDbArc
 50
4.996761
 51
140.001968
  0
LINE
  5
1D2
100
AcDbEntity
  8
0
100
AcDbLine
 10
103.968937
 20
111.206107
 30
0.0
 11
105.968937
 21
111.206107
 31
0.0
  0
ARC
  5
1D3
100
AcDbEntity
  8
0
100
AcDbCircle
 10
113.255711
 20
106.527552
 30
0.0
 40
0.2
100
AcDbArc
 50
309.913694
 51
39.998032
  0
LINE
  5
1D4
100
AcDbEntity
  8
0
100
AcDbLine
 10
113.230927
 20
106.246067
 30
0.0
 11
113.384038
 21
106.37415
 31
0.0
  0
LINE
  5
1D5
100
AcDbEntity
  8
0
100
AcDbLine
 10
113.408924
 20
106.656104
 30
0.0
 11
113.159302
 21
106.953613
 31
0.0
  0
LINE
  5
1D6
100
AcDbEntity
  8
0
100
AcDbLine
 10
113.255937
 20
106.527077
 30
0.0
 11
113.005611
 21
106.825427
 31
0.0
  0
LINE
  5
1D7
100
AcDbEntity
  8
0
100
AcDbLine
 10
113.230927
 20
106.246087
 30
0.0
 11
113.102937
 21
106.399067
 31
0.0
  0
LINE
  5
1D8
100
AcDbEntity
  8
0
100
AcDbLine
 10
113.102927
 20
106.399057
 30
0.0
 11
113.255917
 21
106.527047
 31
0.0
  0
ARC
  5
1D9
100
AcDbEntity
  8
0
100
AcDbCircle
 10
112.466343
 20
106.056087
 30
0.0
 40
0.1
100
AcDbArc
 50
270.000885
 51
355.003239
  0
LINE
  5
1DA
100
AcDbEntity
  8
0
100
AcDbLine
 10
112.630622
 20
106.786915
 30
0.0
 11
112.565963
 21
106.047377
 31
0.0
  0
LINE
  5
1DB
100
AcDbEntity
  8
0
100
AcDbLine
 10
112.829125
 20
106.766071
 30
0.0
 11
112.785927
 21
105.889027
 31
0.0
  0
LINE
  5
1DC
100
AcDbEntity
  8
0
100
AcDbLine
 10
112.585937
 20
106.276097
 30
0.0
 11
112.585937
 21
105.806097
 31
0.0
  0
ARC
  5
1DD
100
AcDbEntity
  8
0
100
AcDbCircle
 10
112.929004
 20
106.761151
 30
0.0
 40
0.1
100
AcDbArc
 50
39.997846
 51
177.180215
  0
LINE
  5
1DE
100
AcDbEntity
  8
0
100
AcDbLine
 10
112.585947
 20
105.806117
 30
0.0
 11
113.335947
 21
105.056117
 31
0.0
  0
LINE
  5
1DF
100
AcDbEntity
  8
0
100
AcDbLine
 10
112.785947
 20
105.889107
 30
0.0
 11
113.535937
 21
105.139117
 31
0.0
  0
ARC
  5
1E0
100
AcDbEntity
  8
0
100
AcDbCircle
 10
112.929482
 20
106.760785
 30
0.0
 40
0.3
100
AcDbArc
 50
39.998032
 51
175.003239
  0
LINE
  5
1E1
100
AcDbEntity
  8
0
100
AcDbLine
 10
112.466345
 20
105.956087
 30
0.0
 11
111.818347
 21
105.956077
 31
0.0
  0
LINE
  5
1E2
100
AcDbEntity
  8
0
 62
     3
100
AcDbLine
 10
112.568937
 20
117.706107
 30
0.0
 11
105.968937
 21
117.706107
 31
0.0
  0
LINE
  5
1E3
100
AcDbEntity
  8
0
100
AcDbLine
 10
112.568937
 20
117.356107
 30
0.0
 11
105.968937
 21
117.356107
 31
0.0
  0
LINE
  5
1E4
100
AcDbEntity
  8
0
100
AcDbLine
 10
111.468937
 20
120.206107
 30
0.0
 11
111.469037
 21
120.206107
 31
0.0
  0
LINE
  5
1E5
100
AcDbEntity
  8
0
100
AcDbLine
 10
115.318937
 20
108.206107
 30
0.0
 11
116.968937
 21
108.206107
 31
0.0
  0
LINE
  5
1E6
100
AcDbEntity
  8
0
100
AcDbLine
 10
113.968937
 20
105.906107
 30
0.0
 11
115.318937
 21
105.906107
 31
0.0
  0
LINE
  5
1E7
100
AcDbEntity
  8
0
100
AcDbLine
 10
113.968937
 20
108.906107
 30
0.0
 11
115.318937
 21
108.906107
 31
0.0
  0
ARC
  5
1E8
100
AcDbEntity
  8
0
100
AcDbCircle
 10
113.868937
 20
106.756087
 30
0.0
 40
0.1
100
AcDbArc
 50
270.0
 51
0.0
  0
LINE
  5
1E9
100
AcDbEntity
  8
0
100
AcDbLine
 10
114.218937
 20
120.206107
 30
0.0
 11
114.218937
 21
120.206207
 31
0.0
  0
LINE
  5
1EA
100
AcDbEntity
  8
CENTER
  6
CENTER
 62
     1
100
AcDbLine
 10
186.759382
 20
62.110921
 30
0.0
 11
186.759382
 21
126.301294
 31
0.0
  0
CIRCLE
  5
1EB
100
AcDbEntity
  8
CENTER
  6
CENTER
 62
     1
100
AcDbCircle
 10
186.759382
 20
94.206107
 30
0.0
 40
21.0
  0
CIRCLE
  5
1EC
100
AcDbEntity
  8
0
  6
DASHED
 62
     3
100
AcDbCircle
 10
186.759382
 20
94.206107
 30
0.0
 40
17.0
  0
CIRCLE
  5
1ED
100
AcDbEntity
  8
0
100
AcDbCircle
 10
186.759382
 20
94.206107
 30
0.0
 40
26.0
  0
CIRCLE
  5
1EE
100
AcDbEntity
  8
0
100
AcDbCircle
 10
186.759382
 20
94.206107
 30
0.0
 40
14.0
  0
LINE
  5
1EF
100
AcDbEntity
  8
CENTER
  6
CENTER
 62
     1
100
AcDbLine
 10
154.664196
 20
94.206107
 30
0.0
 11
218.854569
 21
94.206107
 31
0.0
  0
LINE
  5
1F0
100
AcDbEntity
  8
CENTER
  6
CENTER
 62
     1
100
AcDbLine
 10
186.759382
 20
79.206107
 30
0.0
 11
186.759382
 21
67.206107
 31
0.0
  0
CIRCLE
  5
1F1
100
AcDbEntity
  8
0
100
AcDbCircle
 10
186.759382
 20
73.206107
 30
0.0
 40
2.15
  0
CIRCLE
  5
1F2
100
AcDbEntity
  8
0
 62
     3
100
AcDbCircle
 10
186.759382
 20
73.206107
 30
0.0
 40
2.5
  0
CIRCLE
  5
1F3
100
AcDbEntity
  8
0
100
AcDbCircle
 10
186.759382
 20
73.206107
 30
0.0
 40
4.0
  0
LINE
  5
1F4
100
AcDbEntity
  8
CENTER
  6
CENTER
 62
     1
100
AcDbLine
 10
171.759382
 20
94.206107
 30
0.0
 11
159.759382
 21
94.206107
 31
0.0
  0
CIRCLE
  5
1F5
100
AcDbEntity
  8
0
100
AcDbCircle
 10
165.759382
 20
94.206107
 30
0.0
 40
4.0
  0
CIRCLE
  5
1F6
100
AcDbEntity
  8
0
 62
     3
100
AcDbCircle
 10
165.759382
 20
94.206107
 30
0.0
 40
2.5
  0
CIRCLE
  5
1F7
100
AcDbEntity
  8
0
100
AcDbCircle
 10
165.759382
 20
94.206107
 30
0.0
 40
2.15
  0
CIRCLE
  5
1F8
100
AcDbEntity
  8
0
100
AcDbCircle
 10
186.759382
 20
94.206107
 30
0.0
 40
6.0
  0
LINE
  5
1F9
100
AcDbEntity
  8
CENTER
  6
CENTER
 62
     1
100
AcDbLine
 10
201.759382
 20
94.206107
 30
0.0
 11
213.759382
 21
94.206107
 31
0.0
  0
CIRCLE
  5
1FA
100
AcDbEntity
  8
0
100
AcDbCircle
 10
207.759382
 20
94.206107
 30
0.0
 40
2.15
  0
CIRCLE
  5
1FB
100
AcDbEntity
  8
0
 62
     3
100
AcDbCircle
 10
207.759382
 20
94.206107
 30
0.0
 40
2.5
  0
CIRCLE
  5
1FC
100
AcDbEntity
  8
0
100
AcDbCircle
 10
207.759382
 20
94.206107
 30
0.0
 40
4.0
  0
CIRCLE
  5
1FD
100
AcDbEntity
  8
0
100
AcDbCircle
 10
186.759382
 20
115.206107
 30
0.0
 40
4.0
  0
CIRCLE
  5
1FE
100
AcDbEntity
  8
0
100
AcDbCircle
 10
186.759382
 20
115.206107
 30
0.0
 40
2.15
  0
CIRCLE
  5
1FF
100
AcDbEntity
  8
0
 62
     3
100
AcDbCircle
 10
186.759382
 20
115.206107
 30
0.0
 40
2.5
  0
ENDSEC
  0
SECTION
  2
OBJECTS
  0
DICTIONARY
  5
105
100
AcDbDictionary
  3
ACAD_GROUP
350
106
  3
ACAD_LAYOUT
350
112
  3
ACAD_MLINESTYLE
350
10F
  3
ACAD_PLOTSETTINGS
350
111
  3
ACAD_PLOTSTYLENAME
350
107
  3
ACDBHEADERROUNDTRIPXREC
350
20C
  3
AcDbVariableDictionary
350
235
  0
DICTIONARY
  5
20A
100
AcDbDictionary
280
     1
  3
ACAD_XREC_ROUNDTRIP
360
20B
  0
DICTIONARY
  5
206
100
AcDbDictionary
280
     1
  3
ACAD_XREC_ROUNDTRIP
360
207
  0
DICTIONARY
  5
208
100
AcDbDictionary
280
     1
  3
ACAD_XREC_ROUNDTRIP
360
209
  0
DICTIONARY
  5
233
100
AcDbDictionary
280
     1
  3
ACAD_XREC_ROUNDTRIP
360
234
  0
DICTIONARY
  5
202
100
AcDbDictionary
280
     1
  3
ACAD_LAYOUTSELFREF
360
232
  3
ACAD_XREC_ROUNDTRIP
360
203
  0
DICTIONARY
  5
204
100
AcDbDictionary
280
     1
  3
ACAD_LAYOUTSELFREF
360
231
  3
ACAD_XREC_ROUNDTRIP
360
205
  0
DICTIONARY
  5
106
102
{ACAD_REACTORS
330
105
102
}
100
AcDbDictionary
  0
DICTIONARY
  5
112
102
{ACAD_XDICTIONARY
360
22F
102
}
102
{ACAD_REACTORS
330
105
102
}
100
AcDbDictionary
  3
MODEL
350
11A
  3
ﾚｲｱｳﾄ1
350
116
  0
DICTIONARY
  5
10F
102
{ACAD_XDICTIONARY
360
22D
102
}
102
{ACAD_REACTORS
330
105
102
}
100
AcDbDictionary
  3
STANDARD
350
110
  0
DICTIONARY
  5
111
102
{ACAD_REACTORS
330
105
102
}
100
AcDbDictionary
  0
ACAD_PROXY_OBJECT
  5
107
102
{ACAD_REACTORS
330
105
102
}
100
AcDbProxyObject
 90
      499
 91
      500
 93
       86
310
405010041939BDC9B585B0
350
108
340
108
 94
        0
  0
DICTIONARY
  5
20C
102
{ACAD_REACTORS
330
105
102
}
100
AcDbDictionary
  3
CEPSNTYPE
350
216
  3
DIMSTYLEDATA
350
21A
  3
FINGERPRINTGUID
350
217
  3
HYPERLINKBASE
350
20F
  3
INSUNITS
350
215
  3
LAYOUTDICT
350
211
  3
LWETCUNION
350
214
  3
PLOTSETDICT
350
212
  3
PLOTSTYLNAMDICT
350
213
  3
PSVPSCALE
350
219
  3
PUCSBASE
350
21D
  3
PUCSORGBACK
350
223
  3
PUCSORGBOTTOM
350
21F
  3
PUCSORGFRONT
350
222
  3
PUCSORGLEFT
350
220
  3
PUCSORGRIGHT
350
221
  3
PUCSORGTOP
350
21E
  3
PUCSORTHOREF
350
21B
  3
PUCSORTHOVIEW
350
21C
  3
STYLESHEET
350
210
  3
TSTACKALIGN
350
20D
  3
TSTACKSIZE
350
20E
  3
UCSBASE
350
226
  3
UCSORGBACK
350
22C
  3
UCSORGBOTTOM
350
228
  3
UCSORGFRONT
350
22B
  3
UCSORGLEFT
350
229
  3
UCSORGRIGHT
350
22A
  3
UCSORGTOP
350
227
  3
UCSORTHOREF
350
224
  3
UCSORTHOVIEW
350
225
  3
VERSIONGUID
350
218
  0
DICTIONARY
  5
235
102
{ACAD_REACTORS
330
105
102
}
100
AcDbDictionary
  3
DIMASSOC
350
236
  0
XRECORD
  5
20B
102
{ACAD_REACTORS
330
20A
102
}
100
AcDbXrecord
102
EXTNAMES
  1
*ACTIVE
  2
*Active
102
UCS
 74
     0
 71
     0
 10
0.0
 20
0.0
 30
0.0
 10
1.0
 20
0.0
 30
0.0
 10
0.0
 20
1.0
 30
0.0
146
0.0
 79
     0
102
VIEW
281
     0
  0
XRECORD
  5
207
102
{ACAD_REACTORS
330
206
102
}
100
AcDbXrecord
102
EXTNAMES
  1
BYBLOCK
  2
ByBlock
  0
XRECORD
  5
209
102
{ACAD_REACTORS
330
208
102
}
100
AcDbXrecord
102
EXTNAMES
  1
BYLAYER
  2
ByLayer
  0
XRECORD
  5
234
102
{ACAD_REACTORS
330
233
102
}
100
AcDbXrecord
102
ACADR14ROUNDTRIP
1000
DSTYLE
1002
{
1070
   279
 70
     2
1002
}
  0
XRECORD
  5
232
102
{ACAD_REACTORS
330
202
102
}
100
AcDbXrecord
340
117
  0
XRECORD
  5
203
102
{ACAD_REACTORS
330
202
102
}
100
AcDbXrecord
102
EXTNAMES
  1
*MODEL_SPACE
  2
*Model_Space
  0
XRECORD
  5
231
102
{ACAD_REACTORS
330
204
102
}
100
AcDbXrecord
340
113
  0
XRECORD
  5
205
102
{ACAD_REACTORS
330
204
102
}
100
AcDbXrecord
102
EXTNAMES
  1
*PAPER_SPACE
  2
*Paper_Space
  0
DICTIONARY
  5
22F
100
AcDbDictionary
280
     1
  3
ACAD_XREC_ROUNDTRIP
360
230
  0
ACAD_PROXY_OBJECT
  5
11A
102
{ACAD_REACTORS
330
112
102
}
100
AcDbProxyObject
 90
      499
 91
      502
 93
      836
310
932433A5C50524F4752414D2046494C45535C4D4454365C706C6F74746572735C526F6C616E64204458592D313235302E7063332C01AAAAAAAAA5A69054D6F64656C901A800000000000000000000000000000000000000000000A1000000000000008902A6A6AAAA0
330
117
330
0
340
0
340
0
 94
        0
  0
ACAD_PROXY_OBJECT
  5
116
102
{ACAD_REACTORS
330
112
102
}
100
AcDbProxyObject
 90
      499
 91
      502
 93
     1244
310
932433A5C50524F4752414D2046494C45535C4D4454365C706C6F74746572735C526F6C616E64204458592D313235302E7063332C00AAAAAA416AA59106906DAB2B1B3C431406A800000000000000000000000000000000000000000101E900000000000241C902A6A6A10232D5E076BC5510408CB5781DAF154410232D5E0
310
76BC5510408CB5781DAF15C410232D5E076BC5710408CB5781DAF15C40
330
113
330
0
340
0
340
0
 94
        0
  0
DICTIONARY
  5
22D
100
AcDbDictionary
280
     1
  3
ACAD_XREC_ROUNDTRIP
360
22E
  0
MLINESTYLE
  5
110
102
{ACAD_REACTORS
330
10F
102
}
100
AcDbMlineStyle
  2
STANDARD
 70
     0
  3

 62
   256
 51
90.0
 52
90.0
 71
     2
 49
0.5
 62
   256
  6
BYLAYER
 49
-0.5
 62
   256
  6
BYLAYER
  0
ACAD_PROXY_OBJECT
  5
108
102
{ACAD_REACTORS
330
107
102
}
100
AcDbProxyObject
 90
      499
 91
      501
 93
        0
 94
        0
  0
XRECORD
  5
216
102
{ACAD_REACTORS
330
20C
102
}
100
AcDbXrecord
 90
        0
  0
XRECORD
  5
21A
102
{ACAD_REACTORS
330
20C
102
}
100
AcDbXrecord
1000
DSTYLE
1002
{
1070
   341
340
12E
1070
   342
340
128
1070
   343
340
12E
1070
   344
340
12E
1002
}
  0
XRECORD
  5
217
102
{ACAD_REACTORS
330
20C
102
}
100
AcDbXrecord
  1
{DF9CF633-4D74-4339-9D50-1605E86C5C01}
  0
XRECORD
  5
20F
102
{ACAD_REACTORS
330
20C
102
}
100
AcDbXrecord
  1

  0
XRECORD
  5
215
102
{ACAD_REACTORS
330
20C
102
}
100
AcDbXrecord
 90
        0
  0
XRECORD
  5
211
102
{ACAD_REACTORS
330
20C
102
}
100
AcDbXrecord
340
112
  0
XRECORD
  5
214
102
{ACAD_REACTORS
330
20C
102
}
100
AcDbXrecord
 90
    10781
  0
XRECORD
  5
212
102
{ACAD_REACTORS
330
20C
102
}
100
AcDbXrecord
340
111
  0
XRECORD
  5
213
102
{ACAD_REACTORS
330
20C
102
}
100
AcDbXrecord
340
107
  0
XRECORD
  5
219
102
{ACAD_REACTORS
330
20C
102
}
100
AcDbXrecord
 40
0.0
  0
XRECORD
  5
21D
102
{ACAD_REACTORS
330
20C
102
}
100
AcDbXrecord
340
0
  0
XRECORD
  5
223
102
{ACAD_REACTORS
330
20C
102
}
100
AcDbXrecord
 10
0.0
 20
0.0
 30
0.0
  0
XRECORD
  5
21F
102
{ACAD_REACTORS
330
20C
102
}
100
AcDbXrecord
 10
0.0
 20
0.0
 30
0.0
  0
XRECORD
  5
222
102
{ACAD_REACTORS
330
20C
102
}
100
AcDbXrecord
 10
0.0
 20
0.0
 30
0.0
  0
XRECORD
  5
220
102
{ACAD_REACTORS
330
20C
102
}
100
AcDbXrecord
 10
0.0
 20
0.0
 30
0.0
  0
XRECORD
  5
221
102
{ACAD_REACTORS
330
20C
102
}
100
AcDbXrecord
 10
0.0
 20
0.0
 30
0.0
  0
XRECORD
  5
21E
102
{ACAD_REACTORS
330
20C
102
}
100
AcDbXrecord
 10
0.0
 20
0.0
 30
0.0
  0
XRECORD
  5
21B
102
{ACAD_REACTORS
330
20C
102
}
100
AcDbXrecord
340
0
  0
XRECORD
  5
21C
102
{ACAD_REACTORS
330
20C
102
}
100
AcDbXrecord
 70
     0
  0
XRECORD
  5
210
102
{ACAD_REACTORS
330
20C
102
}
100
AcDbXrecord
  1

  0
XRECORD
  5
20D
102
{ACAD_REACTORS
330
20C
102
}
100
AcDbXrecord
 90
        1
  0
XRECORD
  5
20E
102
{ACAD_REACTORS
330
20C
102
}
100
AcDbXrecord
 90
       70
  0
XRECORD
  5
226
102
{ACAD_REACTORS
330
20C
102
}
100
AcDbXrecord
340
0
  0
XRECORD
  5
22C
102
{ACAD_REACTORS
330
20C
102
}
100
AcDbXrecord
 10
0.0
 20
0.0
 30
0.0
  0
XRECORD
  5
228
102
{ACAD_REACTORS
330
20C
102
}
100
AcDbXrecord
 10
0.0
 20
0.0
 30
0.0
  0
XRECORD
  5
22B
102
{ACAD_REACTORS
330
20C
102
}
100
AcDbXrecord
 10
0.0
 20
0.0
 30
0.0
  0
XRECORD
  5
229
102
{ACAD_REACTORS
330
20C
102
}
100
AcDbXrecord
 10
0.0
 20
0.0
 30
0.0
  0
XRECORD
  5
22A
102
{ACAD_REACTORS
330
20C
102
}
100
AcDbXrecord
 10
0.0
 20
0.0
 30
0.0
  0
XRECORD
  5
227
102
{ACAD_REACTORS
330
20C
102
}
100
AcDbXrecord
 10
0.0
 20
0.0
 30
0.0
  0
XRECORD
  5
224
102
{ACAD_REACTORS
330
20C
102
}
100
AcDbXrecord
340
0
  0
XRECORD
  5
225
102
{ACAD_REACTORS
330
20C
102
}
100
AcDbXrecord
 70
     0
  0
XRECORD
  5
218
102
{ACAD_REACTORS
330
20C
102
}
100
AcDbXrecord
  1
{49AEE67E-B8E2-4579-8E99-037EA570D3AC}
  0
DICTIONARYVAR
  5
236
102
{ACAD_REACTORS
330
235
102
}
100
DictionaryVariables
280
     0
  1
1
  0
XRECORD
  5
230
102
{ACAD_REACTORS
330
22F
102
}
100
AcDbXrecord
102
EXTNAMES
  1
MODEL
  2
Model
  0
XRECORD
  5
22E
102
{ACAD_REACTORS
330
22D
102
}
100
AcDbXrecord
102
EXTNAMES
  1
STANDARD
  2
Standard
  0
ENDSEC
  0
EOF
