  0
SECTION
  2
HEADER
  9
$ACADVER
  1
AC1014
  9
$ACADMAINTVER
 70
     0
  9
$DWGCODEPAGE
  3
ANSI_932
  9
$INSBASE
 10
0.0
 20
0.0
 30
0.0
  9
$EXTMIN
 10
40.25
 20
22.464893
 30
0.0
  9
$EXTMAX
 10
203.25
 20
148.5
 30
0.0
  9
$LIMMIN
 10
0.0
 20
0.0
  9
$LIMMAX
 10
420.0
 20
297.0
  9
$ORTHOMODE
 70
     1
  9
$REGENMODE
 70
     1
  9
$FILLMODE
 70
     1
  9
$QTEXTMODE
 70
     0
  9
$MIRRTEXT
 70
     1
  9
$DRAGMODE
 70
     2
  9
$LTSCALE
 40
0.25
  9
$OSMODE
 70
    37
  9
$ATTMODE
 70
     1
  9
$TEXTSIZE
 40
2.0
  9
$TRACEWID
 40
1.0
  9
$TEXTSTYLE
  7
STANDARD
  9
$CLAYER
  8
0
  9
$CELTYPE
  6
BYLAYER
  9
$CECOLOR
 62
   256
  9
$CELTSCALE
 40
1.0
  9
$DELOBJ
 70
     1
  9
$DISPSILH
 70
     0
  9
$DIMSCALE
 40
1.0
  9
$DIMASZ
 40
2.5
  9
$DIMEXO
 40
0.625
  9
$DIMDLI
 40
3.75
  9
$DIMRND
 40
0.0
  9
$DIMDLE
 40
0.0
  9
$DIMEXE
 40
1.25
  9
$DIMTP
 40
0.0
  9
$DIMTM
 40
0.0
  9
$DIMTXT
 40
2.5
  9
$DIMCEN
 40
2.5
  9
$DIMTSZ
 40
0.0
  9
$DIMTOL
 70
     0
  9
$DIMLIM
 70
     0
  9
$DIMTIH
 70
     0
  9
$DIMTOH
 70
     0
  9
$DIMSE1
 70
     0
  9
$DIMSE2
 70
     0
  9
$DIMTAD
 70
     1
  9
$DIMZIN
 70
     8
  9
$DIMBLK
  1

  9
$DIMASO
 70
     1
  9
$DIMSHO
 70
     1
  9
$DIMPOST
  1

  9
$DIMAPOST
  1

  9
$DIMALT
 70
     0
  9
$DIMALTD
 70
     4
  9
$DIMALTF
 40
0.0394
  9
$DIMLFAC
 40
1.0
  9
$DIMTOFL
 70
     1
  9
$DIMTVP
 40
0.0
  9
$DIMTIX
 70
     0
  9
$DIMSOXD
 70
     0
  9
$DIMSAH
 70
     0
  9
$DIMBLK1
  1

  9
$DIMBLK2
  1

  9
$DIMSTYLE
  2
ISO-25
  9
$DIMCLRD
 70
     0
  9
$DIMCLRE
 70
     0
  9
$DIMCLRT
 70
     0
  9
$DIMTFAC
 40
1.0
  9
$DIMGAP
 40
0.625
  9
$DIMJUST
 70
     0
  9
$DIMSD1
 70
     0
  9
$DIMSD2
 70
     0
  9
$DIMTOLJ
 70
     1
  9
$DIMTZIN
 70
     0
  9
$DIMALTZ
 70
     0
  9
$DIMALTTZ
 70
     0
  9
$DIMFIT
 70
     3
  9
$DIMUPT
 70
     0
  9
$DIMUNIT
 70
     2
  9
$DIMDEC
 70
     4
  9
$DIMTDEC
 70
     4
  9
$DIMALTU
 70
     2
  9
$DIMALTTD
 70
     2
  9
$DIMTXSTY
  7
STANDARD
  9
$DIMAUNIT
 70
     0
  9
$LUNITS
 70
     2
  9
$LUPREC
 70
     2
  9
$SKETCHINC
 40
1.0
  9
$FILLETRAD
 40
2.5
  9
$AUNITS
 70
     0
  9
$AUPREC
 70
     0
  9
$MENU
  1
.
  9
$ELEVATION
 40
0.0
  9
$PELEVATION
 40
0.0
  9
$THICKNESS
 40
0.0
  9
$LIMCHECK
 70
     0
  9
$BLIPMODE
 70
     0
  9
$CHAMFERA
 40
2.5
  9
$CHAMFERB
 40
2.5
  9
$CHAMFERC
 40
0.0
  9
$CHAMFERD
 40
0.0
  9
$SKPOLY
 70
     1
  9
$TDCREATE
 40
2452100.667792002
  9
$TDUPDATE
 40
2452951.402514814
  9
$TDINDWG
 40
0.0131410764
  9
$TDUSRTIMER
 40
0.0131410764
  9
$USRTIMER
 70
     1
  9
$ANGBASE
 50
0.0
  9
$ANGDIR
 70
     0
  9
$PDMODE
 70
     0
  9
$PDSIZE
 40
0.0
  9
$PLINEWID
 40
0.0
  9
$COORDS
 70
     2
  9
$SPLFRAME
 70
     0
  9
$SPLINETYPE
 70
     6
  9
$SPLINESEGS
 70
     8
  9
$ATTDIA
 70
     0
  9
$ATTREQ
 70
     1
  9
$HANDLING
 70
     1
  9
$HANDSEED
  5
113
  9
$SURFTAB1
 70
     6
  9
$SURFTAB2
 70
     6
  9
$SURFTYPE
 70
     6
  9
$SURFU
 70
     6
  9
$SURFV
 70
     6
  9
$UCSNAME
  2

  9
$UCSORG
 10
0.0
 20
0.0
 30
0.0
  9
$UCSXDIR
 10
1.0
 20
0.0
 30
0.0
  9
$UCSYDIR
 10
0.0
 20
1.0
 30
0.0
  9
$PUCSNAME
  2

  9
$PUCSORG
 10
0.0
 20
0.0
 30
0.0
  9
$PUCSXDIR
 10
1.0
 20
0.0
 30
0.0
  9
$PUCSYDIR
 10
0.0
 20
1.0
 30
0.0
  9
$USERI1
 70
     0
  9
$USERI2
 70
     0
  9
$USERI3
 70
     0
  9
$USERI4
 70
     0
  9
$USERI5
 70
     0
  9
$USERR1
 40
0.0
  9
$USERR2
 40
0.0
  9
$USERR3
 40
0.0
  9
$USERR4
 40
0.0
  9
$USERR5
 40
0.0
  9
$WORLDVIEW
 70
     1
  9
$SHADEDGE
 70
     3
  9
$SHADEDIF
 70
    70
  9
$TILEMODE
 70
     1
  9
$MAXACTVP
 70
    48
  9
$PINSBASE
 10
0.0
 20
0.0
 30
0.0
  9
$PLIMCHECK
 70
     0
  9
$PEXTMIN
 10
1.000000E+20
 20
1.000000E+20
 30
1.000000E+20
  9
$PEXTMAX
 10
-1.000000E+20
 20
-1.000000E+20
 30
-1.000000E+20
  9
$PLIMMIN
 10
0.0
 20
0.0
  9
$PLIMMAX
 10
420.0
 20
297.0
  9
$UNITMODE
 70
     0
  9
$VISRETAIN
 70
     1
  9
$PLINEGEN
 70
     0
  9
$PSLTSCALE
 70
     1
  9
$TREEDEPTH
 70
  3020
  9
$PICKSTYLE
 70
     1
  9
$CMLSTYLE
  2
STANDARD
  9
$CMLJUST
 70
     0
  9
$CMLSCALE
 40
1.0
  9
$PROXYGRAPHICS
 70
     1
  9
$MEASUREMENT
 70
     0
  0
ENDSEC
  0
SECTION
  2
CLASSES
  0
ENDSEC
  0
SECTION
  2
TABLES
  0
TABLE
  2
VPORT
  5
E1
100
AcDbSymbolTable
 70
     1
  0
VPORT
  5
10E
100
AcDbSymbolTableRecord
100
AcDbViewportTableRecord
  2
*ACTIVE
 70
     0
 10
0.0
 20
0.0
 11
1.0
 21
1.0
 12
135.067362
 22
86.775202
 13
0.0
 23
0.0
 14
1.0
 24
1.0
 15
10.0
 25
10.0
 16
0.0
 26
0.0
 36
1.0
 17
0.0
 27
0.0
 37
0.0
 40
180.117869
 41
1.454412
 42
50.0
 43
0.0
 44
0.0
 50
0.0
 51
0.0
 71
     0
 72
   100
 73
     1
 74
     1
 75
     0
 76
     0
 77
     0
 78
     0
  0
ENDTAB
  0
TABLE
  2
LTYPE
  5
DE
100
AcDbSymbolTable
 70
     3
  0
LTYPE
  5
EB
100
AcDbSymbolTableRecord
100
AcDbLinetypeTableRecord
  2
BYBLOCK
 70
     0
  3

 72
    65
 73
     0
 40
0.0
  0
LTYPE
  5
EC
100
AcDbSymbolTableRecord
100
AcDbLinetypeTableRecord
  2
BYLAYER
 70
     0
  3

 72
    65
 73
     0
 40
0.0
  0
LTYPE
  5
ED
100
AcDbSymbolTableRecord
100
AcDbLinetypeTableRecord
  2
CONTINUOUS
 70
     0
  3
Solid line
 72
    65
 73
     0
 40
0.0
  0
LTYPE
  5
F8
100
AcDbSymbolTableRecord
100
AcDbLinetypeTableRecord
  2
CENTER
 70
     0
  3
Center ____ _ ____ _ ____ _ ____ _ ____ _ ____
 72
    65
 73
     4
 40
50.8
 49
31.75
 74
     0
 49
-6.35
 74
     0
 49
6.35
 74
     0
 49
-6.35
 74
     0
  0
LTYPE
  5
F9
100
AcDbSymbolTableRecord
100
AcDbLinetypeTableRecord
  2
DASHED
 70
     0
  3
Dashed __ __ __ __ __ __ __ __ __ __ __ __ __ _
 72
    65
 73
     2
 40
19.05
 49
12.7
 74
     0
 49
-6.35
 74
     0
  0
ENDTAB
  0
TABLE
  2
LAYER
  5
DB
100
AcDbSymbolTable
 70
     2
  0
LAYER
  5
E7
100
AcDbSymbolTableRecord
100
AcDbLayerTableRecord
  2
0
 70
     0
 62
     7
  6
CONTINUOUS
  0
LAYER
  5
FA
100
AcDbSymbolTableRecord
100
AcDbLayerTableRecord
  2
CENTER
 70
     0
 62
     1
  6
CENTER
  0
ENDTAB
  0
TABLE
  2
STYLE
  5
DC
100
AcDbSymbolTable
 70
     1
  0
STYLE
  5
E8
100
AcDbSymbolTableRecord
100
AcDbTextStyleTableRecord
  2
STANDARD
 70
     0
 40
0.0
 41
1.0
 50
0.0
 71
     0
 42
2.0
  3
txt.shx
  4
extfont.shx
  0
ENDTAB
  0
TABLE
  2
VIEW
  5
DF
100
AcDbSymbolTable
 70
     0
  0
ENDTAB
  0
TABLE
  2
UCS
  5
E0
100
AcDbSymbolTable
 70
     0
  0
ENDTAB
  0
TABLE
  2
APPID
  5
E2
100
AcDbSymbolTable
 70
     1
  0
APPID
  5
E9
100
AcDbSymbolTableRecord
100
AcDbRegAppTableRecord
  2
ACAD
 70
     0
  0
ENDTAB
  0
TABLE
  2
DIMSTYLE
  5
E3
100
AcDbSymbolTable
 70
     1
  0
DIMSTYLE
105
FB
100
AcDbSymbolTableRecord
100
AcDbDimStyleTableRecord
  2
ISO-25
 70
     0
  3

  4

  5

  6

  7

 40
1.0
 41
2.5
 42
0.625
 43
3.75
 44
1.25
 45
0.0
 46
0.0
 47
0.0
 48
0.0
140
2.5
141
2.5
142
0.0
143
0.0394
144
1.0
145
0.0
146
1.0
147
0.625
 71
     0
 72
     0
 73
     0
 74
     0
 75
     0
 76
     0
 77
     1
 78
     8
170
     0
171
     4
172
     1
173
     0
174
     0
175
     0
176
     0
177
     0
178
     0
270
     2
271
     4
272
     4
273
     2
274
     2
340
E8
275
     0
280
     0
281
     0
282
     0
283
     1
284
     0
285
     0
286
     0
287
     3
288
     0
  0
ENDTAB
  0
TABLE
  2
BLOCK_RECORD
  5
DA
100
AcDbSymbolTable
 70
     2
  0
BLOCK_RECORD
  5
F1
100
AcDbSymbolTableRecord
100
AcDbBlockTableRecord
  2
*MODEL_SPACE
  0
BLOCK_RECORD
  5
EE
100
AcDbSymbolTableRecord
100
AcDbBlockTableRecord
  2
*PAPER_SPACE
  0
BLOCK_RECORD
  5
FD
100
AcDbSymbolTableRecord
100
AcDbBlockTableRecord
  2
$MODEL_SPACE
  0
BLOCK_RECORD
  5
FF
100
AcDbSymbolTableRecord
100
AcDbBlockTableRecord
  2
$PAPER_SPACE
  0
ENDTAB
  0
ENDSEC
  0
SECTION
  2
BLOCKS
  0
BLOCK
  5
F2
100
AcDbEntity
  8
0
100
AcDbBlockBegin
  2
*MODEL_SPACE
 70
     0
 10
0.0
 20
0.0
 30
0.0
  3
*MODEL_SPACE
  1

  0
ENDBLK
  5
F3
100
AcDbEntity
  8
0
100
AcDbBlockEnd
  0
BLOCK
  5
EF
100
AcDbEntity
 67
     1
  8
0
100
AcDbBlockBegin
  2
*PAPER_SPACE
 70
     0
 10
0.0
 20
0.0
 30
0.0
  3
*PAPER_SPACE
  1

  0
ENDBLK
  5
F0
100
AcDbEntity
 67
     1
  8
0
100
AcDbBlockEnd
  0
BLOCK
  5
FE
100
AcDbEntity
  8
0
100
AcDbBlockBegin
  2
$MODEL_SPACE
 70
     0
 10
0.0
 20
0.0
 30
0.0
  3
$MODEL_SPACE
  1

  0
ENDBLK
  5
83
100
AcDbEntity
  8
0
100
AcDbBlockEnd
  0
BLOCK
  5
100
100
AcDbEntity
  8
0
100
AcDbBlockBegin
  2
$PAPER_SPACE
 70
     0
 10
0.0
 20
0.0
 30
0.0
  3
$PAPER_SPACE
  1

  0
ENDBLK
  5
7F
100
AcDbEntity
  8
0
100
AcDbBlockEnd
  0
ENDSEC
  0
SECTION
  2
ENTITIES
  0
LINE
  5
92
100
AcDbEntity
  8
CENTER
  6
CENTER
 62
     1
100
AcDbLine
 10
195.5
 20
50.0
 30
0.0
 11
180.0
 21
50.0
 31
0.0
  0
LINE
  5
93
100
AcDbEntity
  8
CENTER
  6
CENTER
 62
     1
100
AcDbLine
 10
195.5
 20
130.0
 30
0.0
 11
180.0
 21
130.0
 31
0.0
  0
LINE
  5
94
100
AcDbEntity
  8
CENTER
  6
CENTER
 62
     1
100
AcDbLine
 10
203.25
 20
90.0
 30
0.0
 11
118.25
 21
90.0
 31
0.0
  0
CIRCLE
  5
95
100
AcDbEntity
  8
0
  6
DASHED
 62
     3
100
AcDbCircle
 10
160.75
 20
90.0
 30
0.0
 40
39.0
  0
CIRCLE
  5
96
100
AcDbEntity
  8
0
100
AcDbCircle
 10
187.75
 20
130.0
 30
0.0
 40
4.5
  0
CIRCLE
  5
97
100
AcDbEntity
  8
0
100
AcDbCircle
 10
187.75
 20
130.0
 30
0.0
 40
7.0
  0
ARC
  5
98
100
AcDbEntity
  8
0
100
AcDbCircle
 10
160.75
 20
90.0
 30
0.0
 40
57.0
100
AcDbArc
 50
44.003427
 51
135.996573
  0
CIRCLE
  5
99
100
AcDbEntity
  8
0
100
AcDbCircle
 10
187.75
 20
50.0
 30
0.0
 40
4.5
  0
CIRCLE
  5
9A
100
AcDbEntity
  8
0
100
AcDbCircle
 10
187.75
 20
50.0
 30
0.0
 40
7.0
  0
ARC
  5
9B
100
AcDbEntity
  8
0
100
AcDbCircle
 10
160.75
 20
90.0
 30
0.0
 40
57.0
100
AcDbArc
 50
224.003427
 51
315.996573
  0
CIRCLE
  5
9C
100
AcDbEntity
  8
0
100
AcDbCircle
 10
160.75
 20
90.0
 30
0.0
 40
34.0
  0
LINE
  5
9D
100
AcDbEntity
  8
CENTER
  6
CENTER
 62
     1
100
AcDbLine
 10
40.25
 20
90.0
 30
0.0
 11
103.25
 21
90.0
 31
0.0
  0
LINE
  5
9E
100
AcDbEntity
  8
0
  6
DASHED
 62
     3
100
AcDbLine
 10
56.75
 20
60.0
 30
0.0
 11
86.75
 21
60.0
 31
0.0
  0
LINE
  5
9F
100
AcDbEntity
  8
0
  6
DASHED
 62
     3
100
AcDbLine
 10
56.75
 20
120.0
 30
0.0
 11
86.75
 21
120.0
 31
0.0
  0
LINE
  5
A0
100
AcDbEntity
  8
0
100
AcDbLine
 10
41.75
 20
51.0
 30
0.0
 11
88.75
 21
51.0
 31
0.0
  0
LINE
  5
A1
100
AcDbEntity
  8
0
100
AcDbLine
 10
41.75
 20
129.0
 30
0.0
 11
88.75
 21
129.0
 31
0.0
  0
LINE
  5
A2
100
AcDbEntity
  8
0
  6
DASHED
 62
     3
100
AcDbLine
 10
56.75
 20
124.0
 30
0.0
 11
56.75
 21
56.0
 31
0.0
  0
LINE
  5
A3
100
AcDbEntity
  8
0
100
AcDbLine
 10
41.75
 20
90.0
 30
0.0
 11
41.75
 21
51.0
 31
0.0
  0
LINE
  5
A6
100
AcDbEntity
  8
0
  6
DASHED
 62
     3
100
AcDbLine
 10
41.75
 20
56.0
 30
0.0
 11
56.75
 21
56.0
 31
0.0
  0
LINE
  5
A7
100
AcDbEntity
  8
0
  6
DASHED
 62
     3
100
AcDbLine
 10
41.75
 20
70.0
 30
0.0
 11
56.75
 21
70.0
 31
0.0
  0
LINE
  5
A8
100
AcDbEntity
  8
0
100
AcDbLine
 10
41.75
 20
90.0
 30
0.0
 11
41.75
 21
129.0
 31
0.0
  0
LINE
  5
A9
100
AcDbEntity
  8
0
  6
DASHED
 62
     3
100
AcDbLine
 10
41.75
 20
110.0
 30
0.0
 11
56.75
 21
110.0
 31
0.0
  0
LINE
  5
AA
100
AcDbEntity
  8
0
  6
DASHED
 62
     3
100
AcDbLine
 10
41.75
 20
124.0
 30
0.0
 11
56.75
 21
124.0
 31
0.0
  0
LINE
  5
AB
100
AcDbEntity
  8
CENTER
  6
CENTER
 62
     1
100
AcDbLine
 10
160.75
 20
148.5
 30
0.0
 11
160.75
 21
31.5
 31
0.0
  0
LINE
  5
AC
100
AcDbEntity
  8
0
  6
DASHED
 62
     3
100
AcDbLine
 10
86.75
 20
124.0
 30
0.0
 11
86.75
 21
56.0
 31
0.0
  0
LINE
  5
AD
100
AcDbEntity
  8
0
100
AcDbLine
 10
119.75
 20
129.59798
 30
0.0
 11
119.75
 21
50.40202
 31
0.0
  0
CIRCLE
  5
AE
100
AcDbEntity
  8
0
100
AcDbCircle
 10
160.75
 20
90.0
 30
0.0
 40
20.0
  0
LINE
  5
AF
100
AcDbEntity
  8
0
100
AcDbLine
 10
88.75
 20
129.0
 30
0.0
 11
88.75
 21
51.0
 31
0.0
  0
LINE
  5
B0
100
AcDbEntity
  8
0
100
AcDbLine
 10
101.75
 20
33.0
 30
0.0
 11
101.75
 21
90.0
 31
0.0
  0
LINE
  5
B1
100
AcDbEntity
  8
0
100
AcDbLine
 10
88.75
 20
51.0
 30
0.0
 11
88.75
 21
33.0
 31
0.0
  0
LINE
  5
B2
100
AcDbEntity
  8
0
100
AcDbLine
 10
88.75
 20
33.0
 30
0.0
 11
101.75
 21
33.0
 31
0.0
  0
LINE
  5
B3
100
AcDbEntity
  8
CENTER
  6
CENTER
 62
     1
100
AcDbLine
 10
87.25
 20
50.0
 30
0.0
 11
103.25
 21
50.0
 31
0.0
  0
LINE
  5
B4
100
AcDbEntity
  8
0
  6
DASHED
 62
     3
100
AcDbLine
 10
93.65
 20
45.5
 30
0.0
 11
88.75
 21
45.5
 31
0.0
  0
LINE
  5
B5
100
AcDbEntity
  8
0
  6
DASHED
 62
     3
100
AcDbLine
 10
93.65
 20
54.5
 30
0.0
 11
88.75
 21
54.5
 31
0.0
  0
LINE
  5
B6
100
AcDbEntity
  8
0
  6
DASHED
 62
     3
100
AcDbLine
 10
101.75
 20
70.0
 30
0.0
 11
86.75
 21
70.0
 31
0.0
  0
LINE
  5
B7
100
AcDbEntity
  8
0
  6
DASHED
 62
     3
100
AcDbLine
 10
101.75
 20
56.0
 30
0.0
 11
86.75
 21
56.0
 31
0.0
  0
LINE
  5
B9
100
AcDbEntity
  8
0
  6
DASHED
 62
     3
100
AcDbLine
 10
93.65
 20
57.0
 30
0.0
 11
93.65
 21
50.0
 31
0.0
  0
LINE
  5
BA
100
AcDbEntity
  8
0
  6
DASHED
 62
     3
100
AcDbLine
 10
101.75
 20
43.0
 30
0.0
 11
93.65
 21
43.0
 31
0.0
  0
LINE
  5
BB
100
AcDbEntity
  8
0
  6
DASHED
 62
     3
100
AcDbLine
 10
93.65
 20
43.0
 30
0.0
 11
93.65
 21
50.0
 31
0.0
  0
LINE
  5
BC
100
AcDbEntity
  8
0
  6
DASHED
 62
     3
100
AcDbLine
 10
101.75
 20
57.0
 30
0.0
 11
93.65
 21
57.0
 31
0.0
  0
LINE
  5
BD
100
AcDbEntity
  8
CENTER
  6
CENTER
 62
     1
100
AcDbLine
 10
133.75
 20
42.25
 30
0.0
 11
133.75
 21
57.75
 31
0.0
  0
CIRCLE
  5
BE
100
AcDbEntity
  8
0
100
AcDbCircle
 10
133.75
 20
50.0
 30
0.0
 40
4.5
  0
CIRCLE
  5
BF
100
AcDbEntity
  8
0
100
AcDbCircle
 10
133.75
 20
50.0
 30
0.0
 40
7.0
  0
LINE
  5
C0
100
AcDbEntity
  8
CENTER
  6
CENTER
 62
     1
100
AcDbLine
 10
126.0
 20
50.0
 30
0.0
 11
141.5
 21
50.0
 31
0.0
  0
LINE
  5
C1
100
AcDbEntity
  8
CENTER
  6
CENTER
 62
     1
100
AcDbLine
 10
187.75
 20
42.25
 30
0.0
 11
187.75
 21
57.75
 31
0.0
  0
LINE
  5
C2
100
AcDbEntity
  8
0
  6
DASHED
 62
     3
100
AcDbLine
 10
93.65
 20
137.0
 30
0.0
 11
93.65
 21
130.0
 31
0.0
  0
LINE
  5
C3
100
AcDbEntity
  8
0
100
AcDbLine
 10
88.75
 20
129.0
 30
0.0
 11
88.75
 21
147.0
 31
0.0
  0
LINE
  5
C4
100
AcDbEntity
  8
0
100
AcDbLine
 10
101.75
 20
147.0
 30
0.0
 11
101.75
 21
90.0
 31
0.0
  0
LINE
  5
C5
100
AcDbEntity
  8
CENTER
  6
CENTER
 62
     1
100
AcDbLine
 10
87.25
 20
130.0
 30
0.0
 11
103.25
 21
130.0
 31
0.0
  0
LINE
  5
C6
100
AcDbEntity
  8
0
  6
DASHED
 62
     3
100
AcDbLine
 10
101.75
 20
110.0
 30
0.0
 11
86.75
 21
110.0
 31
0.0
  0
LINE
  5
C7
100
AcDbEntity
  8
0
  6
DASHED
 62
     3
100
AcDbLine
 10
93.65
 20
134.5
 30
0.0
 11
88.75
 21
134.5
 31
0.0
  0
LINE
  5
C8
100
AcDbEntity
  8
0
  6
DASHED
 62
     3
100
AcDbLine
 10
93.65
 20
125.5
 30
0.0
 11
88.75
 21
125.5
 31
0.0
  0
LINE
  5
C9
100
AcDbEntity
  8
0
  6
DASHED
 62
     3
100
AcDbLine
 10
101.75
 20
124.0
 30
0.0
 11
86.75
 21
124.0
 31
0.0
  0
LINE
  5
CB
100
AcDbEntity
  8
0
  6
DASHED
 62
     3
100
AcDbLine
 10
93.65
 20
123.0
 30
0.0
 11
93.65
 21
130.0
 31
0.0
  0
LINE
  5
CC
100
AcDbEntity
  8
0
  6
DASHED
 62
     3
100
AcDbLine
 10
101.75
 20
123.0
 30
0.0
 11
93.65
 21
123.0
 31
0.0
  0
LINE
  5
CD
100
AcDbEntity
  8
0
100
AcDbLine
 10
88.75
 20
147.0
 30
0.0
 11
101.75
 21
147.0
 31
0.0
  0
LINE
  5
CE
100
AcDbEntity
  8
0
  6
DASHED
 62
     3
100
AcDbLine
 10
101.75
 20
137.0
 30
0.0
 11
93.65
 21
137.0
 31
0.0
  0
LINE
  5
CF
100
AcDbEntity
  8
CENTER
  6
CENTER
 62
     1
100
AcDbLine
 10
133.75
 20
137.75
 30
0.0
 11
133.75
 21
122.25
 31
0.0
  0
LINE
  5
D0
100
AcDbEntity
  8
CENTER
  6
CENTER
 62
     1
100
AcDbLine
 10
187.75
 20
137.75
 30
0.0
 11
187.75
 21
122.25
 31
0.0
  0
CIRCLE
  5
D1
100
AcDbEntity
  8
0
100
AcDbCircle
 10
133.75
 20
130.0
 30
0.0
 40
7.0
  0
LINE
  5
D2
100
AcDbEntity
  8
CENTER
  6
CENTER
 62
     1
100
AcDbLine
 10
126.0
 20
130.0
 30
0.0
 11
141.5
 21
130.0
 31
0.0
  0
CIRCLE
  5
D3
100
AcDbEntity
  8
0
100
AcDbCircle
 10
133.75
 20
130.0
 30
0.0
 40
4.5
  0
LINE
  5
D4
100
AcDbEntity
  8
0
100
AcDbLine
 10
201.75
 20
129.59798
 30
0.0
 11
201.75
 21
50.40202
 31
0.0
  0
TEXT
  5
109
100
AcDbEntity
  8
0
100
AcDbText
 10
112.707676
 20
27.264893
 30
0.0
 40
2.0
  1
DE-6008ZZ
100
AcDbText
  0
TEXT
  5
10A
100
AcDbEntity
  8
0
100
AcDbText
 10
112.707676
 20
24.864893
 30
0.0
 40
2.0
  1
DEM-6008ZZ
100
AcDbText
  0
TEXT
  5
10B
100
AcDbEntity
  8
0
100
AcDbText
 10
112.707676
 20
22.464893
 30
0.0
 40
2.0
  1
DES-6008ZZ
100
AcDbText
  0
ENDSEC
  0
SECTION
  2
OBJECTS
  0
DICTIONARY
  5
E5
100
AcDbDictionary
  3
ACAD_GROUP
350
E6
  3
ACAD_MLINESTYLE
350
F4
  0
DICTIONARY
  5
E6
102
{ACAD_REACTORS
330
E5
102
}
100
AcDbDictionary
  0
DICTIONARY
  5
F4
102
{ACAD_REACTORS
330
E5
102
}
100
AcDbDictionary
  3
STANDARD
350
F5
  0
MLINESTYLE
  5
F5
102
{ACAD_REACTORS
330
F4
102
}
100
AcDbMlineStyle
  2
STANDARD
 70
     0
  3

 62
   256
 51
90.0
 52
90.0
 71
     2
 49
0.5
 62
   256
  6
BYLAYER
 49
-0.5
 62
   256
  6
BYLAYER
  0
ENDSEC
  0
EOF
