  0
SECTION
  2
HEADER
  9
$ACADVER
  1
AC1014
  9
$ACADMAINTVER
 70
     0
  9
$DWGCODEPAGE
  3
ANSI_932
  9
$INSBASE
 10
0.0
 20
0.0
 30
0.0
  9
$EXTMIN
 10
8.5
 20
-0.8
 30
0.0
  9
$EXTMAX
 10
160.5
 20
95.5
 30
0.0
  9
$LIMMIN
 10
0.0
 20
0.0
  9
$LIMMAX
 10
420.0
 20
297.0
  9
$ORTHOMODE
 70
     1
  9
$REGENMODE
 70
     1
  9
$FILLMODE
 70
     1
  9
$QTEXTMODE
 70
     0
  9
$MIRRTEXT
 70
     1
  9
$DRAGMODE
 70
     2
  9
$LTSCALE
 40
0.25
  9
$OSMODE
 70
   545
  9
$ATTMODE
 70
     1
  9
$TEXTSIZE
 40
2.0
  9
$TRACEWID
 40
1.0
  9
$TEXTSTYLE
  7
STANDARD
  9
$CLAYER
  8
0
  9
$CELTYPE
  6
BYLAYER
  9
$CECOLOR
 62
   256
  9
$CELTSCALE
 40
1.0
  9
$DELOBJ
 70
     1
  9
$DISPSILH
 70
     0
  9
$DIMSCALE
 40
1.0
  9
$DIMASZ
 40
2.5
  9
$DIMEXO
 40
0.625
  9
$DIMDLI
 40
3.75
  9
$DIMRND
 40
0.0
  9
$DIMDLE
 40
0.0
  9
$DIMEXE
 40
1.25
  9
$DIMTP
 40
0.0
  9
$DIMTM
 40
0.0
  9
$DIMTXT
 40
2.5
  9
$DIMCEN
 40
2.5
  9
$DIMTSZ
 40
0.0
  9
$DIMTOL
 70
     0
  9
$DIMLIM
 70
     0
  9
$DIMTIH
 70
     0
  9
$DIMTOH
 70
     0
  9
$DIMSE1
 70
     0
  9
$DIMSE2
 70
     0
  9
$DIMTAD
 70
     1
  9
$DIMZIN
 70
     8
  9
$DIMBLK
  1

  9
$DIMASO
 70
     1
  9
$DIMSHO
 70
     1
  9
$DIMPOST
  1

  9
$DIMAPOST
  1

  9
$DIMALT
 70
     0
  9
$DIMALTD
 70
     4
  9
$DIMALTF
 40
0.0394
  9
$DIMLFAC
 40
1.0
  9
$DIMTOFL
 70
     1
  9
$DIMTVP
 40
0.0
  9
$DIMTIX
 70
     0
  9
$DIMSOXD
 70
     0
  9
$DIMSAH
 70
     0
  9
$DIMBLK1
  1

  9
$DIMBLK2
  1

  9
$DIMSTYLE
  2
ISO-25
  9
$DIMCLRD
 70
     0
  9
$DIMCLRE
 70
     0
  9
$DIMCLRT
 70
     0
  9
$DIMTFAC
 40
1.0
  9
$DIMGAP
 40
0.625
  9
$DIMJUST
 70
     0
  9
$DIMSD1
 70
     0
  9
$DIMSD2
 70
     0
  9
$DIMTOLJ
 70
     1
  9
$DIMTZIN
 70
     0
  9
$DIMALTZ
 70
     0
  9
$DIMALTTZ
 70
     0
  9
$DIMFIT
 70
     3
  9
$DIMUPT
 70
     0
  9
$DIMUNIT
 70
     2
  9
$DIMDEC
 70
     4
  9
$DIMTDEC
 70
     4
  9
$DIMALTU
 70
     2
  9
$DIMALTTD
 70
     2
  9
$DIMTXSTY
  7
STANDARD
  9
$DIMAUNIT
 70
     0
  9
$LUNITS
 70
     2
  9
$LUPREC
 70
     2
  9
$SKETCHINC
 40
1.0
  9
$FILLETRAD
 40
2.5
  9
$AUNITS
 70
     0
  9
$AUPREC
 70
     0
  9
$MENU
  1
.
  9
$ELEVATION
 40
0.0
  9
$PELEVATION
 40
0.0
  9
$THICKNESS
 40
0.0
  9
$LIMCHECK
 70
     0
  9
$BLIPMODE
 70
     0
  9
$CHAMFERA
 40
2.5
  9
$CHAMFERB
 40
2.5
  9
$CHAMFERC
 40
0.0
  9
$CHAMFERD
 40
0.0
  9
$SKPOLY
 70
     1
  9
$TDCREATE
 40
2451788.670125231
  9
$TDUPDATE
 40
2452951.392672685
  9
$TDINDWG
 40
0.0015549769
  9
$TDUSRTIMER
 40
0.0015549769
  9
$USRTIMER
 70
     1
  9
$ANGBASE
 50
0.0
  9
$ANGDIR
 70
     0
  9
$PDMODE
 70
     0
  9
$PDSIZE
 40
0.0
  9
$PLINEWID
 40
0.0
  9
$COORDS
 70
     1
  9
$SPLFRAME
 70
     0
  9
$SPLINETYPE
 70
     6
  9
$SPLINESEGS
 70
     8
  9
$ATTDIA
 70
     1
  9
$ATTREQ
 70
     1
  9
$HANDLING
 70
     1
  9
$HANDSEED
  5
9B
  9
$SURFTAB1
 70
     6
  9
$SURFTAB2
 70
     6
  9
$SURFTYPE
 70
     6
  9
$SURFU
 70
     6
  9
$SURFV
 70
     6
  9
$UCSNAME
  2

  9
$UCSORG
 10
0.0
 20
0.0
 30
0.0
  9
$UCSXDIR
 10
1.0
 20
0.0
 30
0.0
  9
$UCSYDIR
 10
0.0
 20
1.0
 30
0.0
  9
$PUCSNAME
  2

  9
$PUCSORG
 10
0.0
 20
0.0
 30
0.0
  9
$PUCSXDIR
 10
1.0
 20
0.0
 30
0.0
  9
$PUCSYDIR
 10
0.0
 20
1.0
 30
0.0
  9
$USERI1
 70
     0
  9
$USERI2
 70
     0
  9
$USERI3
 70
     0
  9
$USERI4
 70
     0
  9
$USERI5
 70
     0
  9
$USERR1
 40
0.0
  9
$USERR2
 40
0.0
  9
$USERR3
 40
0.0
  9
$USERR4
 40
0.0
  9
$USERR5
 40
0.0
  9
$WORLDVIEW
 70
     1
  9
$SHADEDGE
 70
     3
  9
$SHADEDIF
 70
    70
  9
$TILEMODE
 70
     1
  9
$MAXACTVP
 70
    48
  9
$PINSBASE
 10
0.0
 20
0.0
 30
0.0
  9
$PLIMCHECK
 70
     0
  9
$PEXTMIN
 10
1.000000E+20
 20
1.000000E+20
 30
1.000000E+20
  9
$PEXTMAX
 10
-1.000000E+20
 20
-1.000000E+20
 30
-1.000000E+20
  9
$PLIMMIN
 10
0.0
 20
0.0
  9
$PLIMMAX
 10
420.0
 20
297.0
  9
$UNITMODE
 70
     0
  9
$VISRETAIN
 70
     1
  9
$PLINEGEN
 70
     0
  9
$PSLTSCALE
 70
     1
  9
$TREEDEPTH
 70
  3020
  9
$PICKSTYLE
 70
     1
  9
$CMLSTYLE
  2
STANDARD
  9
$CMLJUST
 70
     0
  9
$CMLSCALE
 40
1.0
  9
$PROXYGRAPHICS
 70
     1
  9
$MEASUREMENT
 70
     0
  0
ENDSEC
  0
SECTION
  2
CLASSES
  0
ENDSEC
  0
SECTION
  2
TABLES
  0
TABLE
  2
VPORT
  5
6B
100
AcDbSymbolTable
 70
     1
  0
VPORT
  5
96
100
AcDbSymbolTableRecord
100
AcDbViewportTableRecord
  2
*ACTIVE
 70
     0
 10
0.0
 20
0.0
 11
1.0
 21
1.0
 12
63.5
 22
44.0
 13
0.0
 23
0.0
 14
1.0
 24
1.0
 15
10.0
 25
10.0
 16
0.0
 26
0.0
 36
1.0
 17
0.0
 27
0.0
 37
0.0
 40
108.0
 41
1.454412
 42
50.0
 43
0.0
 44
0.0
 50
0.0
 51
0.0
 71
     0
 72
   100
 73
     1
 74
     1
 75
     1
 76
     1
 77
     0
 78
     0
  0
ENDTAB
  0
TABLE
  2
LTYPE
  5
68
100
AcDbSymbolTable
 70
     3
  0
LTYPE
  5
75
100
AcDbSymbolTableRecord
100
AcDbLinetypeTableRecord
  2
BYBLOCK
 70
     0
  3

 72
    65
 73
     0
 40
0.0
  0
LTYPE
  5
76
100
AcDbSymbolTableRecord
100
AcDbLinetypeTableRecord
  2
BYLAYER
 70
     0
  3

 72
    65
 73
     0
 40
0.0
  0
LTYPE
  5
77
100
AcDbSymbolTableRecord
100
AcDbLinetypeTableRecord
  2
CONTINUOUS
 70
     0
  3
Solid line
 72
    65
 73
     0
 40
0.0
  0
LTYPE
  5
82
100
AcDbSymbolTableRecord
100
AcDbLinetypeTableRecord
  2
CENTER
 70
     0
  3
Center ____ _ ____ _ ____ _ ____ _ ____ _ ____
 72
    65
 73
     4
 40
50.8
 49
31.75
 74
     0
 49
-6.35
 74
     0
 49
6.35
 74
     0
 49
-6.35
 74
     0
  0
LTYPE
  5
83
100
AcDbSymbolTableRecord
100
AcDbLinetypeTableRecord
  2
DASHED
 70
     0
  3
Dashed __ __ __ __ __ __ __ __ __ __ __ __ __ _
 72
    65
 73
     2
 40
19.05
 49
12.7
 74
     0
 49
-6.35
 74
     0
  0
ENDTAB
  0
TABLE
  2
LAYER
  5
65
100
AcDbSymbolTable
 70
     2
  0
LAYER
  5
71
100
AcDbSymbolTableRecord
100
AcDbLayerTableRecord
  2
0
 70
     0
 62
     7
  6
CONTINUOUS
  0
LAYER
  5
84
100
AcDbSymbolTableRecord
100
AcDbLayerTableRecord
  2
CENTER
 70
     0
 62
     1
  6
CENTER
  0
ENDTAB
  0
TABLE
  2
STYLE
  5
66
100
AcDbSymbolTable
 70
     1
  0
STYLE
  5
72
100
AcDbSymbolTableRecord
100
AcDbTextStyleTableRecord
  2
STANDARD
 70
     0
 40
0.0
 41
1.0
 50
0.0
 71
     0
 42
2.0
  3
txt.shx
  4
extfont.shx
  0
ENDTAB
  0
TABLE
  2
VIEW
  5
69
100
AcDbSymbolTable
 70
     0
  0
ENDTAB
  0
TABLE
  2
UCS
  5
6A
100
AcDbSymbolTable
 70
     0
  0
ENDTAB
  0
TABLE
  2
APPID
  5
6C
100
AcDbSymbolTable
 70
     1
  0
APPID
  5
73
100
AcDbSymbolTableRecord
100
AcDbRegAppTableRecord
  2
ACAD
 70
     0
  0
ENDTAB
  0
TABLE
  2
DIMSTYLE
  5
6D
100
AcDbSymbolTable
 70
     1
  0
DIMSTYLE
105
85
100
AcDbSymbolTableRecord
100
AcDbDimStyleTableRecord
  2
ISO-25
 70
     0
  3

  4

  5

  6

  7

 40
1.0
 41
2.5
 42
0.625
 43
3.75
 44
1.25
 45
0.0
 46
0.0
 47
0.0
 48
0.0
140
2.5
141
2.5
142
0.0
143
0.0394
144
1.0
145
0.0
146
1.0
147
0.625
 71
     0
 72
     0
 73
     0
 74
     0
 75
     0
 76
     0
 77
     1
 78
     8
170
     0
171
     4
172
     1
173
     0
174
     0
175
     0
176
     0
177
     0
178
     0
270
     2
271
     4
272
     4
273
     2
274
     2
340
72
275
     0
280
     0
281
     0
282
     0
283
     1
284
     0
285
     0
286
     0
287
     3
288
     0
  0
ENDTAB
  0
TABLE
  2
BLOCK_RECORD
  5
64
100
AcDbSymbolTable
 70
     2
  0
BLOCK_RECORD
  5
7B
100
AcDbSymbolTableRecord
100
AcDbBlockTableRecord
  2
*MODEL_SPACE
  0
BLOCK_RECORD
  5
78
100
AcDbSymbolTableRecord
100
AcDbBlockTableRecord
  2
*PAPER_SPACE
  0
BLOCK_RECORD
  5
87
100
AcDbSymbolTableRecord
100
AcDbBlockTableRecord
  2
$MODEL_SPACE
  0
BLOCK_RECORD
  5
89
100
AcDbSymbolTableRecord
100
AcDbBlockTableRecord
  2
$PAPER_SPACE
  0
ENDTAB
  0
ENDSEC
  0
SECTION
  2
BLOCKS
  0
BLOCK
  5
7C
100
AcDbEntity
  8
0
100
AcDbBlockBegin
  2
*MODEL_SPACE
 70
     0
 10
0.0
 20
0.0
 30
0.0
  3
*MODEL_SPACE
  1

  0
ENDBLK
  5
7D
100
AcDbEntity
  8
0
100
AcDbBlockEnd
  0
BLOCK
  5
79
100
AcDbEntity
 67
     1
  8
0
100
AcDbBlockBegin
  2
*PAPER_SPACE
 70
     0
 10
0.0
 20
0.0
 30
0.0
  3
*PAPER_SPACE
  1

  0
ENDBLK
  5
7A
100
AcDbEntity
 67
     1
  8
0
100
AcDbBlockEnd
  0
BLOCK
  5
88
100
AcDbEntity
  8
0
100
AcDbBlockBegin
  2
$MODEL_SPACE
 70
     0
 10
0.0
 20
0.0
 30
0.0
  3
$MODEL_SPACE
  1

  0
ENDBLK
  5
6
100
AcDbEntity
  8
0
100
AcDbBlockEnd
  0
BLOCK
  5
8A
100
AcDbEntity
  8
0
100
AcDbBlockBegin
  2
$PAPER_SPACE
 70
     0
 10
0.0
 20
0.0
 30
0.0
  3
$PAPER_SPACE
  1

  0
ENDBLK
  5
9
100
AcDbEntity
  8
0
100
AcDbBlockEnd
  0
ENDSEC
  0
SECTION
  2
ENTITIES
  0
LINE
  5
1D
100
AcDbEntity
  8
0
  6
DASHED
 62
     3
100
AcDbLine
 10
22.0
 20
73.5
 30
0.0
 11
22.0
 21
26.5
 31
0.0
  0
LINE
  5
1F
100
AcDbEntity
  8
0
  6
DASHED
 62
     3
100
AcDbLine
 10
38.0
 20
73.5
 30
0.0
 11
38.0
 21
26.5
 31
0.0
  0
LINE
  5
20
100
AcDbEntity
  8
0
100
AcDbLine
 10
37.0
 20
77.0
 30
0.0
 11
37.0
 21
23.0
 31
0.0
  0
LINE
  5
21
100
AcDbEntity
  8
0
100
AcDbLine
 10
50.0
 20
6.0
 30
0.0
 11
50.0
 21
50.0
 31
0.0
  0
LINE
  5
22
100
AcDbEntity
  8
0
100
AcDbLine
 10
10.0
 20
50.0
 30
0.0
 11
10.0
 21
23.0
 31
0.0
  0
LINE
  5
23
100
AcDbEntity
  8
0
  6
DASHED
 62
     3
100
AcDbLine
 10
10.0
 20
37.5
 30
0.0
 11
22.0
 21
37.5
 31
0.0
  0
LINE
  5
24
100
AcDbEntity
  8
0
  6
DASHED
 62
     3
100
AcDbLine
 10
10.0
 20
26.5
 30
0.0
 11
22.0
 21
26.5
 31
0.0
  0
LINE
  5
27
100
AcDbEntity
  8
0
100
AcDbLine
 10
10.0
 20
23.0
 30
0.0
 11
37.0
 21
23.0
 31
0.0
  0
LINE
  5
28
100
AcDbEntity
  8
CENTER
  6
CENTER
 62
     1
100
AcDbLine
 10
35.5
 20
14.0
 30
0.0
 11
51.5
 21
14.0
 31
0.0
  0
LINE
  5
2D
100
AcDbEntity
  8
0
  6
DASHED
 62
     3
100
AcDbLine
 10
50.0
 20
7.0
 30
0.0
 11
41.9
 21
7.0
 31
0.0
  0
LINE
  5
2E
100
AcDbEntity
  8
0
  6
DASHED
 62
     3
100
AcDbLine
 10
50.0
 20
21.0
 30
0.0
 11
41.9
 21
21.0
 31
0.0
  0
LINE
  5
2F
100
AcDbEntity
  8
0
  6
DASHED
 62
     3
100
AcDbLine
 10
50.0
 20
37.5
 30
0.0
 11
38.0
 21
37.5
 31
0.0
  0
LINE
  5
30
100
AcDbEntity
  8
0
  6
DASHED
 62
     3
100
AcDbLine
 10
50.0
 20
26.5
 30
0.0
 11
38.0
 21
26.5
 31
0.0
  0
LINE
  5
31
100
AcDbEntity
  8
0
100
AcDbLine
 10
37.0
 20
6.0
 30
0.0
 11
50.0
 21
6.0
 31
0.0
  0
LINE
  5
32
100
AcDbEntity
  8
0
  6
DASHED
 62
     3
100
AcDbLine
 10
41.9
 20
7.0
 30
0.0
 11
41.9
 21
14.0
 31
0.0
  0
LINE
  5
33
100
AcDbEntity
  8
0
100
AcDbLine
 10
37.0
 20
23.0
 30
0.0
 11
37.0
 21
6.0
 31
0.0
  0
LINE
  5
34
100
AcDbEntity
  8
0
  6
DASHED
 62
     3
100
AcDbLine
 10
41.9
 20
9.5
 30
0.0
 11
37.0
 21
9.5
 31
0.0
  0
LINE
  5
35
100
AcDbEntity
  8
0
  6
DASHED
 62
     3
100
AcDbLine
 10
41.9
 20
18.5
 30
0.0
 11
37.0
 21
18.5
 31
0.0
  0
LINE
  5
36
100
AcDbEntity
  8
0
  6
DASHED
 62
     3
100
AcDbLine
 10
41.9
 20
21.0
 30
0.0
 11
41.9
 21
14.0
 31
0.0
  0
LINE
  5
37
100
AcDbEntity
  8
0
  6
DASHED
 62
     3
100
AcDbLine
 10
22.0
 20
29.5
 30
0.0
 11
38.0
 21
29.5
 31
0.0
  0
LINE
  5
38
100
AcDbEntity
  8
CENTER
  6
CENTER
 62
     1
100
AcDbLine
 10
8.5
 20
50.0
 30
0.0
 11
51.5
 21
50.0
 31
0.0
  0
LINE
  5
39
100
AcDbEntity
  8
0
  6
DASHED
 62
     3
100
AcDbLine
 10
10.0
 20
62.5
 30
0.0
 11
22.0
 21
62.5
 31
0.0
  0
LINE
  5
3A
100
AcDbEntity
  8
0
  6
DASHED
 62
     3
100
AcDbLine
 10
10.0
 20
73.5
 30
0.0
 11
22.0
 21
73.5
 31
0.0
  0
LINE
  5
3B
100
AcDbEntity
  8
0
100
AcDbLine
 10
10.0
 20
77.0
 30
0.0
 11
37.0
 21
77.0
 31
0.0
  0
LINE
  5
3C
100
AcDbEntity
  8
0
100
AcDbLine
 10
10.0
 20
50.0
 30
0.0
 11
10.0
 21
77.0
 31
0.0
  0
LINE
  5
3D
100
AcDbEntity
  8
CENTER
  6
CENTER
 62
     1
100
AcDbLine
 10
35.5
 20
86.0
 30
0.0
 11
51.5
 21
86.0
 31
0.0
  0
LINE
  5
3E
100
AcDbEntity
  8
0
  6
DASHED
 62
     3
100
AcDbLine
 10
50.0
 20
62.5
 30
0.0
 11
38.0
 21
62.5
 31
0.0
  0
LINE
  5
3F
100
AcDbEntity
  8
0
  6
DASHED
 62
     3
100
AcDbLine
 10
50.0
 20
93.0
 30
0.0
 11
41.9
 21
93.0
 31
0.0
  0
LINE
  5
40
100
AcDbEntity
  8
0
  6
DASHED
 62
     3
100
AcDbLine
 10
50.0
 20
79.0
 30
0.0
 11
41.9
 21
79.0
 31
0.0
  0
LINE
  5
41
100
AcDbEntity
  8
0
  6
DASHED
 62
     3
100
AcDbLine
 10
50.0
 20
73.5
 30
0.0
 11
38.0
 21
73.5
 31
0.0
  0
LINE
  5
42
100
AcDbEntity
  8
0
100
AcDbLine
 10
37.0
 20
94.0
 30
0.0
 11
50.0
 21
94.0
 31
0.0
  0
LINE
  5
43
100
AcDbEntity
  8
0
  6
DASHED
 62
     3
100
AcDbLine
 10
22.0
 20
70.5
 30
0.0
 11
38.0
 21
70.5
 31
0.0
  0
LINE
  5
44
100
AcDbEntity
  8
0
  6
DASHED
 62
     3
100
AcDbLine
 10
41.9
 20
79.0
 30
0.0
 11
41.9
 21
86.0
 31
0.0
  0
LINE
  5
45
100
AcDbEntity
  8
0
100
AcDbLine
 10
37.0
 20
77.0
 30
0.0
 11
37.0
 21
94.0
 31
0.0
  0
LINE
  5
46
100
AcDbEntity
  8
0
  6
DASHED
 62
     3
100
AcDbLine
 10
41.9
 20
81.5
 30
0.0
 11
37.0
 21
81.5
 31
0.0
  0
LINE
  5
47
100
AcDbEntity
  8
0
  6
DASHED
 62
     3
100
AcDbLine
 10
41.9
 20
90.5
 30
0.0
 11
37.0
 21
90.5
 31
0.0
  0
LINE
  5
48
100
AcDbEntity
  8
0
  6
DASHED
 62
     3
100
AcDbLine
 10
41.9
 20
93.0
 30
0.0
 11
41.9
 21
86.0
 31
0.0
  0
LINE
  5
49
100
AcDbEntity
  8
0
100
AcDbLine
 10
50.0
 20
94.0
 30
0.0
 11
50.0
 21
50.0
 31
0.0
  0
LINE
  5
4A
100
AcDbEntity
  8
CENTER
  6
CENTER
 62
     1
100
AcDbLine
 10
130.0
 20
95.5
 30
0.0
 11
130.0
 21
4.5
 31
0.0
  0
CIRCLE
  5
4B
100
AcDbEntity
  8
0
  6
DASHED
 62
     3
100
AcDbCircle
 10
130.0
 20
50.0
 30
0.0
 40
27.0
  0
LINE
  5
4C
100
AcDbEntity
  8
0
100
AcDbLine
 10
101.0
 20
83.090784
 30
0.0
 11
101.0
 21
16.909216
 31
0.0
  0
LINE
  5
4D
100
AcDbEntity
  8
0
100
AcDbLine
 10
159.0
 20
83.090784
 30
0.0
 11
159.0
 21
16.909216
 31
0.0
  0
CIRCLE
  5
4E
100
AcDbEntity
  8
0
100
AcDbCircle
 10
130.0
 20
50.0
 30
0.0
 40
23.5
  0
CIRCLE
  5
4F
100
AcDbEntity
  8
0
100
AcDbCircle
 10
130.0
 20
50.0
 30
0.0
 40
12.5
  0
LINE
  5
50
100
AcDbEntity
  8
CENTER
  6
CENTER
 62
     1
100
AcDbLine
 10
155.75
 20
18.5
 30
0.0
 11
140.25
 21
18.5
 31
0.0
  0
CIRCLE
  5
51
100
AcDbEntity
  8
0
100
AcDbCircle
 10
148.0
 20
18.5
 30
0.0
 40
4.5
  0
CIRCLE
  5
52
100
AcDbEntity
  8
0
100
AcDbCircle
 10
148.0
 20
18.5
 30
0.0
 40
7.0
  0
ARC
  5
53
100
AcDbEntity
  8
0
100
AcDbCircle
 10
130.0
 20
50.0
 30
0.0
 40
44.0
100
AcDbArc
 50
228.769423
 51
311.230577
  0
LINE
  5
54
100
AcDbEntity
  8
CENTER
  6
CENTER
 62
     1
100
AcDbLine
 10
104.25
 20
18.5
 30
0.0
 11
119.75
 21
18.5
 31
0.0
  0
CIRCLE
  5
55
100
AcDbEntity
  8
0
100
AcDbCircle
 10
112.0
 20
18.5
 30
0.0
 40
4.5
  0
CIRCLE
  5
56
100
AcDbEntity
  8
0
100
AcDbCircle
 10
112.0
 20
18.5
 30
0.0
 40
7.0
  0
LINE
  5
57
100
AcDbEntity
  8
CENTER
  6
CENTER
 62
     1
100
AcDbLine
 10
112.0
 20
10.75
 30
0.0
 11
112.0
 21
26.25
 31
0.0
  0
LINE
  5
58
100
AcDbEntity
  8
CENTER
  6
CENTER
 62
     1
100
AcDbLine
 10
148.0
 20
10.75
 30
0.0
 11
148.0
 21
26.25
 31
0.0
  0
LINE
  5
59
100
AcDbEntity
  8
CENTER
  6
CENTER
 62
     1
100
AcDbLine
 10
155.75
 20
81.5
 30
0.0
 11
140.25
 21
81.5
 31
0.0
  0
LINE
  5
5A
100
AcDbEntity
  8
CENTER
  6
CENTER
 62
     1
100
AcDbLine
 10
160.5
 20
50.0
 30
0.0
 11
99.5
 21
50.0
 31
0.0
  0
CIRCLE
  5
5B
100
AcDbEntity
  8
0
100
AcDbCircle
 10
148.0
 20
81.5
 30
0.0
 40
4.5
  0
CIRCLE
  5
5C
100
AcDbEntity
  8
0
100
AcDbCircle
 10
148.0
 20
81.5
 30
0.0
 40
7.0
  0
ARC
  5
5D
100
AcDbEntity
  8
0
100
AcDbCircle
 10
130.0
 20
50.0
 30
0.0
 40
44.0
100
AcDbArc
 50
48.769423
 51
131.230577
  0
LINE
  5
5E
100
AcDbEntity
  8
CENTER
  6
CENTER
 62
     1
100
AcDbLine
 10
104.25
 20
81.5
 30
0.0
 11
119.75
 21
81.5
 31
0.0
  0
CIRCLE
  5
5F
100
AcDbEntity
  8
0
100
AcDbCircle
 10
112.0
 20
81.5
 30
0.0
 40
4.5
  0
CIRCLE
  5
60
100
AcDbEntity
  8
0
100
AcDbCircle
 10
112.0
 20
81.5
 30
0.0
 40
7.0
  0
LINE
  5
61
100
AcDbEntity
  8
CENTER
  6
CENTER
 62
     1
100
AcDbLine
 10
112.0
 20
89.25
 30
0.0
 11
112.0
 21
73.75
 31
0.0
  0
LINE
  5
62
100
AcDbEntity
  8
CENTER
  6
CENTER
 62
     1
100
AcDbLine
 10
148.0
 20
89.25
 30
0.0
 11
148.0
 21
73.75
 31
0.0
  0
TEXT
  5
93
100
AcDbEntity
  8
0
100
AcDbText
 10
82.0
 20
4.0
 30
0.0
 40
2.0
  1
DE-6005ZZ
100
AcDbText
  0
TEXT
  5
94
100
AcDbEntity
  8
0
100
AcDbText
 10
82.0
 20
1.6
 30
0.0
 40
2.0
  1
DEM-6005ZZ
100
AcDbText
  0
TEXT
  5
95
100
AcDbEntity
  8
0
100
AcDbText
 10
82.0
 20
-0.8
 30
0.0
 40
2.0
  1
DES-6005ZZ
100
AcDbText
  0
ENDSEC
  0
SECTION
  2
OBJECTS
  0
DICTIONARY
  5
6F
100
AcDbDictionary
  3
ACAD_GROUP
350
70
  3
ACAD_MLINESTYLE
350
7E
  0
DICTIONARY
  5
70
102
{ACAD_REACTORS
330
6F
102
}
100
AcDbDictionary
  0
DICTIONARY
  5
7E
102
{ACAD_REACTORS
330
6F
102
}
100
AcDbDictionary
  3
STANDARD
350
7F
  0
MLINESTYLE
  5
7F
102
{ACAD_REACTORS
330
7E
102
}
100
AcDbMlineStyle
  2
STANDARD
 70
     0
  3

 62
   256
 51
90.0
 52
90.0
 71
     2
 49
0.5
 62
   256
  6
BYLAYER
 49
-0.5
 62
   256
  6
BYLAYER
  0
ENDSEC
  0
EOF
