  0
SECTION
  2
HEADER
  9
$ACADVER
  1
AC1014
  9
$ACADMAINTVER
 70
     0
  9
$DWGCODEPAGE
  3
ANSI_932
  9
$INSBASE
 10
0.0
 20
0.0
 30
0.0
  9
$EXTMIN
 10
60.5
 20
-8.5
 30
0.0
  9
$EXTMAX
 10
263.5
 20
108.5
 30
0.0
  9
$LIMMIN
 10
0.0
 20
0.0
  9
$LIMMAX
 10
420.0
 20
297.0
  9
$ORTHOMODE
 70
     1
  9
$REGENMODE
 70
     1
  9
$FILLMODE
 70
     1
  9
$QTEXTMODE
 70
     0
  9
$MIRRTEXT
 70
     1
  9
$DRAGMODE
 70
     2
  9
$LTSCALE
 40
1.0
  9
$OSMODE
 70
    37
  9
$ATTMODE
 70
     1
  9
$TEXTSIZE
 40
2.0
  9
$TRACEWID
 40
1.0
  9
$TEXTSTYLE
  7
STANDARD
  9
$CLAYER
  8
0
  9
$CELTYPE
  6
BYLAYER
  9
$CECOLOR
 62
   256
  9
$CELTSCALE
 40
1.0
  9
$DELOBJ
 70
     1
  9
$DISPSILH
 70
     0
  9
$DIMSCALE
 40
1.0
  9
$DIMASZ
 40
2.5
  9
$DIMEXO
 40
0.625
  9
$DIMDLI
 40
3.75
  9
$DIMRND
 40
0.0
  9
$DIMDLE
 40
0.0
  9
$DIMEXE
 40
1.25
  9
$DIMTP
 40
0.0
  9
$DIMTM
 40
0.0
  9
$DIMTXT
 40
2.5
  9
$DIMCEN
 40
2.5
  9
$DIMTSZ
 40
0.0
  9
$DIMTOL
 70
     0
  9
$DIMLIM
 70
     0
  9
$DIMTIH
 70
     0
  9
$DIMTOH
 70
     0
  9
$DIMSE1
 70
     0
  9
$DIMSE2
 70
     0
  9
$DIMTAD
 70
     1
  9
$DIMZIN
 70
     8
  9
$DIMBLK
  1

  9
$DIMASO
 70
     1
  9
$DIMSHO
 70
     1
  9
$DIMPOST
  1

  9
$DIMAPOST
  1

  9
$DIMALT
 70
     0
  9
$DIMALTD
 70
     4
  9
$DIMALTF
 40
0.0394
  9
$DIMLFAC
 40
1.0
  9
$DIMTOFL
 70
     1
  9
$DIMTVP
 40
0.0
  9
$DIMTIX
 70
     0
  9
$DIMSOXD
 70
     0
  9
$DIMSAH
 70
     0
  9
$DIMBLK1
  1

  9
$DIMBLK2
  1

  9
$DIMSTYLE
  2
STANDARD
  9
$DIMCLRD
 70
     0
  9
$DIMCLRE
 70
     0
  9
$DIMCLRT
 70
     0
  9
$DIMTFAC
 40
1.0
  9
$DIMGAP
 40
0.625
  9
$DIMJUST
 70
     0
  9
$DIMSD1
 70
     0
  9
$DIMSD2
 70
     0
  9
$DIMTOLJ
 70
     1
  9
$DIMTZIN
 70
     0
  9
$DIMALTZ
 70
     0
  9
$DIMALTTZ
 70
     0
  9
$DIMFIT
 70
     3
  9
$DIMUPT
 70
     0
  9
$DIMUNIT
 70
     2
  9
$DIMDEC
 70
     4
  9
$DIMTDEC
 70
     4
  9
$DIMALTU
 70
     2
  9
$DIMALTTD
 70
     2
  9
$DIMTXSTY
  7
STANDARD
  9
$DIMAUNIT
 70
     0
  9
$LUNITS
 70
     2
  9
$LUPREC
 70
     2
  9
$SKETCHINC
 40
1.0
  9
$FILLETRAD
 40
2.5
  9
$AUNITS
 70
     0
  9
$AUPREC
 70
     0
  9
$MENU
  1
.
  9
$ELEVATION
 40
0.0
  9
$PELEVATION
 40
0.0
  9
$THICKNESS
 40
0.0
  9
$LIMCHECK
 70
     0
  9
$BLIPMODE
 70
     0
  9
$CHAMFERA
 40
2.5
  9
$CHAMFERB
 40
2.5
  9
$CHAMFERC
 40
0.0
  9
$CHAMFERD
 40
0.0
  9
$SKPOLY
 70
     1
  9
$TDCREATE
 40
2452095.768215625
  9
$TDUPDATE
 40
2452951.567155208
  9
$TDINDWG
 40
0.0008729282
  9
$TDUSRTIMER
 40
0.0008729282
  9
$USRTIMER
 70
     1
  9
$ANGBASE
 50
0.0
  9
$ANGDIR
 70
     0
  9
$PDMODE
 70
     0
  9
$PDSIZE
 40
0.0
  9
$PLINEWID
 40
0.0
  9
$COORDS
 70
     2
  9
$SPLFRAME
 70
     0
  9
$SPLINETYPE
 70
     6
  9
$SPLINESEGS
 70
     8
  9
$ATTDIA
 70
     0
  9
$ATTREQ
 70
     1
  9
$HANDLING
 70
     1
  9
$HANDSEED
  5
25F
  9
$SURFTAB1
 70
     6
  9
$SURFTAB2
 70
     6
  9
$SURFTYPE
 70
     6
  9
$SURFU
 70
     6
  9
$SURFV
 70
     6
  9
$UCSNAME
  2

  9
$UCSORG
 10
0.0
 20
0.0
 30
0.0
  9
$UCSXDIR
 10
1.0
 20
0.0
 30
0.0
  9
$UCSYDIR
 10
0.0
 20
1.0
 30
0.0
  9
$PUCSNAME
  2

  9
$PUCSORG
 10
0.0
 20
0.0
 30
0.0
  9
$PUCSXDIR
 10
1.0
 20
0.0
 30
0.0
  9
$PUCSYDIR
 10
0.0
 20
1.0
 30
0.0
  9
$USERI1
 70
     0
  9
$USERI2
 70
     0
  9
$USERI3
 70
     0
  9
$USERI4
 70
     0
  9
$USERI5
 70
     0
  9
$USERR1
 40
0.0
  9
$USERR2
 40
0.0
  9
$USERR3
 40
0.0
  9
$USERR4
 40
0.0
  9
$USERR5
 40
0.0
  9
$WORLDVIEW
 70
     1
  9
$SHADEDGE
 70
     3
  9
$SHADEDIF
 70
    70
  9
$TILEMODE
 70
     1
  9
$MAXACTVP
 70
    48
  9
$PINSBASE
 10
0.0
 20
0.0
 30
0.0
  9
$PLIMCHECK
 70
     0
  9
$PEXTMIN
 10
1.000000E+20
 20
1.000000E+20
 30
1.000000E+20
  9
$PEXTMAX
 10
-1.000000E+20
 20
-1.000000E+20
 30
-1.000000E+20
  9
$PLIMMIN
 10
0.0
 20
0.0
  9
$PLIMMAX
 10
420.0
 20
297.0
  9
$UNITMODE
 70
     0
  9
$VISRETAIN
 70
     1
  9
$PLINEGEN
 70
     0
  9
$PSLTSCALE
 70
     1
  9
$TREEDEPTH
 70
  3020
  9
$PICKSTYLE
 70
     1
  9
$CMLSTYLE
  2
STANDARD
  9
$CMLJUST
 70
     0
  9
$CMLSCALE
 40
1.0
  9
$PROXYGRAPHICS
 70
     1
  9
$MEASUREMENT
 70
     0
  0
ENDSEC
  0
SECTION
  2
CLASSES
  0
ENDSEC
  0
SECTION
  2
TABLES
  0
TABLE
  2
VPORT
  5
230
100
AcDbSymbolTable
 70
     1
  0
VPORT
  5
25B
100
AcDbSymbolTableRecord
100
AcDbViewportTableRecord
  2
*ACTIVE
 70
     0
 10
0.0
 20
0.0
 11
1.0
 21
1.0
 12
210.0
 22
144.25
 13
0.0
 23
0.0
 14
1.0
 24
1.0
 15
10.0
 25
10.0
 16
0.0
 26
0.0
 36
1.0
 17
0.0
 27
0.0
 37
0.0
 40
308.19163
 41
1.454412
 42
50.0
 43
0.0
 44
0.0
 50
0.0
 51
0.0
 71
     0
 72
   100
 73
     1
 74
     1
 75
     1
 76
     1
 77
     0
 78
     0
  0
ENDTAB
  0
TABLE
  2
LTYPE
  5
22D
100
AcDbSymbolTable
 70
     3
  0
LTYPE
  5
23A
100
AcDbSymbolTableRecord
100
AcDbLinetypeTableRecord
  2
BYBLOCK
 70
     0
  3

 72
    65
 73
     0
 40
0.0
  0
LTYPE
  5
23B
100
AcDbSymbolTableRecord
100
AcDbLinetypeTableRecord
  2
BYLAYER
 70
     0
  3

 72
    65
 73
     0
 40
0.0
  0
LTYPE
  5
23C
100
AcDbSymbolTableRecord
100
AcDbLinetypeTableRecord
  2
CONTINUOUS
 70
     0
  3
Solid line
 72
    65
 73
     0
 40
0.0
  0
LTYPE
  5
247
100
AcDbSymbolTableRecord
100
AcDbLinetypeTableRecord
  2
CENTER
 70
     0
  3
Center ____ _ ____ _ ____ _ ____ _ ____ _ ____
 72
    65
 73
     4
 40
50.8
 49
31.75
 74
     0
 49
-6.35
 74
     0
 49
6.35
 74
     0
 49
-6.35
 74
     0
  0
LTYPE
  5
248
100
AcDbSymbolTableRecord
100
AcDbLinetypeTableRecord
  2
DASHED
 70
     0
  3
Dashed __ __ __ __ __ __ __ __ __ __ __ __ __ _
 72
    65
 73
     2
 40
19.05
 49
12.7
 74
     0
 49
-6.35
 74
     0
  0
ENDTAB
  0
TABLE
  2
LAYER
  5
22A
100
AcDbSymbolTable
 70
     2
  0
LAYER
  5
236
100
AcDbSymbolTableRecord
100
AcDbLayerTableRecord
  2
0
 70
     0
 62
     7
  6
CONTINUOUS
  0
LAYER
  5
249
100
AcDbSymbolTableRecord
100
AcDbLayerTableRecord
  2
CENTER
 70
     0
 62
     1
  6
CENTER
  0
ENDTAB
  0
TABLE
  2
STYLE
  5
22B
100
AcDbSymbolTable
 70
     1
  0
STYLE
  5
237
100
AcDbSymbolTableRecord
100
AcDbTextStyleTableRecord
  2
STANDARD
 70
     0
 40
0.0
 41
1.0
 50
0.0
 71
     0
 42
2.0
  3
txt.shx
  4

  0
ENDTAB
  0
TABLE
  2
VIEW
  5
22E
100
AcDbSymbolTable
 70
     0
  0
ENDTAB
  0
TABLE
  2
UCS
  5
22F
100
AcDbSymbolTable
 70
     0
  0
ENDTAB
  0
TABLE
  2
APPID
  5
231
100
AcDbSymbolTable
 70
     8
  0
APPID
  5
238
100
AcDbSymbolTableRecord
100
AcDbRegAppTableRecord
  2
ACAD
 70
     0
  0
APPID
  5
24A
100
AcDbSymbolTableRecord
100
AcDbRegAppTableRecord
  2
GENIUS_GENCFG_13
 70
     0
  0
APPID
  5
24B
100
AcDbSymbolTableRecord
100
AcDbRegAppTableRecord
  2
GENIUS_GENCFG0_13
 70
     0
  0
APPID
  5
24C
100
AcDbSymbolTableRecord
100
AcDbRegAppTableRecord
  2
GENIUS_GENCFG1_13
 70
     0
  0
APPID
  5
24D
100
AcDbSymbolTableRecord
100
AcDbRegAppTableRecord
  2
GENIUS_GENCFG2_13
 70
     0
  0
APPID
  5
24E
100
AcDbSymbolTableRecord
100
AcDbRegAppTableRecord
  2
GENIUS_GENCFG3_13
 70
     0
  0
APPID
  5
24F
100
AcDbSymbolTableRecord
100
AcDbRegAppTableRecord
  2
GENIUS_GENCFG4_13
 70
     0
  0
APPID
  5
250
100
AcDbSymbolTableRecord
100
AcDbRegAppTableRecord
  2
GENIUS_GEVCFG0_13
 70
     0
  0
ENDTAB
  0
TABLE
  2
DIMSTYLE
  5
232
100
AcDbSymbolTable
 70
     1
  0
DIMSTYLE
105
251
100
AcDbSymbolTableRecord
100
AcDbDimStyleTableRecord
  2
STANDARD
 70
     0
  3

  4

  5

  6

  7

 40
1.0
 41
2.5
 42
0.625
 43
3.75
 44
1.25
 45
0.0
 46
0.0
 47
0.0
 48
0.0
140
2.5
141
2.5
142
0.0
143
0.0394
144
1.0
145
0.0
146
1.0
147
0.625
 71
     0
 72
     0
 73
     0
 74
     0
 75
     0
 76
     0
 77
     1
 78
     8
170
     0
171
     4
172
     1
173
     0
174
     0
175
     0
176
     0
177
     0
178
     0
270
     2
271
     4
272
     4
273
     2
274
     2
340
237
275
     0
280
     0
281
     0
282
     0
283
     1
284
     0
285
     0
286
     0
287
     3
288
     0
  0
ENDTAB
  0
TABLE
  2
BLOCK_RECORD
  5
229
100
AcDbSymbolTable
 70
     2
  0
BLOCK_RECORD
  5
240
100
AcDbSymbolTableRecord
100
AcDbBlockTableRecord
  2
*MODEL_SPACE
  0
BLOCK_RECORD
  5
23D
100
AcDbSymbolTableRecord
100
AcDbBlockTableRecord
  2
*PAPER_SPACE
  0
BLOCK_RECORD
  5
252
100
AcDbSymbolTableRecord
100
AcDbBlockTableRecord
  2
$MODEL_SPACE
  0
BLOCK_RECORD
  5
254
100
AcDbSymbolTableRecord
100
AcDbBlockTableRecord
  2
$PAPER_SPACE
  0
ENDTAB
  0
ENDSEC
  0
SECTION
  2
BLOCKS
  0
BLOCK
  5
241
100
AcDbEntity
  8
0
100
AcDbBlockBegin
  2
*MODEL_SPACE
 70
     0
 10
0.0
 20
0.0
 30
0.0
  3
*MODEL_SPACE
  1

  0
ENDBLK
  5
242
100
AcDbEntity
  8
0
100
AcDbBlockEnd
  0
BLOCK
  5
23E
100
AcDbEntity
 67
     1
  8
0
100
AcDbBlockBegin
  2
*PAPER_SPACE
 70
     0
 10
0.0
 20
0.0
 30
0.0
  3
*PAPER_SPACE
  1

  0
ENDBLK
  5
23F
100
AcDbEntity
 67
     1
  8
0
100
AcDbBlockEnd
  0
BLOCK
  5
253
100
AcDbEntity
  8
0
100
AcDbBlockBegin
  2
$MODEL_SPACE
 70
     0
 10
0.0
 20
0.0
 30
0.0
  3
$MODEL_SPACE
  1

  0
ENDBLK
  5
1C
100
AcDbEntity
  8
0
100
AcDbBlockEnd
  0
BLOCK
  5
255
100
AcDbEntity
  8
0
100
AcDbBlockBegin
  2
$PAPER_SPACE
 70
     0
 10
0.0
 20
0.0
 30
0.0
  3
$PAPER_SPACE
  1

  0
ENDBLK
  5
19
100
AcDbEntity
  8
0
100
AcDbBlockEnd
  0
ENDSEC
  0
SECTION
  2
ENTITIES
  0
LINE
  5
18F
100
AcDbEntity
  8
0
  6
DASHED
 62
     3
100
AcDbLine
 10
77.0
 20
20.0
 30
0.0
 11
107.0
 21
20.0
 31
0.0
  0
LINE
  5
190
100
AcDbEntity
  8
0
  6
DASHED
 62
     3
100
AcDbLine
 10
77.0
 20
80.0
 30
0.0
 11
107.0
 21
80.0
 31
0.0
  0
LINE
  5
191
100
AcDbEntity
  8
0
100
AcDbLine
 10
62.0
 20
11.0
 30
0.0
 11
109.0
 21
11.0
 31
0.0
  0
LINE
  5
192
100
AcDbEntity
  8
0
100
AcDbLine
 10
62.0
 20
89.0
 30
0.0
 11
109.0
 21
89.0
 31
0.0
  0
LINE
  5
193
100
AcDbEntity
  8
CENTER
100
AcDbLine
 10
60.5
 20
50.0
 30
0.0
 11
123.5
 21
50.0
 31
0.0
  0
LINE
  5
194
100
AcDbEntity
  8
0
  6
DASHED
 62
     3
100
AcDbLine
 10
77.0
 20
84.0
 30
0.0
 11
77.0
 21
16.0
 31
0.0
  0
LINE
  5
195
100
AcDbEntity
  8
0
100
AcDbLine
 10
62.0
 20
50.0
 30
0.0
 11
62.0
 21
89.0
 31
0.0
  0
LINE
  5
196
100
AcDbEntity
  8
0
100
AcDbLine
 10
62.0
 20
50.0
 30
0.0
 11
62.0
 21
11.0
 31
0.0
  0
LINE
  5
197
100
AcDbEntity
  8
0
  6
DASHED
 62
     3
100
AcDbLine
 10
62.0
 20
30.0
 30
0.0
 11
77.0
 21
30.0
 31
0.0
  0
LINE
  5
198
100
AcDbEntity
  8
0
  6
DASHED
 62
     3
100
AcDbLine
 10
62.0
 20
70.0
 30
0.0
 11
77.0
 21
70.0
 31
0.0
  0
LINE
  5
199
100
AcDbEntity
  8
0
  6
DASHED
 62
     3
100
AcDbLine
 10
62.0
 20
16.0
 30
0.0
 11
77.0
 21
16.0
 31
0.0
  0
LINE
  5
19A
100
AcDbEntity
  8
0
  6
DASHED
 62
     3
100
AcDbLine
 10
62.0
 20
84.0
 30
0.0
 11
77.0
 21
84.0
 31
0.0
  0
LINE
  5
19B
100
AcDbEntity
  8
0
  6
DASHED
 62
     3
100
AcDbLine
 10
107.0
 20
84.0
 30
0.0
 11
107.0
 21
16.0
 31
0.0
  0
LINE
  5
19C
100
AcDbEntity
  8
0
100
AcDbLine
 10
122.0
 20
107.0
 30
0.0
 11
122.0
 21
50.0
 31
0.0
  0
LINE
  5
19D
100
AcDbEntity
  8
0
100
AcDbLine
 10
109.0
 20
89.0
 30
0.0
 11
109.0
 21
11.0
 31
0.0
  0
LINE
  5
19E
100
AcDbEntity
  8
0
100
AcDbLine
 10
122.0
 20
-7.0
 30
0.0
 11
122.0
 21
50.0
 31
0.0
  0
LINE
  5
19F
100
AcDbEntity
  8
0
  6
DASHED
 62
     3
100
AcDbLine
 10
113.9
 20
6.5
 30
0.0
 11
109.0
 21
6.5
 31
0.0
  0
LINE
  5
1A0
100
AcDbEntity
  8
0
  6
DASHED
 62
     3
100
AcDbLine
 10
113.9
 20
-2.5
 30
0.0
 11
109.0
 21
-2.5
 31
0.0
  0
LINE
  5
1A1
100
AcDbEntity
  8
CENTER
100
AcDbLine
 10
107.5
 20
2.0
 30
0.0
 11
123.5
 21
2.0
 31
0.0
  0
LINE
  5
1A2
100
AcDbEntity
  8
0
100
AcDbLine
 10
122.0
 20
-6.863105
 30
0.0
 11
109.0
 21
-6.863105
 31
0.0
  0
LINE
  5
1A3
100
AcDbEntity
  8
0
100
AcDbLine
 10
109.0
 20
-7.0
 30
0.0
 11
122.0
 21
-7.0
 31
0.0
  0
LINE
  5
1A4
100
AcDbEntity
  8
0
100
AcDbLine
 10
109.0
 20
11.0
 30
0.0
 11
109.0
 21
-7.0
 31
0.0
  0
LINE
  5
1A5
100
AcDbEntity
  8
0
  6
DASHED
 62
     3
100
AcDbLine
 10
113.9
 20
9.0
 30
0.0
 11
113.9
 21
2.0
 31
0.0
  0
LINE
  5
1A6
100
AcDbEntity
  8
0
  6
DASHED
 62
     3
100
AcDbLine
 10
122.0
 20
9.0
 30
0.0
 11
113.9
 21
9.0
 31
0.0
  0
LINE
  5
1A7
100
AcDbEntity
  8
0
  6
DASHED
 62
     3
100
AcDbLine
 10
122.0
 20
-5.0
 30
0.0
 11
113.9
 21
-5.0
 31
0.0
  0
LINE
  5
1A8
100
AcDbEntity
  8
0
  6
DASHED
 62
     3
100
AcDbLine
 10
113.9
 20
-5.0
 30
0.0
 11
113.9
 21
2.0
 31
0.0
  0
LINE
  5
1A9
100
AcDbEntity
  8
0
100
AcDbLine
 10
122.0
 20
53.948078
 30
0.0
 11
109.0
 21
53.948078
 31
0.0
  0
LINE
  5
1AA
100
AcDbEntity
  8
0
100
AcDbLine
 10
122.0
 20
46.051922
 30
0.0
 11
109.0
 21
46.051922
 31
0.0
  0
LINE
  5
1AB
100
AcDbEntity
  8
0
  6
DASHED
 62
     3
100
AcDbLine
 10
122.0
 20
30.0
 30
0.0
 11
107.0
 21
30.0
 31
0.0
  0
LINE
  5
1AC
100
AcDbEntity
  8
0
  6
DASHED
 62
     3
100
AcDbLine
 10
122.0
 20
70.0
 30
0.0
 11
107.0
 21
70.0
 31
0.0
  0
LINE
  5
1AD
100
AcDbEntity
  8
0
  6
DASHED
 62
     3
100
AcDbLine
 10
122.0
 20
16.0
 30
0.0
 11
107.0
 21
16.0
 31
0.0
  0
LINE
  5
1AE
100
AcDbEntity
  8
0
  6
DASHED
 62
     3
100
AcDbLine
 10
113.9
 20
102.5
 30
0.0
 11
109.0
 21
102.5
 31
0.0
  0
LINE
  5
1AF
100
AcDbEntity
  8
CENTER
100
AcDbLine
 10
107.5
 20
98.0
 30
0.0
 11
123.5
 21
98.0
 31
0.0
  0
LINE
  5
1B0
100
AcDbEntity
  8
0
  6
DASHED
 62
     3
100
AcDbLine
 10
113.9
 20
93.5
 30
0.0
 11
109.0
 21
93.5
 31
0.0
  0
LINE
  5
1B1
100
AcDbEntity
  8
0
100
AcDbLine
 10
122.0
 20
106.863105
 30
0.0
 11
109.0
 21
106.863105
 31
0.0
  0
LINE
  5
1B2
100
AcDbEntity
  8
0
100
AcDbLine
 10
109.0
 20
107.0
 30
0.0
 11
122.0
 21
107.0
 31
0.0
  0
LINE
  5
1B3
100
AcDbEntity
  8
0
100
AcDbLine
 10
109.0
 20
89.0
 30
0.0
 11
109.0
 21
107.0
 31
0.0
  0
LINE
  5
1B4
100
AcDbEntity
  8
0
  6
DASHED
 62
     3
100
AcDbLine
 10
122.0
 20
84.0
 30
0.0
 11
107.0
 21
84.0
 31
0.0
  0
LINE
  5
1B5
100
AcDbEntity
  8
0
  6
DASHED
 62
     3
100
AcDbLine
 10
113.9
 20
105.0
 30
0.0
 11
113.9
 21
98.0
 31
0.0
  0
LINE
  5
1B6
100
AcDbEntity
  8
0
  6
DASHED
 62
     3
100
AcDbLine
 10
122.0
 20
105.0
 30
0.0
 11
113.9
 21
105.0
 31
0.0
  0
LINE
  5
1B7
100
AcDbEntity
  8
0
  6
DASHED
 62
     3
100
AcDbLine
 10
122.0
 20
91.0
 30
0.0
 11
113.9
 21
91.0
 31
0.0
  0
LINE
  5
1B8
100
AcDbEntity
  8
0
  6
DASHED
 62
     3
100
AcDbLine
 10
113.9
 20
91.0
 30
0.0
 11
113.9
 21
98.0
 31
0.0
  0
CIRCLE
  5
1CF
100
AcDbEntity
  8
0
100
AcDbCircle
 10
205.0
 20
2.0
 30
0.0
 40
7.0
  0
LINE
  5
1D0
100
AcDbEntity
  8
0
100
AcDbLine
 10
261.863105
 20
46.051922
 30
0.0
 11
208.948078
 21
-6.863105
 31
0.0
  0
LINE
  5
1D1
100
AcDbEntity
  8
0
100
AcDbLine
 10
148.136895
 20
46.051922
 30
0.0
 11
201.051922
 21
-6.863105
 31
0.0
  0
LINE
  5
1D2
100
AcDbEntity
  8
CENTER
100
AcDbLine
 10
205.0
 20
108.5
 30
0.0
 11
205.0
 21
-8.5
 31
0.0
  0
ARC
  5
1D3
100
AcDbEntity
  8
0
100
AcDbCircle
 10
205.0
 20
50.0
 30
0.0
 40
57.0
100
AcDbArc
 50
266.028254
 51
273.971746
  0
ARC
  5
1D4
100
AcDbEntity
  8
CENTER
100
AcDbCircle
 10
205.0
 20
50.0
 30
0.0
 40
48.0
100
AcDbArc
 50
253.228923
 51
286.771077
  0
ARC
  5
1D5
100
AcDbEntity
  8
CENTER
100
AcDbCircle
 10
205.0
 20
50.0
 30
0.0
 40
48.0
100
AcDbArc
 50
73.228923
 51
106.771077
  0
ARC
  5
1D6
100
AcDbEntity
  8
0
100
AcDbCircle
 10
205.0
 20
50.0
 30
0.0
 40
57.0
100
AcDbArc
 50
86.028254
 51
93.971746
  0
CIRCLE
  5
1D7
100
AcDbEntity
  8
0
100
AcDbCircle
 10
205.0
 20
50.0
 30
0.0
 40
34.0
  0
CIRCLE
  5
1D8
100
AcDbEntity
  8
0
  6
DASHED
 62
     3
100
AcDbCircle
 10
205.0
 20
50.0
 30
0.0
 40
39.0
  0
CIRCLE
  5
1D9
100
AcDbEntity
  8
0
100
AcDbCircle
 10
205.0
 20
50.0
 30
0.0
 40
20.0
  0
LINE
  5
1DA
100
AcDbEntity
  8
CENTER
100
AcDbLine
 10
263.5
 20
50.0
 30
0.0
 11
146.5
 21
50.0
 31
0.0
  0
CIRCLE
  5
1DB
100
AcDbEntity
  8
0
100
AcDbCircle
 10
205.0
 20
98.0
 30
0.0
 40
7.0
  0
LINE
  5
1DC
100
AcDbEntity
  8
0
100
AcDbLine
 10
148.136895
 20
53.948078
 30
0.0
 11
201.051922
 21
106.863105
 31
0.0
  0
ARC
  5
1DD
100
AcDbEntity
  8
CENTER
100
AcDbCircle
 10
205.0
 20
50.0
 30
0.0
 40
48.0
100
AcDbArc
 50
163.228923
 51
196.771077
  0
CIRCLE
  5
1DE
100
AcDbEntity
  8
0
100
AcDbCircle
 10
157.0
 20
50.0
 30
0.0
 40
4.5
  0
CIRCLE
  5
1DF
100
AcDbEntity
  8
0
100
AcDbCircle
 10
157.0
 20
50.0
 30
0.0
 40
7.0
  0
ARC
  5
1E0
100
AcDbEntity
  8
0
100
AcDbCircle
 10
205.0
 20
50.0
 30
0.0
 40
57.0
100
AcDbArc
 50
176.028254
 51
183.971746
  0
CIRCLE
  5
1E1
100
AcDbEntity
  8
0
100
AcDbCircle
 10
205.0
 20
2.0
 30
0.0
 40
4.5
  0
CIRCLE
  5
1E2
100
AcDbEntity
  8
0
100
AcDbCircle
 10
205.0
 20
98.0
 30
0.0
 40
4.5
  0
LINE
  5
1E3
100
AcDbEntity
  8
0
100
AcDbLine
 10
261.863105
 20
53.948078
 30
0.0
 11
208.948078
 21
106.863105
 31
0.0
  0
ARC
  5
1E4
100
AcDbEntity
  8
CENTER
100
AcDbCircle
 10
205.0
 20
50.0
 30
0.0
 40
48.0
100
AcDbArc
 50
343.228923
 51
16.771077
  0
ARC
  5
1E5
100
AcDbEntity
  8
0
100
AcDbCircle
 10
205.0
 20
50.0
 30
0.0
 40
57.0
100
AcDbArc
 50
356.028254
 51
3.971746
  0
CIRCLE
  5
1E6
100
AcDbEntity
  8
0
100
AcDbCircle
 10
253.0
 20
50.0
 30
0.0
 40
7.0
  0
CIRCLE
  5
1E7
100
AcDbEntity
  8
0
100
AcDbCircle
 10
253.0
 20
50.0
 30
0.0
 40
4.5
  0
TEXT
  5
258
100
AcDbEntity
  8
0
100
AcDbText
 10
134.0
 20
10.0
 30
0.0
 40
2.0
  1
DS-6008ZZ
100
AcDbText
  0
TEXT
  5
259
100
AcDbEntity
  8
0
100
AcDbText
 10
134.0
 20
6.666667
 30
0.0
 40
2.0
  1
DSM-6008ZZ
100
AcDbText
  0
TEXT
  5
25A
100
AcDbEntity
  8
0
100
AcDbText
 10
134.0
 20
3.333333
 30
0.0
 40
2.0
  1
DSS-6008ZZ
100
AcDbText
  0
VIEWPORT
  5
22
100
AcDbEntity
 67
     1
  8
0
100
AcDbViewport
 10
261.517699
 20
148.5
 30
0.0
 40
523.035398
 41
297.0
 68
    -1
 69
     1
1001
ACAD
1000
MVIEW
1002
{
1070
    16
1010
0.0
1020
0.0
1030
0.0
1010
0.0
1020
0.0
1030
1.0
1040
0.0
1040
297.0
1040
261.517699
1040
148.5
1040
50.0
1040
0.0
1040
0.0
1070
     0
1070
   100
1070
     1
1070
     1
1070
     0
1070
     0
1070
     0
1070
     0
1040
0.0
1040
0.0
1040
0.0
1040
1.0
1040
1.0
1040
10.0
1040
10.0
1070
     0
1002
{
1002
}
1002
}
  0
ENDSEC
  0
SECTION
  2
OBJECTS
  0
DICTIONARY
  5
234
100
AcDbDictionary
  3
ACAD_GROUP
350
235
  3
ACAD_MLINESTYLE
350
243
  0
DICTIONARY
  5
235
102
{ACAD_REACTORS
330
234
102
}
100
AcDbDictionary
  0
DICTIONARY
  5
243
102
{ACAD_REACTORS
330
234
102
}
100
AcDbDictionary
  3
STANDARD
350
244
  0
MLINESTYLE
  5
244
102
{ACAD_REACTORS
330
243
102
}
100
AcDbMlineStyle
  2
STANDARD
 70
     0
  3

 62
   256
 51
90.0
 52
90.0
 71
     2
 49
0.5
 62
   256
  6
BYLAYER
 49
-0.5
 62
   256
  6
BYLAYER
  0
ENDSEC
  0
EOF
