  0
SECTION
  2
HEADER
  9
$ACADVER
  1
AC1015
  9
$ACADMAINTVER
 70
    13
  9
$DWGCODEPAGE
  3
ANSI_932
  9
$INSBASE
 10
0.0
 20
0.0
 30
0.0
  9
$EXTMIN
 10
78.0
 20
63.0
 30
0.0
  9
$EXTMAX
 10
209.75
 20
147.75
 30
0.0
  9
$LIMMIN
 10
0.0
 20
0.0
  9
$LIMMAX
 10
265.0
 20
200.0
  9
$ORTHOMODE
 70
     1
  9
$REGENMODE
 70
     1
  9
$FILLMODE
 70
     1
  9
$QTEXTMODE
 70
     0
  9
$MIRRTEXT
 70
     1
  9
$LTSCALE
 40
1.0
  9
$ATTMODE
 70
     1
  9
$TEXTSIZE
 40
2.5
  9
$TRACEWID
 40
1.0
  9
$TEXTSTYLE
  7
STANDARD
  9
$CLAYER
  8
0
  9
$CELTYPE
  6
ByLayer
  9
$CECOLOR
 62
   256
  9
$CELTSCALE
 40
1.0
  9
$DISPSILH
 70
     0
  9
$DIMSCALE
 40
1.0
  9
$DIMASZ
 40
2.5
  9
$DIMEXO
 40
0.625
  9
$DIMDLI
 40
3.75
  9
$DIMRND
 40
0.0
  9
$DIMDLE
 40
0.0
  9
$DIMEXE
 40
1.25
  9
$DIMTP
 40
0.0
  9
$DIMTM
 40
0.0
  9
$DIMTXT
 40
2.5
  9
$DIMCEN
 40
2.5
  9
$DIMTSZ
 40
0.0
  9
$DIMTOL
 70
     0
  9
$DIMLIM
 70
     0
  9
$DIMTIH
 70
     0
  9
$DIMTOH
 70
     0
  9
$DIMSE1
 70
     0
  9
$DIMSE2
 70
     0
  9
$DIMTAD
 70
     1
  9
$DIMZIN
 70
     8
  9
$DIMBLK
  1

  9
$DIMASO
 70
     1
  9
$DIMSHO
 70
     1
  9
$DIMPOST
  1

  9
$DIMAPOST
  1

  9
$DIMALT
 70
     0
  9
$DIMALTD
 70
     4
  9
$DIMALTF
 40
0.0394
  9
$DIMLFAC
 40
1.0
  9
$DIMTOFL
 70
     1
  9
$DIMTVP
 40
0.0
  9
$DIMTIX
 70
     0
  9
$DIMSOXD
 70
     0
  9
$DIMSAH
 70
     0
  9
$DIMBLK1
  1

  9
$DIMBLK2
  1

  9
$DIMSTYLE
  2
STANDARD
  9
$DIMCLRD
 70
     0
  9
$DIMCLRE
 70
     0
  9
$DIMCLRT
 70
     0
  9
$DIMTFAC
 40
1.0
  9
$DIMGAP
 40
0.625
  9
$DIMJUST
 70
     0
  9
$DIMSD1
 70
     0
  9
$DIMSD2
 70
     0
  9
$DIMTOLJ
 70
     1
  9
$DIMTZIN
 70
     0
  9
$DIMALTZ
 70
     0
  9
$DIMALTTZ
 70
     0
  9
$DIMUPT
 70
     0
  9
$DIMDEC
 70
     4
  9
$DIMTDEC
 70
     4
  9
$DIMALTU
 70
     2
  9
$DIMALTTD
 70
     2
  9
$DIMTXSTY
  7
STANDARD
  9
$DIMAUNIT
 70
     0
  9
$DIMADEC
 70
     0
  9
$DIMALTRND
 40
0.0
  9
$DIMAZIN
 70
     0
  9
$DIMDSEP
 70
    46
  9
$DIMATFIT
 70
     3
  9
$DIMFRAC
 70
     0
  9
$DIMLDRBLK
  1

  9
$DIMLUNIT
 70
     2
  9
$DIMLWD
 70
    -2
  9
$DIMLWE
 70
    -2
  9
$DIMTMOVE
 70
     0
  9
$LUNITS
 70
     2
  9
$LUPREC
 70
     4
  9
$SKETCHINC
 40
1.0
  9
$FILLETRAD
 40
10.0
  9
$AUNITS
 70
     0
  9
$AUPREC
 70
     0
  9
$MENU
  1
.
  9
$ELEVATION
 40
0.0
  9
$PELEVATION
 40
0.0
  9
$THICKNESS
 40
0.0
  9
$LIMCHECK
 70
     0
  9
$CHAMFERA
 40
10.0
  9
$CHAMFERB
 40
10.0
  9
$CHAMFERC
 40
0.0
  9
$CHAMFERD
 40
0.0
  9
$SKPOLY
 70
     0
  9
$TDCREATE
 40
2452361.611515000
  9
$TDUCREATE
 40
2452361.236515000
  9
$TDUPDATE
 40
2456447.712411748
  9
$TDUUPDATE
 40
2456447.337411748
  9
$TDINDWG
 40
0.1598553588
  9
$TDUSRTIMER
 40
0.1598551736
  9
$USRTIMER
 70
     1
  9
$ANGBASE
 50
0.0
  9
$ANGDIR
 70
     0
  9
$PDMODE
 70
     0
  9
$PDSIZE
 40
0.0
  9
$PLINEWID
 40
0.0
  9
$SPLFRAME
 70
     0
  9
$SPLINETYPE
 70
     6
  9
$SPLINESEGS
 70
     8
  9
$HANDSEED
  5
5A1
  9
$SURFTAB1
 70
     6
  9
$SURFTAB2
 70
     6
  9
$SURFTYPE
 70
     6
  9
$SURFU
 70
     6
  9
$SURFV
 70
     6
  9
$UCSBASE
  2

  9
$UCSNAME
  2

  9
$UCSORG
 10
0.0
 20
0.0
 30
0.0
  9
$UCSXDIR
 10
1.0
 20
0.0
 30
0.0
  9
$UCSYDIR
 10
0.0
 20
1.0
 30
0.0
  9
$UCSORTHOREF
  2

  9
$UCSORTHOVIEW
 70
     0
  9
$UCSORGTOP
 10
0.0
 20
0.0
 30
0.0
  9
$UCSORGBOTTOM
 10
0.0
 20
0.0
 30
0.0
  9
$UCSORGLEFT
 10
0.0
 20
0.0
 30
0.0
  9
$UCSORGRIGHT
 10
0.0
 20
0.0
 30
0.0
  9
$UCSORGFRONT
 10
0.0
 20
0.0
 30
0.0
  9
$UCSORGBACK
 10
0.0
 20
0.0
 30
0.0
  9
$PUCSBASE
  2

  9
$PUCSNAME
  2

  9
$PUCSORG
 10
0.0
 20
0.0
 30
0.0
  9
$PUCSXDIR
 10
1.0
 20
0.0
 30
0.0
  9
$PUCSYDIR
 10
0.0
 20
1.0
 30
0.0
  9
$PUCSORTHOREF
  2

  9
$PUCSORTHOVIEW
 70
     0
  9
$PUCSORGTOP
 10
0.0
 20
0.0
 30
0.0
  9
$PUCSORGBOTTOM
 10
0.0
 20
0.0
 30
0.0
  9
$PUCSORGLEFT
 10
0.0
 20
0.0
 30
0.0
  9
$PUCSORGRIGHT
 10
0.0
 20
0.0
 30
0.0
  9
$PUCSORGFRONT
 10
0.0
 20
0.0
 30
0.0
  9
$PUCSORGBACK
 10
0.0
 20
0.0
 30
0.0
  9
$USERI1
 70
     0
  9
$USERI2
 70
     0
  9
$USERI3
 70
     0
  9
$USERI4
 70
     0
  9
$USERI5
 70
     0
  9
$USERR1
 40
0.0
  9
$USERR2
 40
0.0
  9
$USERR3
 40
0.0
  9
$USERR4
 40
0.0
  9
$USERR5
 40
0.0
  9
$WORLDVIEW
 70
     1
  9
$SHADEDGE
 70
     3
  9
$SHADEDIF
 70
    70
  9
$TILEMODE
 70
     1
  9
$MAXACTVP
 70
    48
  9
$PINSBASE
 10
0.0
 20
0.0
 30
0.0
  9
$PLIMCHECK
 70
     0
  9
$PEXTMIN
 10
1.000000000000000E+20
 20
1.000000000000000E+20
 30
1.000000000000000E+20
  9
$PEXTMAX
 10
-1.000000000000000E+20
 20
-1.000000000000000E+20
 30
-1.000000000000000E+20
  9
$PLIMMIN
 10
0.0
 20
0.0
  9
$PLIMMAX
 10
420.0
 20
297.0
  9
$UNITMODE
 70
     0
  9
$VISRETAIN
 70
     1
  9
$PLINEGEN
 70
     0
  9
$PSLTSCALE
 70
     1
  9
$TREEDEPTH
 70
  3020
  9
$CMLSTYLE
  2
Standard
  9
$CMLJUST
 70
     0
  9
$CMLSCALE
 40
1.0
  9
$PROXYGRAPHICS
 70
     1
  9
$MEASUREMENT
 70
     0
  9
$CELWEIGHT
370
    -1
  9
$ENDCAPS
280
     0
  9
$JOINSTYLE
280
     0
  9
$LWDISPLAY
290
     0
  9
$INSUNITS
 70
     0
  9
$HYPERLINKBASE
  1

  9
$STYLESHEET
  1

  9
$XEDIT
290
     1
  9
$CEPSNTYPE
380
     0
  9
$PSTYLEMODE
290
     1
  9
$FINGERPRINTGUID
  2
{F871726E-2B09-49A9-A247-30959F070BA7}
  9
$VERSIONGUID
  2
{9F412E4A-3749-4FAA-84CD-D2576F05741F}
  9
$EXTNAMES
290
     1
  9
$PSVPSCALE
 40
0.0
  9
$OLESTARTUP
290
     0
  0
ENDSEC
  0
SECTION
  2
CLASSES
  0
CLASS
  1
ACDBDICTIONARYWDFLT
  2
AcDbDictionaryWithDefault
  3
AutoCAD 2000
 90
        0
280
     0
281
     0
  0
CLASS
  1
ACDBPLACEHOLDER
  2
AcDbPlaceHolder
  3
AutoCAD 2000
 90
        0
280
     0
281
     0
  0
CLASS
  1
LAYOUT
  2
AcDbLayout
  3
AutoCAD 2000
 90
        0
280
     0
281
     0
  0
CLASS
  1
AMGSETTINGSOBJ
  2
AmgSettingsObj
  3
"AcadM|Product Description: AutoCAD Mechanical 2000|Company: Autodesk"
 90
        0
280
     0
281
     0
  0
CLASS
  1
ACME_DOCUMENT
  2
AcMeDbDoc
  3
AcMeServices
 90
        0
280
     0
281
     0
  0
CLASS
  1
ACMESCOPE
  2
AcMeScope
  3
AcMeServices
 90
        0
280
     0
281
     0
  0
CLASS
  1
ACMECOMMANDHISTORY
  2
AcMeCommandHistory
  3
AcMeServices
 90
        0
280
     0
281
     0
  0
CLASS
  1
ACIMSYSVARMAN
  2
AcImSysVarManager
  3
AcMeServices
 90
        0
280
     0
281
     0
  0
CLASS
  1
ACIMREALSYSVAR
  2
AcImRealSysVar
  3
AcMeServices
 90
        0
280
     0
281
     0
  0
CLASS
  1
ACIMINTSYSVAR
  2
AcImIntSysVar
  3
AcMeServices
 90
        0
280
     0
281
     0
  0
CLASS
  1
ACMEDRAWINGMAN
  2
AcMeDrawingMan
  3
AcMeServices
 90
        0
280
     0
281
     0
  0
CLASS
  1
ACMEVIEW
  2
AcMeView
  3
AcMeServices
 90
        0
280
     0
281
     0
  0
CLASS
  1
ACDBENTITYCACHE
  2
AcMeEntityCache
  3
AcMeServices
 90
        0
280
     0
281
     0
  0
CLASS
  1
GSMANAGER
  2
AcMeGSManager
  3
AcMeServices
 90
        0
280
     0
281
     0
  0
CLASS
  1
AMDTINTERNALREACTOR
  2
AmdtInternalReactor
  3
AcMeServices
 90
        0
280
     0
281
     0
  0
CLASS
  1
ACMESTATEMGR
  2
AcMeStateMgr
  3
AcMeServices
 90
        0
280
     0
281
     0
  0
CLASS
  1
ACGREFMASTER
  2
AcGrefMaster
  3
AcAttribServices
 90
        0
280
     0
281
     0
  0
CLASS
  1
AM_DRAWING_MGR
  2
AcDmDwgMgr
  3
AcMechDwgViewMgmt
 90
        0
280
     0
281
     0
  0
CLASS
  1
AM_DWG_DOCUMENT
  2
AcDmDwgDocument
  3
AcMechDwgViewMgmt
 90
        0
280
     0
281
     0
  0
CLASS
  1
AM_DWG_SHEET
  2
AcDmSheet
  3
AcMechDwgViewMgmt
 90
        0
280
     0
281
     0
  0
CLASS
  1
AM_VIEWDIMPARMAP
  2
AcDmViewDimParMap
  3
AcMechDwgViewMgmt
 90
        0
280
     0
281
     0
  0
CLASS
  1
AM_DWGMGR_NAME
  2
AcDmDwgMgrName
  3
AcMechDwgViewMgmt
 90
        0
280
     0
281
     0
  0
CLASS
  1
ACME_DATABASE
  2
AcMeDbDatabase
  3
AcMeServices
 90
        0
280
     0
281
     0
  0
CLASS
  1
ACRFINSADJUSTERMGR
  2
AcRfInsAdjusterMgr
  3
AcMeServices
 90
        0
280
     0
281
     0
  0
CLASS
  1
ACGREFACADMASTER
  2
AcGrefacadMaster
  3
AcGrefServices
 90
        0
280
     0
281
     0
  0
CLASS
  1
AMDTMENUSTATEMGR
  2
AmdtMenuStateMgr
  3
McadcomServices
 90
        0
280
     0
281
     0
  0
CLASS
  1
AMDTMCOMMENUSTATE
  2
AmdtMcomMenuState
  3
McadcomServices
 90
        0
280
     0
281
     0
  0
CLASS
  1
AMIMASTER
  2
AmiMaster
  3
AmiServices
 90
        0
280
     0
281
     0
  0
CLASS
  1
ASAPP
  2
AcAsAppObject
  3
AutoSurfServices
 90
        0
280
     0
281
     0
  0
CLASS
  1
IM_STATIC_MAN
  2
AcImStaticVarManager
  3
AcMeServices
 90
        0
280
     0
281
     0
  0
CLASS
  1
ACIMSTRSYSVAR
  2
AcImStrSysVar
  3
AcMeServices
 90
        0
280
     0
281
     0
  0
CLASS
  1
ACIMDBLSTATICVAR
  2
AcImDblStaticVar
  3
AcMeServices
 90
        0
280
     0
281
     0
  0
CLASS
  1
ACIMSTRSTATICVAR
  2
AcImStrStaticVar
  3
AcMeServices
 90
        0
280
     0
281
     0
  0
CLASS
  1
ACIMINTSTATICVAR
  2
AcImIntStaticVar
  3
AcMeServices
 90
        0
280
     0
281
     0
  0
CLASS
  1
ACASGREFMASTER
  2
AcAsGrefMaster
  3
AutoSurfResolverServices
 90
        0
280
     0
281
     0
  0
CLASS
  1
ACADGREFMODULE
  2
AcAdGrefModule
  3
AdGrefServices
 90
        0
280
     0
281
     0
  0
CLASS
  1
AMDTMAPISURFMOUDULE
  2
AmdtMApiSurfModule
  3
MApiSurfServices
 90
        0
280
     0
281
     0
  0
CLASS
  1
MAPIAMMOUDLE
  2
MApiAmModule
  3
MApiAmServices
 90
        0
280
     0
281
     0
  0
CLASS
  1
AMDTADMENUSTATE
  2
AmdtAdMenuState
  3
DesignerServices
 90
        0
280
     0
281
     0
  0
CLASS
  1
ADAPPL
  2
AcAdAppl
  3
DesignerServices
 90
        0
280
     0
281
     0
  0
CLASS
  1
DEPMGR
  2
AcAdDepMgr
  3
DesignerServices
 90
        0
280
     0
281
     0
  0
CLASS
  1
PARAMMGR
  2
AcAdParamMgr
  3
DesignerServices
 90
        0
280
     0
281
     0
  0
CLASS
  1
PARAMSCOPE
  2
AcAdParamScope
  3
DesignerServices
 90
        0
280
     0
281
     0
  0
CLASS
  1
NAMEDAPPL
  2
AcAdNamedAppl
  3
DesignerServices
 90
        0
280
     0
281
     0
  0
CLASS
  1
AMDTDMMENUSTATE
  2
AmdtDmMenuState
  3
AcMechDwgViewMgmt
 90
        0
280
     0
281
     0
  0
CLASS
  1
MAPIADMODULE
  2
MApiAdModule
  3
MApiAdServices
 90
        0
280
     0
281
     0
  0
CLASS
  1
AMDTAMMENUSTATE
  2
AmdtAmMenuState
  3
DesignerAssemblies
 90
        0
280
     0
281
     0
  0
CLASS
  1
ACAMPROJECT
  2
AcAmProject
  3
DesignerAssemblies
 90
        0
280
     0
281
     0
  0
CLASS
  1
ACAMGRCOMPDEF
  2
AcAmGrCompDef
  3
DesignerAssemblies
 90
        0
280
     0
281
     0
  0
CLASS
  1
ACCMCONTEXT
  2
AcCmContext
  3
DesignerAssemblies
 90
        0
280
     0
281
     0
  0
CLASS
  1
ACAMCOMPDEF
  2
AcAmCompDef
  3
DesignerAssemblies
 90
        0
280
     0
281
     0
  0
CLASS
  1
ACAMCOMPDEFMGR
  2
AcAmCompDefMgr
  3
DesignerAssemblies
 90
        0
280
     0
281
     0
  0
CLASS
  1
AMCONTEXTMGR
  2
AcAmContextMgr
  3
DesignerAssemblies
 90
        0
280
     0
281
     0
  0
CLASS
  1
ACAMCONTEXTMODELER
  2
AcAmContextModeler
  3
DesignerAssemblies
 90
        0
280
     0
281
     0
  0
CLASS
  1
ACMDATADICTIONARY
  2
AcmDataDictionary
  3
"AcmSymBB|Product Description: AutoCAD Mechanical 2000|Company: Autodesk"
 90
        0
280
     0
281
     0
  0
CLASS
  1
ACMDATAENTRYBLOCK
  2
AcmDataEntryBlock
  3
"AcmSymBB|Product Description: AutoCAD Mechanical 2000|Company: Autodesk"
 90
        0
280
     0
281
     0
  0
CLASS
  1
CATALOGSTATE
  2
AcAmCatalogState
  3
DesignerAssemblies
 90
        0
280
     0
281
     0
  0
CLASS
  1
ACAMGRCOMPDEFSET
  2
AcAmGrCompDefSet
  3
DesignerAssemblies
 90
        0
280
     0
281
     0
  0
CLASS
  1
AMDTBROWSERDBTAB
  2
AmdtBrowserDbTab
  3
McadcomServices
 90
        0
280
     0
281
     0
  0
CLASS
  1
CBROWSERAPPOBJECT
  2
CBrowserAppObject
  3
McadcomServices
 90
        0
280
     0
281
     0
  0
CLASS
  1
DM_PLACEHOLDER
  2
AcDmSelsetPlaceholder
  3
AcMechDwgViewMgmt
 90
        0
280
     0
281
     0
  0
CLASS
  1
AMGOBJPROPCFG
  2
AmgObjPropCfg
  3
"AmgLay|Product Description: AutoCAD Mechanical 2000|Company: Autodesk"
 90
        1
280
     0
281
     0
  0
CLASS
  1
ACAMGFILTERDAT
  2
AcAmgFilterDat
  3
"AcadM|Product Description: AutoCAD Mechanical 2000|Company: Autodesk"
 90
        0
280
     0
281
     0
  0
CLASS
  1
LAYER_INDEX
  2
AcDbLayerIndex
  3
AutoCAD 2000
 90
        0
280
     0
281
     0
  0
CLASS
  1
IDBUFFER
  2
AcDbIdBuffer
  3
AutoCAD 2000
 90
        0
280
     0
281
     0
  0
CLASS
  1
DICTIONARYVAR
  2
AcDbDictionaryVar
  3
AutoCAD 2000
 90
        0
280
     0
281
     0
  0
ENDSEC
  0
SECTION
  2
TABLES
  0
TABLE
  2
VPORT
  5
430
330
0
100
AcDbSymbolTable
 70
     5
  0
VPORT
  5
5A0
330
430
100
AcDbSymbolTableRecord
100
AcDbViewportTableRecord
  2
*Active
 70
     0
 10
0.0
 20
0.0
 11
1.0
 21
1.0
 12
0.0
 22
0.0
 13
0.0
 23
0.0
 14
0.25
 24
0.25
 15
1.0
 25
1.0
 16
0.0
 26
0.0
 36
1.0
 17
191.8757587745128
 27
124.971081
 37
0.0
 40
249.951882
 41
1.535353535353535
 42
50.0
 43
0.0
 44
0.0
 50
0.0
 51
0.0
 71
     0
 72
 20000
 73
     1
 74
     1
 75
     0
 76
     0
 77
     0
 78
     0
281
     0
 65
     0
110
0.0
120
0.0
130
0.0
111
1.0
121
0.0
131
0.0
112
0.0
122
1.0
132
0.0
 79
     0
146
0.0
  0
ENDTAB
  0
TABLE
  2
LTYPE
  5
42D
330
0
100
AcDbSymbolTable
 70
    20
  0
LTYPE
  5
43B
330
42D
100
AcDbSymbolTableRecord
100
AcDbLinetypeTableRecord
  2
ByBlock
 70
     0
  3

 72
    65
 73
     0
 40
0.0
  0
LTYPE
  5
43C
330
42D
100
AcDbSymbolTableRecord
100
AcDbLinetypeTableRecord
  2
ByLayer
 70
     0
  3

 72
    65
 73
     0
 40
0.0
  0
LTYPE
  5
43D
330
42D
100
AcDbSymbolTableRecord
100
AcDbLinetypeTableRecord
  2
CONTINUOUS
 70
     0
  3
Solid line
 72
    65
 73
     0
 40
0.0
  0
LTYPE
  5
44B
330
42D
100
AcDbSymbolTableRecord
100
AcDbLinetypeTableRecord
  2
CENTERX2
 70
     0
  3
Center (2x) ________  __  ________  __  _____
 72
    65
 73
     4
 40
101.6
 49
63.5
 74
     0
 49
-12.7
 74
     0
 49
12.7
 74
     0
 49
-12.7
 74
     0
  0
LTYPE
  5
44C
330
42D
100
AcDbSymbolTableRecord
100
AcDbLinetypeTableRecord
  2
DASHEDX2
 70
     0
  3
Dashed (2x) ____  ____  ____  ____  ____  ___
 72
    65
 73
     2
 40
38.1
 49
25.4
 74
     0
 49
-12.7
 74
     0
  0
LTYPE
  5
44D
330
42D
100
AcDbSymbolTableRecord
100
AcDbLinetypeTableRecord
  2
DASHED
 70
     0
  3
Dashed __ __ __ __ __ __ __ __ __ __ __ __ __ _
 72
    65
 73
     2
 40
19.05
 49
12.7
 74
     0
 49
-6.349999999999999
 74
     0
  0
LTYPE
  5
44E
330
42D
100
AcDbSymbolTableRecord
100
AcDbLinetypeTableRecord
  2
CENTER
 70
     0
  3
Center ____ _ ____ _ ____ _ ____ _ ____ _ ____
 72
    65
 73
     4
 40
50.8
 49
31.75
 74
     0
 49
-6.349999999999999
 74
     0
 49
6.349999999999999
 74
     0
 49
-6.349999999999999
 74
     0
  0
LTYPE
  5
44F
330
42D
100
AcDbSymbolTableRecord
100
AcDbLinetypeTableRecord
  2
CENTER2
 70
     0
  3
Center (.5x) ___ _ ___ _ ___ _ ___ _ ___ _ ___
 72
    65
 73
     4
 40
28.57499999999999
 49
19.05
 74
     0
 49
-3.174999999999999
 74
     0
 49
3.174999999999999
 74
     0
 49
-3.174999999999999
 74
     0
  0
LTYPE
  5
450
330
42D
100
AcDbSymbolTableRecord
100
AcDbLinetypeTableRecord
  2
DASHED2
 70
     0
  3
Dashed (.5x) _ _ _ _ _ _ _ _ _ _ _ _ _ _ _ _ _
 72
    65
 73
     2
 40
9.525
 49
6.349999999999999
 74
     0
 49
-3.174999999999999
 74
     0
  0
LTYPE
  5
4DD
330
42D
100
AcDbSymbolTableRecord
100
AcDbLinetypeTableRecord
  2
HIDDEN
 70
     0
  3
Hidden __ __ __ __ __ __ __ __ __ __ __ __ __ _
 72
    65
 73
     2
 40
0.375
 49
0.25
 74
     0
 49
-0.125
 74
     0
  0
LTYPE
  5
4DE
330
42D
100
AcDbSymbolTableRecord
100
AcDbLinetypeTableRecord
  2
PHANTOM2
 70
     0
  3
Phantom (.5x) ___ _ _ ___ _ _ ___ _ _ ___ _ _
 72
    65
 73
     6
 40
1.25
 49
0.625
 74
     0
 49
-0.125
 74
     0
 49
0.125
 74
     0
 49
-0.125
 74
     0
 49
0.125
 74
     0
 49
-0.125
 74
     0
  0
LTYPE
  5
540
330
42D
100
AcDbSymbolTableRecord
100
AcDbLinetypeTableRecord
  2
ASULTYPE
 70
     0
  3
実線
 72
    65
 73
     2
 40
3.0
 49
2.5
 74
     0
 49
0.5
 74
     0
  0
LTYPE
  5
541
330
42D
100
AcDbSymbolTableRecord
100
AcDbLinetypeTableRecord
  2
ASVLTYPE
 70
     0
  3
__ __ __ __ __ __ __ __ __ __ __ __ __ __ __ __ __ __ __ __ __
 72
    65
 73
     2
 40
0.75
 49
0.5
 74
     0
 49
-0.25
 74
     0
  0
LTYPE
  5
582
330
42D
100
AcDbSymbolTableRecord
100
AcDbLinetypeTableRecord
  2
AM_ISO02W050
 70
     0
  3
__ __ __ __ __ __ __ __ __ __ __ __ __ __ __
 72
    65
 73
     2
 40
7.5
 49
6.0
 74
     0
 49
-1.5
 74
     0
  0
LTYPE
  5
583
330
42D
100
AcDbSymbolTableRecord
100
AcDbLinetypeTableRecord
  2
AM_ISO08W050
 70
     0
  3
____ . ____ . ____ . ____ . ____ . ____ . ____
 72
    65
 73
     4
 40
18.0
 49
12.0
 74
     0
 49
-1.5
 74
     0
 49
3.0
 74
     0
 49
-1.5
 74
     0
  0
LTYPE
  5
584
330
42D
100
AcDbSymbolTableRecord
100
AcDbLinetypeTableRecord
  2
AM_ISO09W050
 70
     0
  3
_____ . . _____ . . _____ . . ____ .. ____
 72
    65
 73
     6
 40
22.5
 49
12.0
 74
     0
 49
-1.5
 74
     0
 49
3.0
 74
     0
 49
-1.5
 74
     0
 49
3.0
 74
     0
 49
-1.5
 74
     0
  0
LTYPE
  5
585
330
42D
100
AcDbSymbolTableRecord
100
AcDbLinetypeTableRecord
  2
Amconstr
 70
     0
  3
_______________________
 72
    65
 73
     2
 40
9999.0
 49
9999.0
 74
     0
 49
0.0
 74
     0
  0
LTYPE
  5
586
330
42D
100
AcDbSymbolTableRecord
100
AcDbLinetypeTableRecord
  2
AM_ISO08W050x2
 70
     0
  3
__ . __ . __ . __ . __ . __
 72
    65
 73
     4
 40
9.0
 49
6.0
 74
     0
 49
-0.75
 74
     0
 49
1.5
 74
     0
 49
-0.75
 74
     0
  0
LTYPE
  5
587
330
42D
100
AcDbSymbolTableRecord
100
AcDbLinetypeTableRecord
  2
AM_ISO02W050x2
 70
     0
  3
 _ _ _ _ _ _ _ _ _ _ _ _
 72
    65
 73
     2
 40
3.75
 49
3.0
 74
     0
 49
-0.75
 74
     0
  0
LTYPE
  5
588
330
42D
100
AcDbSymbolTableRecord
100
AcDbLinetypeTableRecord
  2
Amzigzag
 70
     0
  3
/\/-/\/-/\/-/\/-/\/-/\/
 72
    65
 73
     2
 40
11.00009999999999
 49
0.0001
 74
     4
 75
   135
340
455
 46
0.04
 50
0.0
 44
0.0
 45
0.0
 49
-11.0
 74
     0
  0
LTYPE
  5
589
330
42D
100
AcDbSymbolTableRecord
100
AcDbLinetypeTableRecord
  2
HIDDEN2
 70
     0
  3
Hidden (.5x) _ _ _ _ _ _ _ _ _ _ _ _ _ _ _ _ _
 72
    65
 73
     2
 40
0.1875
 49
0.125
 74
     0
 49
-0.0625
 74
     0
  0
LTYPE
  5
58A
330
42D
100
AcDbSymbolTableRecord
100
AcDbLinetypeTableRecord
  2
Amzigzag2
 70
     0
  3
/\/-/\/-/\/-/\/-/\/-/\/
 72
    65
 73
     2
 40
0.4401
 49
0.0001
 74
     4
 75
   135
340
455
 46
0.0016
 50
0.0
 44
0.0
 45
0.0
 49
-0.4400000000000001
 74
     0
  0
ENDTAB
  0
TABLE
  2
LAYER
  5
42A
330
0
100
AcDbSymbolTable
 70
     5
  0
LAYER
  5
438
330
42A
100
AcDbSymbolTableRecord
100
AcDbLayerTableRecord
  2
0
 70
     0
 62
     7
  6
CONTINUOUS
370
    -3
390
437
  0
LAYER
  5
451
330
42A
100
AcDbSymbolTableRecord
100
AcDbLayerTableRecord
  2
1
 70
     0
 62
     1
  6
CENTER2
370
    -3
390
437
  0
LAYER
  5
452
330
42A
100
AcDbSymbolTableRecord
100
AcDbLayerTableRecord
  2
2
 70
     0
 62
     2
  6
DASHED2
370
    -3
390
437
  0
LAYER
  5
453
330
42A
100
AcDbSymbolTableRecord
100
AcDbLayerTableRecord
  2
3
 70
     0
 62
     4
  6
CONTINUOUS
370
    -3
390
437
  0
LAYER
  5
454
330
42A
100
AcDbSymbolTableRecord
100
AcDbLayerTableRecord
  2
DEFPOINTS
 70
     0
 62
     7
  6
CONTINUOUS
290
     0
370
    -3
390
437
  0
ENDTAB
  0
TABLE
  2
STYLE
  5
42B
330
0
100
AcDbSymbolTable
 70
     2
  0
STYLE
  5
439
330
42B
100
AcDbSymbolTableRecord
100
AcDbTextStyleTableRecord
  2
STANDARD
 70
     0
 40
0.0
 41
1.0
 50
0.0
 71
     0
 42
2.5
  3
txt
  4

  0
STYLE
  5
455
330
42B
100
AcDbSymbolTableRecord
100
AcDbTextStyleTableRecord
  2

 70
     1
 40
0.0
 41
1.0
 50
0.0
 71
     0
 42
2.5
  3
ltypeshp.shx
  4

  0
ENDTAB
  0
TABLE
  2
VIEW
  5
42E
330
0
100
AcDbSymbolTable
 70
     0
  0
ENDTAB
  0
TABLE
  2
UCS
  5
42F
330
0
100
AcDbSymbolTable
 70
     0
  0
ENDTAB
  0
TABLE
  2
APPID
  5
431
330
0
100
AcDbSymbolTable
 70
    12
  0
APPID
  5
43A
330
431
100
AcDbSymbolTableRecord
100
AcDbRegAppTableRecord
  2
ACAD
 70
     0
  0
APPID
  5
4BC
330
431
100
AcDbSymbolTableRecord
100
AcDbRegAppTableRecord
  2
GENIUS_GENDIM_13
 70
     0
  0
APPID
  5
4BD
330
431
100
AcDbSymbolTableRecord
100
AcDbRegAppTableRecord
  2
GENIUS_GENDTOL_13
 70
     0
  0
APPID
  5
4BE
330
431
100
AcDbSymbolTableRecord
100
AcDbRegAppTableRecord
  2
GENIUS_GE3DTOL_13
 70
     0
  0
APPID
  5
4C0
330
431
100
AcDbSymbolTableRecord
100
AcDbRegAppTableRecord
  2
MCAD_NO_VIS
 70
     0
  0
APPID
  5
4C1
330
431
100
AcDbSymbolTableRecord
100
AcDbRegAppTableRecord
  2
ACAD_TEMP_GRAPHIC
 70
     0
  0
APPID
  5
4F3
330
431
100
AcDbSymbolTableRecord
100
AcDbRegAppTableRecord
  2
AD_DRAW
 70
     0
  0
APPID
  5
4F6
330
431
100
AcDbSymbolTableRecord
100
AcDbRegAppTableRecord
  2
ACATTRIBSERVICES
 70
     0
  0
APPID
  5
542
330
431
100
AcDbSymbolTableRecord
100
AcDbRegAppTableRecord
  2
ASURF_PCURVE_APPNAME
 70
     0
  0
APPID
  5
571
330
431
100
AcDbSymbolTableRecord
100
AcDbRegAppTableRecord
  2
DESIGNERASSEMBLIES
 70
     0
  0
APPID
  5
579
330
431
100
AcDbSymbolTableRecord
100
AcDbRegAppTableRecord
  2
ACADM_DIM_EDIT
 70
     0
  0
APPID
  5
57A
330
431
100
AcDbSymbolTableRecord
100
AcDbRegAppTableRecord
  2
AMDT_DM_ADJ
 70
     0
  0
ENDTAB
  0
TABLE
  2
DIMSTYLE
  5
432
330
0
100
AcDbSymbolTable
 70
     1
100
AcDbDimStyleTable
 71
     0
  0
DIMSTYLE
105
456
330
432
100
AcDbSymbolTableRecord
100
AcDbDimStyleTableRecord
  2
STANDARD
 70
     0
274
     4
279
     2
284
     8
285
     8
286
     8
340
439
  0
ENDTAB
  0
TABLE
  2
BLOCK_RECORD
  5
429
330
0
100
AcDbSymbolTable
 70
     3
  0
BLOCK_RECORD
  5
446
102
{ACAD_XDICTIONARY
360
593
102
}
330
429
100
AcDbSymbolTableRecord
100
AcDbBlockTableRecord
  2
*Model_Space
340
449
  0
BLOCK_RECORD
  5
442
330
429
100
AcDbSymbolTableRecord
100
AcDbBlockTableRecord
  2
*Paper_Space
340
445
  0
BLOCK_RECORD
  5
459
330
429
100
AcDbSymbolTableRecord
100
AcDbBlockTableRecord
  2
$MODEL_SPACE
340
0
  0
BLOCK_RECORD
  5
45C
330
429
100
AcDbSymbolTableRecord
100
AcDbBlockTableRecord
  2
$PAPER_SPACE
340
0
  0
BLOCK_RECORD
  5
568
330
429
100
AcDbSymbolTableRecord
100
AcDbBlockTableRecord
  2
*U2
340
0
  0
ENDTAB
  0
ENDSEC
  0
SECTION
  2
BLOCKS
  0
BLOCK
  5
447
330
446
100
AcDbEntity
  8
0
100
AcDbBlockBegin
  2
*Model_Space
 70
     0
 10
0.0
 20
0.0
 30
0.0
  3
*Model_Space
  1

  0
ENDBLK
  5
448
330
446
100
AcDbEntity
  8
0
100
AcDbBlockEnd
  0
BLOCK
  5
443
330
442
100
AcDbEntity
 67
     1
  8
0
100
AcDbBlockBegin
  2
*Paper_Space
 70
     0
 10
0.0
 20
0.0
 30
0.0
  3
*Paper_Space
  1

  0
ENDBLK
  5
444
330
442
100
AcDbEntity
 67
     1
  8
0
100
AcDbBlockEnd
  0
BLOCK
  5
45A
330
459
100
AcDbEntity
  8
0
100
AcDbBlockBegin
  2
$MODEL_SPACE
 70
     0
 10
0.0
 20
0.0
 30
0.0
  3
$MODEL_SPACE
  1

  0
ENDBLK
  5
45B
330
459
100
AcDbEntity
  8
0
100
AcDbBlockEnd
  0
BLOCK
  5
45D
330
45C
100
AcDbEntity
  8
0
100
AcDbBlockBegin
  2
$PAPER_SPACE
 70
     0
 10
0.0
 20
0.0
 30
0.0
  3
$PAPER_SPACE
  1

  0
ENDBLK
  5
45E
330
45C
100
AcDbEntity
  8
0
100
AcDbBlockEnd
  0
BLOCK
  5
569
330
568
100
AcDbEntity
  8
0
100
AcDbBlockBegin
  2
*U2
 70
     1
 10
0.0
 20
0.0
 30
0.0
  3
*U2
  1

  0
ENDBLK
  5
56A
330
568
100
AcDbEntity
  8
0
100
AcDbBlockEnd
  0
ENDSEC
  0
SECTION
  2
ENTITIES
  0
LINE
  5
45F
330
446
100
AcDbEntity
  8
1
100
AcDbLine
 10
98.25000000000001
 20
103.0
 30
0.0
 11
78.0
 21
103.0
 31
0.0
  0
LINE
  5
460
330
446
100
AcDbEntity
  8
1
100
AcDbLine
 10
120.5
 20
103.0
 30
0.0
 11
209.75
 21
103.0
 31
0.0
  0
LINE
  5
461
330
446
100
AcDbEntity
  8
1
100
AcDbLine
 10
163.0
 20
63.0
 30
0.0
 11
163.0
 21
147.75
 31
0.0
  0
CIRCLE
  5
462
330
446
100
AcDbEntity
  8
1
100
AcDbCircle
 10
163.0
 20
103.0
 30
0.0
 40
22.5
  0
ARC
  5
463
330
446
100
AcDbEntity
  8
0
100
AcDbCircle
 10
163.0
 20
103.0
 30
0.0
 40
28.5
100
AcDbArc
 50
262.863646
 51
277.1363539999999
  0
CIRCLE
  5
464
330
446
100
AcDbEntity
  8
0
100
AcDbCircle
 10
163.0
 20
125.5
 30
0.0
 40
4.75
  0
CIRCLE
  5
465
330
446
100
AcDbEntity
  8
0
100
AcDbCircle
 10
140.5
 20
103.0
 30
0.0
 40
4.75
  0
CIRCLE
  5
466
330
446
100
AcDbEntity
  8
0
100
AcDbCircle
 10
163.0
 20
80.5
 30
0.0
 40
4.75
  0
CIRCLE
  5
467
330
446
100
AcDbEntity
  8
0
100
AcDbCircle
 10
185.5
 20
103.0
 30
0.0
 40
4.75
  0
CIRCLE
  5
468
330
446
100
AcDbEntity
  8
0
100
AcDbCircle
 10
163.0
 20
125.5
 30
0.0
 40
3.0
  0
CIRCLE
  5
469
330
446
100
AcDbEntity
  8
0
100
AcDbCircle
 10
140.5
 20
103.0
 30
0.0
 40
3.0
  0
CIRCLE
  5
46A
330
446
100
AcDbEntity
  8
0
100
AcDbCircle
 10
163.0
 20
80.5
 30
0.0
 40
3.0
  0
CIRCLE
  5
46B
330
446
100
AcDbEntity
  8
0
100
AcDbCircle
 10
185.5
 20
103.0
 30
0.0
 40
3.0
  0
CIRCLE
  5
46C
330
446
100
AcDbEntity
  8
0
100
AcDbCircle
 10
163.0
 20
125.5
 30
0.0
 40
2.6
  0
CIRCLE
  5
46D
330
446
100
AcDbEntity
  8
0
100
AcDbCircle
 10
140.5
 20
103.0
 30
0.0
 40
2.6
  0
CIRCLE
  5
46E
330
446
100
AcDbEntity
  8
0
100
AcDbCircle
 10
163.0
 20
80.5
 30
0.0
 40
2.6
  0
CIRCLE
  5
46F
330
446
100
AcDbEntity
  8
0
100
AcDbCircle
 10
185.5
 20
103.0
 30
0.0
 40
2.6
  0
CIRCLE
  5
470
330
446
100
AcDbEntity
  8
0
100
AcDbCircle
 10
163.0
 20
103.0
 30
0.0
 40
7.5
  0
CIRCLE
  5
471
330
446
100
AcDbEntity
  8
0
100
AcDbCircle
 10
163.0
 20
103.0
 30
0.0
 40
12.5
  0
CIRCLE
  5
472
330
446
100
AcDbEntity
  8
2
100
AcDbCircle
 10
163.0
 20
103.0
 30
0.0
 40
14.0
  0
LINE
  5
473
330
446
100
AcDbEntity
  8
1
100
AcDbLine
 10
98.50000000000001
 20
125.5
 30
0.0
 11
79.25
 21
125.5
 31
0.0
  0
LINE
  5
474
330
446
100
AcDbEntity
  8
0
100
AcDbLine
 10
93.25000000000001
 20
103.0
 30
0.0
 11
93.25000000000001
 21
131.4999999999999
 31
0.0
  0
LINE
  5
475
330
446
100
AcDbEntity
  8
0
100
AcDbLine
 10
93.25000000000001
 20
131.4999999999999
 30
0.0
 11
84.25
 21
131.4999999999999
 31
0.0
  0
LINE
  5
476
330
446
100
AcDbEntity
  8
0
100
AcDbLine
 10
84.25
 20
131.4999999999999
 30
0.0
 11
84.25
 21
103.0
 31
0.0
  0
LINE
  5
477
330
446
100
AcDbEntity
  8
0
100
AcDbLine
 10
84.25
 20
103.0
 30
0.0
 11
84.25
 21
117.0
 31
0.0
  0
LINE
  5
478
330
446
100
AcDbEntity
  8
0
100
AcDbLine
 10
84.25
 20
117.0
 30
0.0
 11
91.25
 21
117.0
 31
0.0
  0
LINE
  5
479
330
446
100
AcDbEntity
  8
0
100
AcDbLine
 10
91.25
 20
117.0
 30
0.0
 11
91.25
 21
103.0
 31
0.0
  0
LINE
  5
47A
330
446
100
AcDbEntity
  8
0
100
AcDbLine
 10
91.25
 20
103.0
 30
0.0
 11
91.25
 21
115.5
 31
0.0
  0
LINE
  5
47B
330
446
100
AcDbEntity
  8
0
100
AcDbLine
 10
91.25
 20
115.5
 30
0.0
 11
93.25000000000001
 21
115.5
 31
0.0
  0
LINE
  5
47C
330
446
100
AcDbEntity
  8
0
100
AcDbLine
 10
84.25
 20
103.0
 30
0.0
 11
84.25
 21
110.4999999999999
 31
0.0
  0
LINE
  5
47D
330
446
100
AcDbEntity
  8
0
100
AcDbLine
 10
84.25
 20
110.4999999999999
 30
0.0
 11
91.25
 21
110.4999999999999
 31
0.0
  0
LINE
  5
47E
330
446
100
AcDbEntity
  8
0
100
AcDbLine
 10
93.25000000000001
 20
125.5
 30
0.0
 11
93.25000000000001
 21
130.2499999999999
 31
0.0
  0
LINE
  5
47F
330
446
100
AcDbEntity
  8
0
100
AcDbLine
 10
93.25000000000001
 20
130.2499999999999
 30
0.0
 11
87.85
 21
130.2499999999999
 31
0.0
  0
LINE
  5
480
330
446
100
AcDbEntity
  8
0
100
AcDbLine
 10
87.85
 20
130.2499999999999
 30
0.0
 11
87.85
 21
120.75
 31
0.0
  0
LINE
  5
481
330
446
100
AcDbEntity
  8
0
100
AcDbLine
 10
87.85
 20
120.75
 30
0.0
 11
93.25000000000001
 21
120.75
 31
0.0
  0
LINE
  5
482
330
446
100
AcDbEntity
  8
0
100
AcDbLine
 10
87.85
 20
128.4999999999999
 30
0.0
 11
84.25
 21
128.4999999999999
 31
0.0
  0
LINE
  5
483
330
446
100
AcDbEntity
  8
0
100
AcDbLine
 10
87.85
 20
128.0999999999999
 30
0.0
 11
84.25
 21
128.0999999999999
 31
0.0
  0
LINE
  5
484
330
446
100
AcDbEntity
  8
0
100
AcDbLine
 10
87.85
 20
122.9
 30
0.0
 11
84.25
 21
122.9
 31
0.0
  0
LINE
  5
485
330
446
100
AcDbEntity
  8
0
100
AcDbLine
 10
87.85
 20
122.5
 30
0.0
 11
84.25
 21
122.5
 31
0.0
  0
CIRCLE
  5
486
330
446
100
AcDbEntity
  8
0
100
AcDbCircle
 10
87.75
 20
113.7499999999999
 30
0.0
 40
2.5
  0
LINE
  5
487
330
446
100
AcDbEntity
  8
0
100
AcDbLine
 10
91.25
 20
115.7499999999999
 30
0.0
 11
89.25
 21
115.7499999999999
 31
0.0
  0
LINE
  5
488
330
446
100
AcDbEntity
  8
0
100
AcDbLine
 10
91.25
 20
111.7499999999999
 30
0.0
 11
89.25
 21
111.7499999999999
 31
0.0
  0
LINE
  5
489
330
446
100
AcDbEntity
  8
0
100
AcDbLine
 10
86.25
 20
115.7499999999999
 30
0.0
 11
84.25
 21
115.7499999999999
 31
0.0
  0
LINE
  5
48A
330
446
100
AcDbEntity
  8
0
100
AcDbLine
 10
86.25
 20
111.7499999999999
 30
0.0
 11
84.25
 21
111.7499999999999
 31
0.0
  0
LINE
  5
48B
330
446
100
AcDbEntity
  8
0
100
AcDbLine
 10
85.25
 20
111.7499999999999
 30
0.0
 11
84.74999999999999
 21
112.25
 31
0.0
  0
LINE
  5
48C
330
446
100
AcDbEntity
  8
0
100
AcDbLine
 10
84.74999999999999
 20
112.25
 30
0.0
 11
84.74999999999999
 21
115.25
 31
0.0
  0
LINE
  5
48D
330
446
100
AcDbEntity
  8
0
100
AcDbLine
 10
84.74999999999999
 20
115.25
 30
0.0
 11
85.25
 21
115.7499999999999
 31
0.0
  0
LINE
  5
48E
330
446
100
AcDbEntity
  8
0
100
AcDbLine
 10
90.75000000000001
 20
115.25
 30
0.0
 11
90.25
 21
115.7499999999999
 31
0.0
  0
LINE
  5
48F
330
446
100
AcDbEntity
  8
0
100
AcDbLine
 10
90.75000000000001
 20
112.25
 30
0.0
 11
90.75000000000001
 21
115.25
 31
0.0
  0
LINE
  5
490
330
446
100
AcDbEntity
  8
0
100
AcDbLine
 10
90.25
 20
111.7499999999999
 30
0.0
 11
90.75000000000001
 21
112.25
 31
0.0
  0
LINE
  5
491
330
446
100
AcDbEntity
  8
0
100
AcDbLine
 10
84.25
 20
74.5
 30
0.0
 11
84.25
 21
103.0
 31
0.0
  0
LINE
  5
492
330
446
100
AcDbEntity
  8
0
100
AcDbLine
 10
93.25000000000001
 20
103.0
 30
0.0
 11
93.25000000000001
 21
74.5
 31
0.0
  0
LINE
  5
493
330
446
100
AcDbEntity
  8
1
100
AcDbLine
 10
98.50000000000001
 20
80.5
 30
0.0
 11
79.25
 21
80.5
 31
0.0
  0
LINE
  5
494
330
446
100
AcDbEntity
  8
0
100
AcDbLine
 10
90.75000000000001
 20
90.75000000000001
 30
0.0
 11
90.25
 21
90.25
 31
0.0
  0
LINE
  5
495
330
446
100
AcDbEntity
  8
0
100
AcDbLine
 10
84.74999999999999
 20
90.75000000000001
 30
0.0
 11
85.25
 21
90.25
 31
0.0
  0
CIRCLE
  5
496
330
446
100
AcDbEntity
  8
0
100
AcDbCircle
 10
87.75
 20
92.24999999999999
 30
0.0
 40
2.5
  0
LINE
  5
497
330
446
100
AcDbEntity
  8
0
100
AcDbLine
 10
91.25
 20
89.0
 30
0.0
 11
91.25
 21
103.0
 31
0.0
  0
LINE
  5
498
330
446
100
AcDbEntity
  8
0
100
AcDbLine
 10
84.25
 20
103.0
 30
0.0
 11
84.25
 21
89.0
 31
0.0
  0
LINE
  5
499
330
446
100
AcDbEntity
  8
0
100
AcDbLine
 10
84.25
 20
103.0
 30
0.0
 11
84.25
 21
95.5
 31
0.0
  0
LINE
  5
49A
330
446
100
AcDbEntity
  8
0
100
AcDbLine
 10
91.25
 20
103.0
 30
0.0
 11
91.25
 21
90.5
 31
0.0
  0
LINE
  5
49B
330
446
100
AcDbEntity
  8
0
100
AcDbLine
 10
84.25
 20
95.5
 30
0.0
 11
91.25
 21
95.5
 31
0.0
  0
LINE
  5
49C
330
446
100
AcDbEntity
  8
0
100
AcDbLine
 10
84.74999999999999
 20
93.75
 30
0.0
 11
84.74999999999999
 21
90.75000000000001
 31
0.0
  0
LINE
  5
49D
330
446
100
AcDbEntity
  8
0
100
AcDbLine
 10
85.25
 20
94.25
 30
0.0
 11
84.74999999999999
 21
93.75
 31
0.0
  0
LINE
  5
49E
330
446
100
AcDbEntity
  8
0
100
AcDbLine
 10
86.25
 20
94.25
 30
0.0
 11
84.25
 21
94.25
 31
0.0
  0
LINE
  5
49F
330
446
100
AcDbEntity
  8
0
100
AcDbLine
 10
91.25
 20
90.5
 30
0.0
 11
93.25000000000001
 21
90.5
 31
0.0
  0
LINE
  5
4A0
330
446
100
AcDbEntity
  8
0
100
AcDbLine
 10
90.25
 20
94.25
 30
0.0
 11
90.75000000000001
 21
93.75
 31
0.0
  0
LINE
  5
4A1
330
446
100
AcDbEntity
  8
0
100
AcDbLine
 10
90.75000000000001
 20
93.75
 30
0.0
 11
90.75000000000001
 21
90.75000000000001
 31
0.0
  0
LINE
  5
4A2
330
446
100
AcDbEntity
  8
0
100
AcDbLine
 10
91.25
 20
94.25
 30
0.0
 11
89.25
 21
94.25
 31
0.0
  0
LINE
  5
4A3
330
446
100
AcDbEntity
  8
0
100
AcDbLine
 10
87.85
 20
75.75
 30
0.0
 11
87.85
 21
85.25
 31
0.0
  0
LINE
  5
4A4
330
446
100
AcDbEntity
  8
0
100
AcDbLine
 10
87.85
 20
85.25
 30
0.0
 11
93.25000000000001
 21
85.25
 31
0.0
  0
LINE
  5
4A5
330
446
100
AcDbEntity
  8
0
100
AcDbLine
 10
84.25
 20
89.0
 30
0.0
 11
91.25
 21
89.0
 31
0.0
  0
LINE
  5
4A6
330
446
100
AcDbEntity
  8
0
100
AcDbLine
 10
86.25
 20
90.25
 30
0.0
 11
84.25
 21
90.25
 31
0.0
  0
LINE
  5
4A7
330
446
100
AcDbEntity
  8
0
100
AcDbLine
 10
87.85
 20
83.49999999999999
 30
0.0
 11
84.25
 21
83.49999999999999
 31
0.0
  0
LINE
  5
4A8
330
446
100
AcDbEntity
  8
0
100
AcDbLine
 10
87.85
 20
83.1
 30
0.0
 11
84.25
 21
83.1
 31
0.0
  0
LINE
  5
4A9
330
446
100
AcDbEntity
  8
0
100
AcDbLine
 10
91.25
 20
90.25
 30
0.0
 11
89.25
 21
90.25
 31
0.0
  0
LINE
  5
4AA
330
446
100
AcDbEntity
  8
0
100
AcDbLine
 10
93.25000000000001
 20
75.75
 30
0.0
 11
87.85
 21
75.75
 31
0.0
  0
LINE
  5
4AB
330
446
100
AcDbEntity
  8
0
100
AcDbLine
 10
87.85
 20
77.9
 30
0.0
 11
84.25
 21
77.9
 31
0.0
  0
LINE
  5
4AC
330
446
100
AcDbEntity
  8
0
100
AcDbLine
 10
87.85
 20
77.5
 30
0.0
 11
84.25
 21
77.5
 31
0.0
  0
LINE
  5
4AD
330
446
100
AcDbEntity
  8
0
100
AcDbLine
 10
93.25000000000001
 20
80.5
 30
0.0
 11
93.25000000000001
 21
75.75
 31
0.0
  0
LINE
  5
4AE
330
446
100
AcDbEntity
  8
0
100
AcDbLine
 10
93.25000000000001
 20
74.5
 30
0.0
 11
84.25
 21
74.5
 31
0.0
  0
LINE
  5
4B0
330
446
100
AcDbEntity
  8
0
100
AcDbLine
 10
178.909903
 20
87.09009700000001
 30
0.0
 11
191.2792189999999
 21
99.459414
 31
0.0
  0
LINE
  5
4B1
330
446
100
AcDbEntity
  8
0
100
AcDbLine
 10
191.2792189999999
 20
106.540586
 30
0.0
 11
166.540586
 21
131.2792189999999
 31
0.0
  0
LINE
  5
4B2
330
446
100
AcDbEntity
  8
0
100
AcDbLine
 10
159.4594139999999
 20
131.2792189999999
 30
0.0
 11
134.720781
 21
106.540586
 31
0.0
  0
LINE
  5
4B3
330
446
100
AcDbEntity
  8
0
100
AcDbLine
 10
134.720781
 20
99.459414
 30
0.0
 11
159.4594139999999
 21
74.720781
 31
0.0
  0
LINE
  5
4B4
330
446
100
AcDbEntity
  8
0
100
AcDbLine
 10
166.540586
 20
74.720781
 30
0.0
 11
178.909903
 21
87.09009700000001
 31
0.0
  0
ARC
  5
4B5
330
446
100
AcDbEntity
  8
0
100
AcDbCircle
 10
163.0
 20
103.0
 30
0.0
 40
28.5
100
AcDbArc
 50
352.863646
 51
7.136353999999998
  0
ARC
  5
4B6
330
446
100
AcDbEntity
  8
0
100
AcDbCircle
 10
163.0
 20
103.0
 30
0.0
 40
28.5
100
AcDbArc
 50
82.863646
 51
97.13635400000001
  0
ARC
  5
4B7
330
446
100
AcDbEntity
  8
0
100
AcDbCircle
 10
163.0
 20
103.0
 30
0.0
 40
28.5
100
AcDbArc
 50
172.8636459999999
 51
187.136354
  0
ENDSEC
  0
SECTION
  2
OBJECTS
  0
DICTIONARY
  5
434
330
0
100
AcDbDictionary
281
     1
  3
ACAD_GROUP
350
435
  3
ACAD_LAYOUT
350
441
  3
ACAD_MLINESTYLE
350
43E
  3
ACAD_PLOTSETTINGS
350
440
  3
ACAD_PLOTSTYLENAME
350
436
  3
AcDbVariableDictionary
350
59C
  3
AcmDictionary
350
572
  3
AMG
350
4B9
  3
AMGSNAPSETTINGS
350
58C
  3
DWGPROPS
350
575
  3
MAPISURF_MODULE
350
545
  0
DICTIONARY
  5
593
330
446
100
AcDbDictionary
280
     1
281
     1
  3
ACAD_INDEX
360
594
  0
DICTIONARY
  5
435
102
{ACAD_REACTORS
330
434
102
}
330
434
100
AcDbDictionary
281
     1
  0
DICTIONARY
  5
441
102
{ACAD_REACTORS
330
434
102
}
330
434
100
AcDbDictionary
281
     1
  3
Model
350
449
  3
ﾚｲｱｳﾄ1
350
445
  0
DICTIONARY
  5
43E
102
{ACAD_REACTORS
330
434
102
}
330
434
100
AcDbDictionary
281
     1
  3
Standard
350
43F
  0
DICTIONARY
  5
440
102
{ACAD_REACTORS
330
434
102
}
330
434
100
AcDbDictionary
281
     1
  0
ACDBDICTIONARYWDFLT
  5
436
102
{ACAD_REACTORS
330
434
102
}
330
434
100
AcDbDictionary
281
     1
  3
Normal
350
437
100
AcDbDictionaryWithDefault
340
437
  0
DICTIONARY
  5
59C
102
{ACAD_REACTORS
330
434
102
}
330
434
100
AcDbDictionary
281
     1
  3
DIMASSOC
350
59E
  3
INDEXCTL
350
59D
  0
DICTIONARY
  5
572
102
{ACAD_REACTORS
330
434
102
}
330
434
100
AcDbDictionary
281
     1
  3
AcmBOMDATA
350
573
  0
DICTIONARY
  5
4B9
102
{ACAD_REACTORS
330
434
102
}
330
434
100
AcDbDictionary
281
     1
  3
AcMgSettings
350
4BA
  3
AMGLAYCFG
350
57F
  0
DICTIONARY
  5
58C
102
{ACAD_REACTORS
330
434
102
}
330
434
100
AcDbDictionary
281
     1
  3
DIMENSION
350
591
  3
FEA
350
590
  3
HATCH (1)
350
58D
  3
HATCH (2)
350
58E
  3
SIMPLE WELD
350
592
  3
SYMBOLS
350
58F
  0
XRECORD
  5
575
102
{ACAD_REACTORS
330
434
102
}
330
434
100
AcDbXrecord
280
     1
  1
DWGPROPS COOKIE
  2

  3

  4

  6

  7

  8

  9

300
AmdtFileType=84
301
=
302
=
303
=
304
=
305
=
306
=
307
=
308
=
309
=
 40
0.1587411805555555
 41
2452361.611515
 42
2452363.754569004
  1

 90
        1
  0
DICTIONARY
  5
594
102
{ACAD_REACTORS
330
593
102
}
330
593
100
AcDbDictionary
281
     1
  3
*A1
350
595
  0
LAYOUT
  5
449
102
{ACAD_REACTORS
330
441
102
}
330
441
100
AcDbPlotSettings
  1

  2
\\KONISHIDENXP\SHARP MX-2700FG
  4

  6

 40
0.0
 41
0.0
 42
0.0
 43
0.0
 44
0.0
 45
0.0
 46
0.0
 47
0.0
 48
0.0
 49
0.0
140
0.0
141
0.0
142
1.0
143
1.0
 70
  1712
 72
     0
 73
     0
 74
     0
  7

 75
     0
147
1.0
148
0.0
149
0.0
100
AcDbLayout
  1
Model
 70
     1
 71
     0
 10
0.0
 20
0.0
 11
12.0
 21
9.0
 12
0.0
 22
0.0
 32
0.0
 14
0.0
 24
0.0
 34
0.0
 15
0.0
 25
0.0
 35
0.0
146
0.0
 13
0.0
 23
0.0
 33
0.0
 16
1.0
 26
0.0
 36
0.0
 17
0.0
 27
1.0
 37
0.0
 76
     0
330
446
  0
LAYOUT
  5
445
102
{ACAD_REACTORS
330
441
102
}
330
441
100
AcDbPlotSettings
  1

  2
\\KONISHIDENXP\SHARP MX-2700FG
  4

  6

 40
0.0
 41
0.0
 42
0.0
 43
0.0
 44
0.0
 45
0.0
 46
0.0
 47
0.0
 48
0.0
 49
0.0
140
0.0
141
0.0
142
1.0
143
1.0
 70
   688
 72
     0
 73
     0
 74
     5
  7

 75
    16
147
1.0
148
0.0
149
0.0
100
AcDbLayout
  1
ﾚｲｱｳﾄ1
 70
     1
 71
     1
 10
0.0
 20
0.0
 11
420.0
 21
297.0
 12
0.0
 22
0.0
 32
0.0
 14
1.000000000000000E+20
 24
1.000000000000000E+20
 34
1.000000000000000E+20
 15
-1.000000000000000E+20
 25
-1.000000000000000E+20
 35
-1.000000000000000E+20
146
0.0
 13
0.0
 23
0.0
 33
0.0
 16
1.0
 26
0.0
 36
0.0
 17
0.0
 27
1.0
 37
0.0
 76
     0
330
442
  0
MLINESTYLE
  5
43F
102
{ACAD_REACTORS
330
43E
102
}
330
43E
100
AcDbMlineStyle
  2
STANDARD
 70
     0
  3

 62
   256
 51
90.0
 52
90.0
 71
     2
 49
0.5
 62
   256
  6
BYLAYER
 49
-0.5
 62
   256
  6
BYLAYER
  0
ACDBPLACEHOLDER
  5
437
102
{ACAD_REACTORS
330
436
102
}
330
436
  0
DICTIONARYVAR
  5
59E
102
{ACAD_REACTORS
330
59C
102
}
330
59C
100
DictionaryVariables
280
     0
  1
1
  0
DICTIONARYVAR
  5
59D
102
{ACAD_REACTORS
330
59C
102
}
330
59C
100
DictionaryVariables
280
     0
  1
1
  0
ACMDATADICTIONARY
  5
573
102
{ACAD_REACTORS
330
572
102
}
330
572
100
AcDbDictionary
281
     1
  3
*A1
350
574
100
AcmDataDictionary
  0
DICTIONARY
  5
4BA
102
{ACAD_REACTORS
330
4B9
102
}
330
4B9
100
AcDbDictionary
281
     1
  3
DWGSETTINGS
350
4BB
  0
ACAMGFILTERDAT
  5
591
102
{ACAD_REACTORS
330
58C
102
}
330
58C
100
AcAmgFilterDat
 70
    15
  1
DIMENSION,AMDT_*_DIM
  2
*
  3
*
  4
*
  5
*
290
     1
  0
ACAMGFILTERDAT
  5
590
102
{ACAD_REACTORS
330
58C
102
}
330
58C
100
AcAmgFilterDat
 70
    15
  1
*
  2
AM_FEA-AM_*
  3
*
  4
*
  5
*
290
     1
  0
ACAMGFILTERDAT
  5
58D
102
{ACAD_REACTORS
330
58C
102
}
330
58C
100
AcAmgFilterDat
 70
    15
  1
HATCH
  2
*
  3
*
  4
*
  5
*
290
     1
  0
ACAMGFILTERDAT
  5
58E
102
{ACAD_REACTORS
330
58C
102
}
330
58C
100
AcAmgFilterDat
 70
    15
  1
LINE
  2
8,8N,*-8,*-8N,AM_8,AM_8N,*-AM_8,*-AM_8N
  3
*
  4
*
  5
INSERT,STDPART2D
290
     1
  0
ACAMGFILTERDAT
  5
592
102
{ACAD_REACTORS
330
58C
102
}
330
58C
100
AcAmgFilterDat
 70
    15
  1
ARC
  2
AM_5
  3
*
  4
2
  5
INSERT
290
     0
  0
ACAMGFILTERDAT
  5
58F
102
{ACAD_REACTORS
330
58C
102
}
330
58C
100
AcAmgFilterDat
 70
    15
  1
ACMFCFRAME,ACMDATUMTARGET,ACMDATUMID,ACMWELDSYM,ACMSURFSYM,ACMFEATID,ACMPARTREF,ACMBALLOON,AMDTEDGESYM,AMGSCREWCALCTABLE
  2
*
  3
*
  4
*
  5
*
290
     1
  0
LAYER_INDEX
  5
595
102
{ACAD_REACTORS
330
594
102
}
330
594
100
AcDbIndex
 40
2456447.712411748
100
AcDbLayerIndex
  8
0
360
596
 90
       81
  8
1
360
597
 90
        6
  8
2
360
598
 90
        1
  8
3
360
599
 90
        0
  8
DEFPOINTS
360
59A
 90
        0
  0
ACMDATAENTRYBLOCK
  5
574
102
{ACAD_REACTORS
330
573
102
}
330
573
100
AcmDataEntry
100
AcmDataEntryBlock
  0
IDBUFFER
  5
596
330
0
100
AcDbIdBuffer
330
496
330
497
330
498
330
499
330
49A
330
49B
330
49C
330
49D
330
49E
330
49F
330
4A0
330
4A1
330
4A2
330
4A3
330
4A4
330
4A5
330
4A6
330
4A7
330
4A8
330
4A9
330
4AA
330
4AB
330
4AC
330
4AD
330
4AE
330
4B0
330
4B1
330
4B2
330
4B3
330
4B4
330
4B5
330
4B6
330
4B7
330
463
330
464
330
465
330
466
330
467
330
468
330
469
330
46A
330
46B
330
46C
330
46D
330
46E
330
46F
330
470
330
471
330
474
330
475
330
476
330
477
330
478
330
479
330
47A
330
47B
330
47C
330
47D
330
47E
330
47F
330
480
330
481
330
482
330
483
330
484
330
485
330
486
330
487
330
488
330
489
330
48A
330
48B
330
48C
330
48D
330
48E
330
48F
330
490
330
491
330
492
330
494
330
495
  0
IDBUFFER
  5
597
330
0
100
AcDbIdBuffer
330
45F
330
460
330
461
330
462
330
473
330
493
  0
IDBUFFER
  5
598
330
0
100
AcDbIdBuffer
330
472
  0
IDBUFFER
  5
599
330
0
100
AcDbIdBuffer
  0
IDBUFFER
  5
59A
330
0
100
AcDbIdBuffer
  0
ENDSEC
  0
EOF
