  0
SECTION
  2
HEADER
  9
$ACADVER
  1
AC1014
  9
$ACADMAINTVER
 70
     0
  9
$DWGCODEPAGE
  3
ANSI_932
  9
$INSBASE
 10
0.0
 20
0.0
 30
0.0
  9
$EXTMIN
 10
49.5
 20
25.333333
 30
0.0
  9
$EXTMAX
 10
261.5
 20
164.5
 30
0.0
  9
$LIMMIN
 10
0.0
 20
0.0
  9
$LIMMAX
 10
265.0
 20
200.0
  9
$ORTHOMODE
 70
     1
  9
$REGENMODE
 70
     1
  9
$FILLMODE
 70
     1
  9
$QTEXTMODE
 70
     0
  9
$MIRRTEXT
 70
     1
  9
$DRAGMODE
 70
     2
  9
$LTSCALE
 40
1.0
  9
$OSMODE
 70
     0
  9
$ATTMODE
 70
     1
  9
$TEXTSIZE
 40
2.5
  9
$TRACEWID
 40
1.0
  9
$TEXTSTYLE
  7
STANDARD
  9
$CLAYER
  8
0
  9
$CELTYPE
  6
BYLAYER
  9
$CECOLOR
 62
   256
  9
$CELTSCALE
 40
1.0
  9
$DELOBJ
 70
     1
  9
$DISPSILH
 70
     0
  9
$DIMSCALE
 40
1.0
  9
$DIMASZ
 40
2.5
  9
$DIMEXO
 40
0.625
  9
$DIMDLI
 40
3.75
  9
$DIMRND
 40
0.0
  9
$DIMDLE
 40
0.0
  9
$DIMEXE
 40
1.25
  9
$DIMTP
 40
0.0
  9
$DIMTM
 40
0.0
  9
$DIMTXT
 40
2.5
  9
$DIMCEN
 40
2.5
  9
$DIMTSZ
 40
0.0
  9
$DIMTOL
 70
     0
  9
$DIMLIM
 70
     0
  9
$DIMTIH
 70
     0
  9
$DIMTOH
 70
     0
  9
$DIMSE1
 70
     0
  9
$DIMSE2
 70
     0
  9
$DIMTAD
 70
     1
  9
$DIMZIN
 70
     8
  9
$DIMBLK
  1

  9
$DIMASO
 70
     1
  9
$DIMSHO
 70
     1
  9
$DIMPOST
  1

  9
$DIMAPOST
  1

  9
$DIMALT
 70
     0
  9
$DIMALTD
 70
     4
  9
$DIMALTF
 40
0.0394
  9
$DIMLFAC
 40
1.0
  9
$DIMTOFL
 70
     1
  9
$DIMTVP
 40
0.0
  9
$DIMTIX
 70
     0
  9
$DIMSOXD
 70
     0
  9
$DIMSAH
 70
     0
  9
$DIMBLK1
  1

  9
$DIMBLK2
  1

  9
$DIMSTYLE
  2
STANDARD
  9
$DIMCLRD
 70
     0
  9
$DIMCLRE
 70
     0
  9
$DIMCLRT
 70
     0
  9
$DIMTFAC
 40
1.0
  9
$DIMGAP
 40
0.625
  9
$DIMJUST
 70
     0
  9
$DIMSD1
 70
     0
  9
$DIMSD2
 70
     0
  9
$DIMTOLJ
 70
     1
  9
$DIMTZIN
 70
     0
  9
$DIMALTZ
 70
     0
  9
$DIMALTTZ
 70
     0
  9
$DIMFIT
 70
     3
  9
$DIMUPT
 70
     0
  9
$DIMUNIT
 70
     8
  9
$DIMDEC
 70
     4
  9
$DIMTDEC
 70
     4
  9
$DIMALTU
 70
     8
  9
$DIMALTTD
 70
     4
  9
$DIMTXSTY
  7
STANDARD
  9
$DIMAUNIT
 70
     0
  9
$LUNITS
 70
     2
  9
$LUPREC
 70
     4
  9
$SKETCHINC
 40
1.0
  9
$FILLETRAD
 40
10.0
  9
$AUNITS
 70
     0
  9
$AUPREC
 70
     0
  9
$MENU
  1
.
  9
$ELEVATION
 40
0.0
  9
$PELEVATION
 40
0.0
  9
$THICKNESS
 40
0.0
  9
$LIMCHECK
 70
     0
  9
$BLIPMODE
 70
     0
  9
$CHAMFERA
 40
10.0
  9
$CHAMFERB
 40
10.0
  9
$CHAMFERC
 40
20.0
  9
$CHAMFERD
 40
0.0
  9
$SKPOLY
 70
     0
  9
$TDCREATE
 40
2452361.611514583
  9
$TDUPDATE
 40
2452819.495711458
  9
$TDINDWG
 40
0.2880098380
  9
$TDUSRTIMER
 40
0.2880098380
  9
$USRTIMER
 70
     1
  9
$ANGBASE
 50
0.0
  9
$ANGDIR
 70
     0
  9
$PDMODE
 70
     0
  9
$PDSIZE
 40
0.0
  9
$PLINEWID
 40
0.0
  9
$COORDS
 70
     2
  9
$SPLFRAME
 70
     0
  9
$SPLINETYPE
 70
     6
  9
$SPLINESEGS
 70
     8
  9
$ATTDIA
 70
     0
  9
$ATTREQ
 70
     1
  9
$HANDLING
 70
     1
  9
$HANDSEED
  5
6E4
  9
$SURFTAB1
 70
     6
  9
$SURFTAB2
 70
     6
  9
$SURFTYPE
 70
     6
  9
$SURFU
 70
     6
  9
$SURFV
 70
     6
  9
$UCSNAME
  2

  9
$UCSORG
 10
0.0
 20
0.0
 30
0.0
  9
$UCSXDIR
 10
1.0
 20
0.0
 30
0.0
  9
$UCSYDIR
 10
0.0
 20
1.0
 30
0.0
  9
$PUCSNAME
  2

  9
$PUCSORG
 10
0.0
 20
0.0
 30
0.0
  9
$PUCSXDIR
 10
1.0
 20
0.0
 30
0.0
  9
$PUCSYDIR
 10
0.0
 20
1.0
 30
0.0
  9
$USERI1
 70
     0
  9
$USERI2
 70
     0
  9
$USERI3
 70
     0
  9
$USERI4
 70
     0
  9
$USERI5
 70
     0
  9
$USERR1
 40
0.0
  9
$USERR2
 40
0.0
  9
$USERR3
 40
0.0
  9
$USERR4
 40
0.0
  9
$USERR5
 40
0.0
  9
$WORLDVIEW
 70
     1
  9
$SHADEDGE
 70
     3
  9
$SHADEDIF
 70
    70
  9
$TILEMODE
 70
     1
  9
$MAXACTVP
 70
    48
  9
$PINSBASE
 10
0.0
 20
0.0
 30
0.0
  9
$PLIMCHECK
 70
     0
  9
$PEXTMIN
 10
1.000000E+20
 20
1.000000E+20
 30
1.000000E+20
  9
$PEXTMAX
 10
-1.000000E+20
 20
-1.000000E+20
 30
-1.000000E+20
  9
$PLIMMIN
 10
0.0
 20
0.0
  9
$PLIMMAX
 10
420.0
 20
297.0
  9
$UNITMODE
 70
     0
  9
$VISRETAIN
 70
     1
  9
$PLINEGEN
 70
     0
  9
$PSLTSCALE
 70
     1
  9
$TREEDEPTH
 70
  3020
  9
$PICKSTYLE
 70
     1
  9
$CMLSTYLE
  2
STANDARD
  9
$CMLJUST
 70
     0
  9
$CMLSCALE
 40
20.0
  9
$PROXYGRAPHICS
 70
     1
  9
$MEASUREMENT
 70
     1
  0
ENDSEC
  0
SECTION
  2
CLASSES
  0
ENDSEC
  0
SECTION
  2
TABLES
  0
TABLE
  2
VPORT
  5
8
100
AcDbSymbolTable
 70
     1
  0
VPORT
  5
6DF
100
AcDbSymbolTableRecord
100
AcDbViewportTableRecord
  2
*ACTIVE
 70
     0
 10
0.0
 20
0.0
 11
1.0
 21
1.0
 12
146.401821
 22
100.660126
 13
0.0
 23
0.0
 14
0.5
 24
0.5
 15
1.0
 25
1.0
 16
0.0
 26
0.0
 36
1.0
 17
0.0
 27
0.0
 37
0.0
 40
201.329973
 41
1.454412
 42
50.0
 43
0.0
 44
0.0
 50
0.0
 51
0.0
 71
     0
 72
 20000
 73
     1
 74
     1
 75
     1
 76
     0
 77
     0
 78
     0
  0
ENDTAB
  0
TABLE
  2
LTYPE
  5
5
100
AcDbSymbolTable
 70
     7
  0
LTYPE
  5
12
100
AcDbSymbolTableRecord
100
AcDbLinetypeTableRecord
  2
BYBLOCK
 70
     0
  3

 72
    65
 73
     0
 40
0.0
  0
LTYPE
  5
13
100
AcDbSymbolTableRecord
100
AcDbLinetypeTableRecord
  2
BYLAYER
 70
     0
  3

 72
    65
 73
     0
 40
0.0
  0
LTYPE
  5
14
100
AcDbSymbolTableRecord
100
AcDbLinetypeTableRecord
  2
CONTINUOUS
 70
     0
  3
Solid line
 72
    65
 73
     0
 40
0.0
  0
LTYPE
  5
22
100
AcDbSymbolTableRecord
100
AcDbLinetypeTableRecord
  2
CENTERX2
 70
     0
  3
Center (2x) ________  __  ________  __  _____
 72
    65
 73
     4
 40
101.6
 49
63.5
 74
     0
 49
-12.7
 74
     0
 49
12.7
 74
     0
 49
-12.7
 74
     0
  0
LTYPE
  5
25
100
AcDbSymbolTableRecord
100
AcDbLinetypeTableRecord
  2
DASHEDX2
 70
     0
  3
Dashed (2x) ____  ____  ____  ____  ____  ___
 72
    65
 73
     2
 40
38.1
 49
25.4
 74
     0
 49
-12.7
 74
     0
  0
LTYPE
  5
28
100
AcDbSymbolTableRecord
100
AcDbLinetypeTableRecord
  2
DASHED
 70
     0
  3
Dashed __ __ __ __ __ __ __ __ __ __ __ __ __ _
 72
    65
 73
     2
 40
19.05
 49
12.7
 74
     0
 49
-6.35
 74
     0
  0
LTYPE
  5
29
100
AcDbSymbolTableRecord
100
AcDbLinetypeTableRecord
  2
CENTER
 70
     0
  3
Center ____ _ ____ _ ____ _ ____ _ ____ _ ____
 72
    65
 73
     4
 40
50.8
 49
31.75
 74
     0
 49
-6.35
 74
     0
 49
6.35
 74
     0
 49
-6.35
 74
     0
  0
LTYPE
  5
2B
100
AcDbSymbolTableRecord
100
AcDbLinetypeTableRecord
  2
CENTER2
 70
     0
  3
Center (.5x) ___ _ ___ _ ___ _ ___ _ ___ _ ___
 72
    65
 73
     4
 40
28.575
 49
19.05
 74
     0
 49
-3.175
 74
     0
 49
3.175
 74
     0
 49
-3.175
 74
     0
  0
LTYPE
  5
2C
100
AcDbSymbolTableRecord
100
AcDbLinetypeTableRecord
  2
DASHED2
 70
     0
  3
Dashed (.5x) _ _ _ _ _ _ _ _ _ _ _ _ _ _ _ _ _
 72
    65
 73
     2
 40
9.525
 49
6.35
 74
     0
 49
-3.175
 74
     0
  0
ENDTAB
  0
TABLE
  2
LAYER
  5
2
100
AcDbSymbolTable
 70
     5
  0
LAYER
  5
E
100
AcDbSymbolTableRecord
100
AcDbLayerTableRecord
  2
0
 70
     0
 62
     7
  6
CONTINUOUS
  0
LAYER
  5
23
100
AcDbSymbolTableRecord
100
AcDbLayerTableRecord
  2
1
 70
     0
 62
     1
  6
CENTER2
  0
LAYER
  5
24
100
AcDbSymbolTableRecord
100
AcDbLayerTableRecord
  2
2
 70
     0
 62
     2
  6
DASHED2
  0
LAYER
  5
26
100
AcDbSymbolTableRecord
100
AcDbLayerTableRecord
  2
3
 70
     0
 62
     4
  6
CONTINUOUS
  0
LAYER
  5
333
100
AcDbSymbolTableRecord
100
AcDbLayerTableRecord
  2
DEFPOINTS
 70
     0
 62
     7
  6
CONTINUOUS
  0
ENDTAB
  0
TABLE
  2
STYLE
  5
3
100
AcDbSymbolTable
 70
     2
  0
STYLE
  5
F
100
AcDbSymbolTableRecord
100
AcDbTextStyleTableRecord
  2
STANDARD
 70
     0
 40
0.0
 41
1.0
 50
0.0
 71
     0
 42
2.5
  3
txt
  4

  0
STYLE
  5
21
100
AcDbSymbolTableRecord
100
AcDbTextStyleTableRecord
  2

 70
     1
 40
0.0
 41
1.0
 50
0.0
 71
     0
 42
2.5
  3
ltypeshp.shx
  4

  0
ENDTAB
  0
TABLE
  2
VIEW
  5
6
100
AcDbSymbolTable
 70
     0
  0
ENDTAB
  0
TABLE
  2
UCS
  5
7
100
AcDbSymbolTable
 70
     0
  0
ENDTAB
  0
TABLE
  2
APPID
  5
9
100
AcDbSymbolTable
 70
     1
  0
APPID
  5
10
100
AcDbSymbolTableRecord
100
AcDbRegAppTableRecord
  2
ACAD
 70
     0
  0
ENDTAB
  0
TABLE
  2
DIMSTYLE
  5
A
100
AcDbSymbolTable
 70
     1
  0
DIMSTYLE
105
1D
100
AcDbSymbolTableRecord
100
AcDbDimStyleTableRecord
  2
STANDARD
 70
     0
  3

  4

  5

  6

  7

 40
1.0
 41
0.18
 42
0.0625
 43
0.38
 44
0.18
 45
0.0
 46
0.0
 47
0.0
 48
0.0
140
0.18
141
0.09
142
0.0
143
25.4
144
1.0
145
0.0
146
1.0
147
0.09
 71
     0
 72
     0
 73
     1
 74
     1
 75
     0
 76
     0
 77
     0
 78
     0
170
     0
171
     2
172
     0
173
     0
174
     0
175
     0
176
     0
177
     0
178
     0
270
     2
271
     4
272
     4
273
     2
274
     2
340
F
275
     0
280
     0
281
     0
282
     0
283
     1
284
     0
285
     0
286
     0
287
     3
288
     0
  0
ENDTAB
  0
TABLE
  2
BLOCK_RECORD
  5
1
100
AcDbSymbolTable
 70
     0
  0
BLOCK_RECORD
  5
18
100
AcDbSymbolTableRecord
100
AcDbBlockTableRecord
  2
*MODEL_SPACE
  0
BLOCK_RECORD
  5
15
100
AcDbSymbolTableRecord
100
AcDbBlockTableRecord
  2
*PAPER_SPACE
  0
ENDTAB
  0
ENDSEC
  0
SECTION
  2
BLOCKS
  0
BLOCK
  5
19
100
AcDbEntity
  8
0
100
AcDbBlockBegin
  2
*MODEL_SPACE
 70
     0
 10
0.0
 20
0.0
 30
0.0
  3
*MODEL_SPACE
  1

  0
ENDBLK
  5
1A
100
AcDbEntity
  8
0
100
AcDbBlockEnd
  0
BLOCK
  5
16
100
AcDbEntity
 67
     1
  8
0
100
AcDbBlockBegin
  2
*PAPER_SPACE
 70
     0
 10
0.0
 20
0.0
 30
0.0
  3
*PAPER_SPACE
  1

  0
ENDBLK
  5
17
100
AcDbEntity
 67
     1
  8
0
100
AcDbBlockEnd
  0
ENDSEC
  0
SECTION
  2
ENTITIES
  0
LINE
  5
64E
100
AcDbEntity
  8
1
100
AcDbLine
 10
49.5
 20
103.0
 30
0.0
 11
76.0
 21
103.0
 31
0.0
  0
LINE
  5
650
100
AcDbEntity
  8
1
100
AcDbLine
 10
52.5
 20
151.0
 30
0.0
 11
76.0
 21
151.0
 31
0.0
  0
LINE
  5
651
100
AcDbEntity
  8
0
100
AcDbLine
 10
70.5
 20
103.0
 30
0.0
 11
70.5
 21
160.0
 31
0.0
  0
LINE
  5
652
100
AcDbEntity
  8
0
100
AcDbLine
 10
70.5
 20
160.0
 30
0.0
 11
53.5
 21
160.0
 31
0.0
  0
LINE
  5
653
100
AcDbEntity
  8
0
100
AcDbLine
 10
53.5
 20
160.0
 30
0.0
 11
53.5
 21
103.0
 31
0.0
  0
LINE
  5
654
100
AcDbEntity
  8
0
100
AcDbLine
 10
70.5
 20
103.0
 30
0.0
 11
70.5
 21
133.0
 31
0.0
  0
LINE
  5
655
100
AcDbEntity
  8
0
100
AcDbLine
 10
70.5
 20
133.0
 30
0.0
 11
68.5
 21
133.0
 31
0.0
  0
LINE
  5
656
100
AcDbEntity
  8
0
100
AcDbLine
 10
68.5
 20
133.0
 30
0.0
 11
68.5
 21
103.0
 31
0.0
  0
LINE
  5
657
100
AcDbEntity
  8
0
100
AcDbLine
 10
68.5
 20
103.0
 30
0.0
 11
68.5
 21
137.0
 31
0.0
  0
LINE
  5
65B
100
AcDbEntity
  8
0
100
AcDbLine
 10
53.5
 20
123.0
 30
0.0
 11
68.5
 21
123.0
 31
0.0
  0
LINE
  5
65C
100
AcDbEntity
  8
0
100
AcDbLine
 10
61.9
 20
158.0
 30
0.0
 11
61.9
 21
144.0
 31
0.0
  0
LINE
  5
65D
100
AcDbEntity
  8
0
100
AcDbLine
 10
61.9
 20
144.0
 30
0.0
 11
70.5
 21
144.0
 31
0.0
  0
LINE
  5
65E
100
AcDbEntity
  8
0
100
AcDbLine
 10
53.5
 20
146.0
 30
0.0
 11
61.9
 21
146.0
 31
0.0
  0
LINE
  5
65F
100
AcDbEntity
  8
0
100
AcDbLine
 10
61.9
 20
147.0
 30
0.0
 11
53.5
 21
147.0
 31
0.0
  0
LINE
  5
660
100
AcDbEntity
  8
0
100
AcDbLine
 10
70.5
 20
158.0
 30
0.0
 11
61.9
 21
158.0
 31
0.0
  0
LINE
  5
661
100
AcDbEntity
  8
0
100
AcDbLine
 10
53.5
 20
156.0
 30
0.0
 11
61.9
 21
156.0
 31
0.0
  0
LINE
  5
662
100
AcDbEntity
  8
0
100
AcDbLine
 10
61.9
 20
155.0
 30
0.0
 11
53.5
 21
155.0
 31
0.0
  0
LINE
  5
663
100
AcDbEntity
  8
0
100
AcDbLine
 10
70.5
 20
151.0
 30
0.0
 11
70.5
 21
158.0
 31
0.0
  0
CIRCLE
  5
664
100
AcDbEntity
  8
0
100
AcDbCircle
 10
61.0
 20
130.0
 30
0.0
 40
4.0
  0
LINE
  5
665
100
AcDbEntity
  8
0
100
AcDbLine
 10
68.5
 20
133.5
 30
0.0
 11
62.936492
 21
133.5
 31
0.0
  0
LINE
  5
666
100
AcDbEntity
  8
0
100
AcDbLine
 10
68.5
 20
126.5
 30
0.0
 11
62.936492
 21
126.5
 31
0.0
  0
LINE
  5
667
100
AcDbEntity
  8
0
100
AcDbLine
 10
59.063508
 20
133.5
 30
0.0
 11
53.5
 21
133.5
 31
0.0
  0
LINE
  5
668
100
AcDbEntity
  8
0
100
AcDbLine
 10
59.063508
 20
126.5
 30
0.0
 11
53.5
 21
126.5
 31
0.0
  0
LINE
  5
669
100
AcDbEntity
  8
0
100
AcDbLine
 10
67.0
 20
133.5
 30
0.0
 11
68.0
 21
132.5
 31
0.0
  0
LINE
  5
66A
100
AcDbEntity
  8
0
100
AcDbLine
 10
68.0
 20
132.5
 30
0.0
 11
68.0
 21
127.5
 31
0.0
  0
LINE
  5
66B
100
AcDbEntity
  8
0
100
AcDbLine
 10
68.0
 20
127.5
 30
0.0
 11
67.0
 21
126.5
 31
0.0
  0
LINE
  5
66C
100
AcDbEntity
  8
0
100
AcDbLine
 10
55.0
 20
133.5
 30
0.0
 11
54.0
 21
132.5
 31
0.0
  0
LINE
  5
66D
100
AcDbEntity
  8
0
100
AcDbLine
 10
54.0
 20
132.5
 30
0.0
 11
54.0
 21
127.5
 31
0.0
  0
LINE
  5
66E
100
AcDbEntity
  8
0
100
AcDbLine
 10
54.0
 20
127.5
 30
0.0
 11
55.0
 21
126.5
 31
0.0
  0
LINE
  5
68C
100
AcDbEntity
  8
1
100
AcDbLine
 10
134.5
 20
103.0
 30
0.0
 11
261.5
 21
103.0
 31
0.0
  0
LINE
  5
68D
100
AcDbEntity
  8
1
100
AcDbLine
 10
198.0
 20
164.5
 30
0.0
 11
198.0
 21
41.5
 31
0.0
  0
ARC
  5
68E
100
AcDbEntity
  8
0
100
AcDbCircle
 10
198.0
 20
103.0
 30
0.0
 40
57.0
100
AcDbArc
 50
266.028254
 51
273.971746
  0
CIRCLE
  5
68F
100
AcDbEntity
  8
0
100
AcDbCircle
 10
198.0
 20
103.0
 30
0.0
 40
20.0
  0
CIRCLE
  5
690
100
AcDbEntity
  8
0
100
AcDbCircle
 10
198.0
 20
103.0
 30
0.0
 40
30.0
  0
CIRCLE
  5
691
100
AcDbEntity
  8
2
100
AcDbCircle
 10
198.0
 20
103.0
 30
0.0
 40
34.0
  0
CIRCLE
  5
692
100
AcDbEntity
  8
1
100
AcDbCircle
 10
198.0
 20
103.0
 30
0.0
 40
48.0
  0
CIRCLE
  5
693
100
AcDbEntity
  8
0
100
AcDbCircle
 10
198.0
 20
151.0
 30
0.0
 40
5.0
  0
CIRCLE
  5
694
100
AcDbEntity
  8
0
100
AcDbCircle
 10
198.0
 20
151.0
 30
0.0
 40
4.2
  0
CIRCLE
  5
695
100
AcDbEntity
  8
0
100
AcDbCircle
 10
198.0
 20
151.0
 30
0.0
 40
7.0
  0
CIRCLE
  5
696
100
AcDbEntity
  8
0
100
AcDbCircle
 10
246.0
 20
103.0
 30
0.0
 40
5.0
  0
CIRCLE
  5
697
100
AcDbEntity
  8
0
100
AcDbCircle
 10
246.0
 20
103.0
 30
0.0
 40
4.2
  0
CIRCLE
  5
698
100
AcDbEntity
  8
0
100
AcDbCircle
 10
246.0
 20
103.0
 30
0.0
 40
7.0
  0
CIRCLE
  5
699
100
AcDbEntity
  8
0
100
AcDbCircle
 10
150.0
 20
103.0
 30
0.0
 40
5.0
  0
CIRCLE
  5
69A
100
AcDbEntity
  8
0
100
AcDbCircle
 10
150.0
 20
103.0
 30
0.0
 40
4.2
  0
CIRCLE
  5
69B
100
AcDbEntity
  8
0
100
AcDbCircle
 10
150.0
 20
103.0
 30
0.0
 40
7.0
  0
CIRCLE
  5
69C
100
AcDbEntity
  8
0
100
AcDbCircle
 10
198.0
 20
55.0
 30
0.0
 40
5.0
  0
CIRCLE
  5
69D
100
AcDbEntity
  8
0
100
AcDbCircle
 10
198.0
 20
55.0
 30
0.0
 40
4.2
  0
CIRCLE
  5
69E
100
AcDbEntity
  8
0
100
AcDbCircle
 10
198.0
 20
55.0
 30
0.0
 40
7.0
  0
LINE
  5
6A6
100
AcDbEntity
  8
0
100
AcDbLine
 10
68.5
 20
137.0
 30
0.0
 11
53.5
 21
137.0
 31
0.0
  0
LINE
  5
6A7
100
AcDbEntity
  8
0
100
AcDbLine
 10
68.5
 20
69.0
 30
0.0
 11
53.5
 21
69.0
 31
0.0
  0
LINE
  5
6A8
100
AcDbEntity
  8
0
100
AcDbLine
 10
59.063508
 20
72.5
 30
0.0
 11
53.5
 21
72.5
 31
0.0
  0
LINE
  5
6A9
100
AcDbEntity
  8
0
100
AcDbLine
 10
59.063508
 20
79.5
 30
0.0
 11
53.5
 21
79.5
 31
0.0
  0
CIRCLE
  5
6AA
100
AcDbEntity
  8
0
100
AcDbCircle
 10
61.0
 20
76.0
 30
0.0
 40
4.0
  0
LINE
  5
6AB
100
AcDbEntity
  8
0
100
AcDbLine
 10
53.5
 20
83.0
 30
0.0
 11
68.5
 21
83.0
 31
0.0
  0
LINE
  5
6AC
100
AcDbEntity
  8
0
100
AcDbLine
 10
53.5
 20
60.0
 30
0.0
 11
61.9
 21
60.0
 31
0.0
  0
LINE
  5
6AD
100
AcDbEntity
  8
0
100
AcDbLine
 10
61.9
 20
59.0
 30
0.0
 11
53.5
 21
59.0
 31
0.0
  0
LINE
  5
6AE
100
AcDbEntity
  8
0
100
AcDbLine
 10
61.9
 20
51.0
 30
0.0
 11
53.5
 21
51.0
 31
0.0
  0
LINE
  5
6AF
100
AcDbEntity
  8
0
100
AcDbLine
 10
53.5
 20
50.0
 30
0.0
 11
61.9
 21
50.0
 31
0.0
  0
LINE
  5
6B0
100
AcDbEntity
  8
0
100
AcDbLine
 10
70.5
 20
46.0
 30
0.0
 11
53.5
 21
46.0
 31
0.0
  0
LINE
  5
6B1
100
AcDbEntity
  8
1
100
AcDbLine
 10
52.5
 20
55.0
 30
0.0
 11
76.0
 21
55.0
 31
0.0
  0
LINE
  5
6B2
100
AcDbEntity
  8
0
100
AcDbLine
 10
53.5
 20
46.0
 30
0.0
 11
53.5
 21
103.0
 31
0.0
  0
LINE
  5
6B3
100
AcDbEntity
  8
0
100
AcDbLine
 10
54.0
 20
73.5
 30
0.0
 11
54.0
 21
78.5
 31
0.0
  0
LINE
  5
6B4
100
AcDbEntity
  8
0
100
AcDbLine
 10
54.0
 20
78.5
 30
0.0
 11
55.0
 21
79.5
 31
0.0
  0
LINE
  5
6B5
100
AcDbEntity
  8
0
100
AcDbLine
 10
55.0
 20
72.5
 30
0.0
 11
54.0
 21
73.5
 31
0.0
  0
LINE
  5
6B6
100
AcDbEntity
  8
0
100
AcDbLine
 10
68.0
 20
73.5
 30
0.0
 11
68.0
 21
78.5
 31
0.0
  0
LINE
  5
6B7
100
AcDbEntity
  8
0
100
AcDbLine
 10
68.5
 20
103.0
 30
0.0
 11
68.5
 21
69.0
 31
0.0
  0
LINE
  5
6B8
100
AcDbEntity
  8
0
100
AcDbLine
 10
68.5
 20
73.0
 30
0.0
 11
68.5
 21
103.0
 31
0.0
  0
LINE
  5
6B9
100
AcDbEntity
  8
0
100
AcDbLine
 10
70.5
 20
103.0
 30
0.0
 11
70.5
 21
73.0
 31
0.0
  0
LINE
  5
6BA
100
AcDbEntity
  8
0
100
AcDbLine
 10
70.5
 20
103.0
 30
0.0
 11
70.5
 21
46.0
 31
0.0
  0
LINE
  5
6BB
100
AcDbEntity
  8
0
100
AcDbLine
 10
68.5
 20
79.5
 30
0.0
 11
62.936492
 21
79.5
 31
0.0
  0
LINE
  5
6BC
100
AcDbEntity
  8
0
100
AcDbLine
 10
68.0
 20
78.5
 30
0.0
 11
67.0
 21
79.5
 31
0.0
  0
LINE
  5
6BD
100
AcDbEntity
  8
0
100
AcDbLine
 10
61.9
 20
48.0
 30
0.0
 11
61.9
 21
62.0
 31
0.0
  0
LINE
  5
6BE
100
AcDbEntity
  8
0
100
AcDbLine
 10
61.9
 20
62.0
 30
0.0
 11
70.5
 21
62.0
 31
0.0
  0
LINE
  5
6BF
100
AcDbEntity
  8
0
100
AcDbLine
 10
70.5
 20
73.0
 30
0.0
 11
68.5
 21
73.0
 31
0.0
  0
LINE
  5
6C0
100
AcDbEntity
  8
0
100
AcDbLine
 10
68.5
 20
72.5
 30
0.0
 11
62.936492
 21
72.5
 31
0.0
  0
LINE
  5
6C1
100
AcDbEntity
  8
0
100
AcDbLine
 10
67.0
 20
72.5
 30
0.0
 11
68.0
 21
73.5
 31
0.0
  0
LINE
  5
6C2
100
AcDbEntity
  8
0
100
AcDbLine
 10
70.5
 20
48.0
 30
0.0
 11
61.9
 21
48.0
 31
0.0
  0
LINE
  5
6C3
100
AcDbEntity
  8
0
100
AcDbLine
 10
70.5
 20
55.0
 30
0.0
 11
70.5
 21
48.0
 31
0.0
  0
LINE
  5
6CC
100
AcDbEntity
  8
0
100
AcDbLine
 10
228.405592
 20
133.405592
 30
0.0
 11
201.948078
 21
159.863105
 31
0.0
  0
LINE
  5
6CD
100
AcDbEntity
  8
0
100
AcDbLine
 10
194.051922
 20
159.863105
 30
0.0
 11
141.136895
 21
106.948078
 31
0.0
  0
LINE
  5
6CE
100
AcDbEntity
  8
0
100
AcDbLine
 10
141.136895
 20
99.051922
 30
0.0
 11
194.051922
 21
46.136895
 31
0.0
  0
LINE
  5
6CF
100
AcDbEntity
  8
0
100
AcDbLine
 10
201.948078
 20
46.136895
 30
0.0
 11
254.863105
 21
99.051922
 31
0.0
  0
LINE
  5
6D0
100
AcDbEntity
  8
0
100
AcDbLine
 10
254.863105
 20
106.948078
 30
0.0
 11
228.405592
 21
133.405592
 31
0.0
  0
ARC
  5
6D1
100
AcDbEntity
  8
0
100
AcDbCircle
 10
198.0
 20
103.0
 30
0.0
 40
57.0
100
AcDbArc
 50
356.028254
 51
3.971746
  0
ARC
  5
6D2
100
AcDbEntity
  8
0
100
AcDbCircle
 10
198.0
 20
103.0
 30
0.0
 40
57.0
100
AcDbArc
 50
86.028254
 51
93.971746
  0
ARC
  5
6D3
100
AcDbEntity
  8
0
100
AcDbCircle
 10
198.0
 20
103.0
 30
0.0
 40
57.0
100
AcDbArc
 50
176.028254
 51
183.971746
  0
TEXT
  5
6D5
100
AcDbEntity
  8
0
100
AcDbText
 10
111.5
 20
34.5
 30
0.0
 40
2.5
  1
BS-6008ZZ
100
AcDbText
  0
TEXT
  5
6DC
100
AcDbEntity
  8
0
100
AcDbText
 10
111.0
 20
29.5
 30
0.0
 40
2.5
  1
BSM-6008ZZ
100
AcDbText
  0
TEXT
  5
6DD
100
AcDbEntity
  8
0
100
AcDbText
 10
111.0
 20
25.333333
 30
0.0
 40
2.5
  1
BSS-6008ZZ
100
AcDbText
  0
ENDSEC
  0
SECTION
  2
OBJECTS
  0
DICTIONARY
  5
C
100
AcDbDictionary
  3
ACAD_GROUP
350
D
  3
ACAD_MLINESTYLE
350
1B
  0
DICTIONARY
  5
D
102
{ACAD_REACTORS
330
C
102
}
100
AcDbDictionary
  0
DICTIONARY
  5
1B
102
{ACAD_REACTORS
330
C
102
}
100
AcDbDictionary
  3
STANDARD
350
1C
  0
MLINESTYLE
  5
1C
102
{ACAD_REACTORS
330
1B
102
}
100
AcDbMlineStyle
  2
STANDARD
 70
     0
  3

 62
   256
 51
90.0
 52
90.0
 71
     2
 49
0.5
 62
   256
  6
BYLAYER
 49
-0.5
 62
   256
  6
BYLAYER
  0
ENDSEC
  0
EOF
