  0
SECTION
  2
HEADER
  9
$ACADVER
  1
AC1014
  9
$ACADMAINTVER
 70
     0
  9
$DWGCODEPAGE
  3
ANSI_932
  9
$INSBASE
 10
0.0
 20
0.0
 30
0.0
  9
$EXTMIN
 10
165.893011
 20
156.177279
 30
0.0
  9
$EXTMAX
 10
447.844945
 20
278.230046
 30
0.0
  9
$LIMMIN
 10
0.0
 20
0.0
  9
$LIMMAX
 10
594.0
 20
420.0
  9
$ORTHOMODE
 70
     0
  9
$REGENMODE
 70
     1
  9
$FILLMODE
 70
     1
  9
$QTEXTMODE
 70
     0
  9
$MIRRTEXT
 70
     1
  9
$DRAGMODE
 70
     2
  9
$LTSCALE
 40
0.25
  9
$OSMODE
 70
    37
  9
$ATTMODE
 70
     1
  9
$TEXTSIZE
 40
4.0
  9
$TRACEWID
 40
1.0
  9
$TEXTSTYLE
  7
STANDARD
  9
$CLAYER
  8
0
  9
$CELTYPE
  6
BYLAYER
  9
$CECOLOR
 62
   256
  9
$CELTSCALE
 40
1.0
  9
$DELOBJ
 70
     1
  9
$DISPSILH
 70
     0
  9
$DIMSCALE
 40
2.0
  9
$DIMASZ
 40
3.0
  9
$DIMEXO
 40
1.0
  9
$DIMDLI
 40
10.0
  9
$DIMRND
 40
0.0
  9
$DIMDLE
 40
0.0
  9
$DIMEXE
 40
1.0
  9
$DIMTP
 40
0.0
  9
$DIMTM
 40
0.0
  9
$DIMTXT
 40
3.2
  9
$DIMCEN
 40
0.0
  9
$DIMTSZ
 40
0.0
  9
$DIMTOL
 70
     0
  9
$DIMLIM
 70
     0
  9
$DIMTIH
 70
     0
  9
$DIMTOH
 70
     0
  9
$DIMSE1
 70
     0
  9
$DIMSE2
 70
     0
  9
$DIMTAD
 70
     1
  9
$DIMZIN
 70
     8
  9
$DIMBLK
  1
ARROW
  9
$DIMASO
 70
     1
  9
$DIMSHO
 70
     1
  9
$DIMPOST
  1

  9
$DIMAPOST
  1

  9
$DIMALT
 70
     0
  9
$DIMALTD
 70
     2
  9
$DIMALTF
 40
0.04
  9
$DIMLFAC
 40
1.0
  9
$DIMTOFL
 70
     1
  9
$DIMTVP
 40
1.0
  9
$DIMTIX
 70
     0
  9
$DIMSOXD
 70
     0
  9
$DIMSAH
 70
     0
  9
$DIMBLK1
  1

  9
$DIMBLK2
  1

  9
$DIMSTYLE
  2
AA1
  9
$DIMCLRD
 70
     0
  9
$DIMCLRE
 70
     0
  9
$DIMCLRT
 70
     0
  9
$DIMTFAC
 40
0.6
  9
$DIMGAP
 40
0.0
  9
$DIMJUST
 70
     0
  9
$DIMSD1
 70
     0
  9
$DIMSD2
 70
     0
  9
$DIMTOLJ
 70
     1
  9
$DIMTZIN
 70
     0
  9
$DIMALTZ
 70
     0
  9
$DIMALTTZ
 70
     0
  9
$DIMFIT
 70
     3
  9
$DIMUPT
 70
     0
  9
$DIMUNIT
 70
     2
  9
$DIMDEC
 70
     4
  9
$DIMTDEC
 70
     4
  9
$DIMALTU
 70
     2
  9
$DIMALTTD
 70
     2
  9
$DIMTXSTY
  7
STANDARD
  9
$DIMAUNIT
 70
     0
  9
$LUNITS
 70
     2
  9
$LUPREC
 70
     2
  9
$SKETCHINC
 40
1.0
  9
$FILLETRAD
 40
10.0
  9
$AUNITS
 70
     0
  9
$AUPREC
 70
     0
  9
$MENU
  1
acad
  9
$ELEVATION
 40
0.0
  9
$PELEVATION
 40
0.0
  9
$THICKNESS
 40
0.0
  9
$LIMCHECK
 70
     0
  9
$BLIPMODE
 70
     0
  9
$CHAMFERA
 40
0.0
  9
$CHAMFERB
 40
0.0
  9
$CHAMFERC
 40
0.0
  9
$CHAMFERD
 40
0.0
  9
$SKPOLY
 70
     0
  9
$TDCREATE
 40
2451466.825090625
  9
$TDUPDATE
 40
2452821.796623032
  9
$TDINDWG
 40
0.0012452315
  9
$TDUSRTIMER
 40
0.0012450463
  9
$USRTIMER
 70
     1
  9
$ANGBASE
 50
0.0
  9
$ANGDIR
 70
     0
  9
$PDMODE
 70
     1
  9
$PDSIZE
 40
0.0
  9
$PLINEWID
 40
0.0
  9
$COORDS
 70
     1
  9
$SPLFRAME
 70
     0
  9
$SPLINETYPE
 70
     6
  9
$SPLINESEGS
 70
     8
  9
$ATTDIA
 70
     0
  9
$ATTREQ
 70
     1
  9
$HANDLING
 70
     1
  9
$HANDSEED
  5
500
  9
$SURFTAB1
 70
     6
  9
$SURFTAB2
 70
     6
  9
$SURFTYPE
 70
     6
  9
$SURFU
 70
     6
  9
$SURFV
 70
     6
  9
$UCSNAME
  2

  9
$UCSORG
 10
0.0
 20
0.0
 30
0.0
  9
$UCSXDIR
 10
1.0
 20
0.0
 30
0.0
  9
$UCSYDIR
 10
0.0
 20
1.0
 30
0.0
  9
$PUCSNAME
  2

  9
$PUCSORG
 10
0.0
 20
0.0
 30
0.0
  9
$PUCSXDIR
 10
1.0
 20
0.0
 30
0.0
  9
$PUCSYDIR
 10
0.0
 20
1.0
 30
0.0
  9
$USERI1
 70
     0
  9
$USERI2
 70
     0
  9
$USERI3
 70
     0
  9
$USERI4
 70
     0
  9
$USERI5
 70
     0
  9
$USERR1
 40
0.0
  9
$USERR2
 40
0.0
  9
$USERR3
 40
0.0
  9
$USERR4
 40
0.0
  9
$USERR5
 40
0.0
  9
$WORLDVIEW
 70
     1
  9
$SHADEDGE
 70
     3
  9
$SHADEDIF
 70
    70
  9
$TILEMODE
 70
     1
  9
$MAXACTVP
 70
    16
  9
$PINSBASE
 10
0.0
 20
0.0
 30
0.0
  9
$PLIMCHECK
 70
     0
  9
$PEXTMIN
 10
1.000000E+20
 20
1.000000E+20
 30
1.000000E+20
  9
$PEXTMAX
 10
-1.000000E+20
 20
-1.000000E+20
 30
-1.000000E+20
  9
$PLIMMIN
 10
0.0
 20
0.0
  9
$PLIMMAX
 10
420.0
 20
297.0
  9
$UNITMODE
 70
     0
  9
$VISRETAIN
 70
     0
  9
$PLINEGEN
 70
     0
  9
$PSLTSCALE
 70
     0
  9
$TREEDEPTH
 70
  3020
  9
$PICKSTYLE
 70
     1
  9
$CMLSTYLE
  2
STANDARD
  9
$CMLJUST
 70
     0
  9
$CMLSCALE
 40
1.0
  9
$PROXYGRAPHICS
 70
     1
  9
$MEASUREMENT
 70
     0
  0
ENDSEC
  0
SECTION
  2
CLASSES
  0
CLASS
  1
ACDBDICTIONARYWDFLT
  2
AcDbDictionaryWithDefault
  3
AutoCAD 2000
 90
        0
280
     0
281
     0
  0
CLASS
  1
ACDBPLACEHOLDER
  2
AcDbPlaceHolder
  3
AutoCAD 2000
 90
        0
280
     0
281
     0
  0
CLASS
  1
LAYOUT
  2
AcDbLayout
  3
AutoCAD 2000
 90
        0
280
     0
281
     0
  0
CLASS
  1
DICTIONARYVAR
  2
AcDbDictionaryVar
  3
"AutoCAD"
 90
        0
280
     0
281
     0
  0
CLASS
  1
LONG_TRANSACTION
  2
AcDbLongTransaction
  3
AutoCAD 2000
 90
        0
280
     0
281
     0
  0
CLASS
  1
LWPOLYLINE
  2
AcDbPolyline
  3
"AutoCAD"
 90
        0
280
     0
281
     1
  0
CLASS
  1
HATCH
  2
AcDbHatch
  3
"ACAD_SEDONA"
 90
        0
280
     0
281
     1
  0
CLASS
  1
XRECORD
  2
AcDbXrecord
  3
"<Built In>"
 90
        0
280
     0
281
     0
  0
ENDSEC
  0
SECTION
  2
TABLES
  0
TABLE
  2
VPORT
  5
337
100
AcDbSymbolTable
 70
     1
  0
VPORT
  5
4C7
102
{ACAD_XDICTIONARY
360
4D0
102
}
100
AcDbSymbolTableRecord
100
AcDbViewportTableRecord
  2
*ACTIVE
 70
     0
 10
0.0
 20
0.0
 11
1.0
 21
1.0
 12
233.916505
 22
158.101732
 13
0.0
 23
0.0
 14
10.0
 24
10.0
 15
0.0
 25
0.0
 16
0.0
 26
0.0
 36
1.0
 17
0.0
 27
0.0
 37
0.0
 40
278.424507
 41
1.570997
 42
50.0
 43
0.0
 44
0.0
 50
0.0
 51
0.0
 71
     0
 72
   100
 73
     1
 74
     0
 75
     0
 76
     0
 77
     0
 78
     1
  0
ENDTAB
  0
TABLE
  2
LTYPE
  5
334
100
AcDbSymbolTable
 70
     3
  0
LTYPE
  5
342
102
{ACAD_XDICTIONARY
360
4CC
102
}
100
AcDbSymbolTableRecord
100
AcDbLinetypeTableRecord
  2
BYBLOCK
 70
     0
  3

 72
    65
 73
     0
 40
0.0
  0
LTYPE
  5
343
102
{ACAD_XDICTIONARY
360
4CE
102
}
100
AcDbSymbolTableRecord
100
AcDbLinetypeTableRecord
  2
BYLAYER
 70
     0
  3

 72
    65
 73
     0
 40
0.0
  0
LTYPE
  5
344
100
AcDbSymbolTableRecord
100
AcDbLinetypeTableRecord
  2
CONTINUOUS
 70
     0
  3
Solid line
 72
    65
 73
     0
 40
0.0
  0
LTYPE
  5
352
100
AcDbSymbolTableRecord
100
AcDbLinetypeTableRecord
  2
CENTER
 70
     0
  3
____ _ ____ _ ____ _ ____ _ ____ _ ____ _ ____ 
 72
    65
 73
     4
 40
50.8
 49
31.75
 74
     0
 49
-6.35
 74
     0
 49
6.35
 74
     0
 49
-6.35
 74
     0
  0
LTYPE
  5
353
100
AcDbSymbolTableRecord
100
AcDbLinetypeTableRecord
  2
DASHED
 70
     0
  3
Dashed __ __ __ __ __ __ __ __ __ __ __ __ __ _
 72
    65
 73
     2
 40
0.75
 49
0.5
 74
     0
 49
-0.25
 74
     0
  0
ENDTAB
  0
TABLE
  2
LAYER
  5
331
100
AcDbSymbolTable
 70
     3
  0
LAYER
  5
33F
100
AcDbSymbolTableRecord
100
AcDbLayerTableRecord
  2
0
 70
     0
 62
     7
  6
CONTINUOUS
  0
LAYER
  5
354
100
AcDbSymbolTableRecord
100
AcDbLayerTableRecord
  2
DIMENSION
 70
     0
 62
    -4
  6
CONTINUOUS
  0
LAYER
  5
355
100
AcDbSymbolTableRecord
100
AcDbLayerTableRecord
  2
CENTER
 70
     0
 62
     1
  6
CENTER
  0
ENDTAB
  0
TABLE
  2
STYLE
  5
332
100
AcDbSymbolTable
 70
     1
  0
STYLE
  5
340
100
AcDbSymbolTableRecord
100
AcDbTextStyleTableRecord
  2
STANDARD
 70
     0
 40
0.0
 41
1.0
 50
0.0
 71
     0
 42
4.0
  3
txt
  4

  0
ENDTAB
  0
TABLE
  2
VIEW
  5
335
100
AcDbSymbolTable
 70
     0
  0
ENDTAB
  0
TABLE
  2
UCS
  5
336
100
AcDbSymbolTable
 70
     0
  0
ENDTAB
  0
TABLE
  2
APPID
  5
338
100
AcDbSymbolTable
 70
     1
  0
APPID
  5
341
100
AcDbSymbolTableRecord
100
AcDbRegAppTableRecord
  2
ACAD
 70
     0
  0
ENDTAB
  0
TABLE
  2
DIMSTYLE
  5
339
100
AcDbSymbolTable
 70
     1
  0
DIMSTYLE
105
356
102
{ACAD_XDICTIONARY
360
4F9
102
}
100
AcDbSymbolTableRecord
100
AcDbDimStyleTableRecord
  2
AA1
 70
     0
  3

  4

  5

  6

  7

 40
2.0
 41
3.0
 42
1.0
 43
10.0
 44
1.0
 45
0.0
 46
0.0
 47
0.0
 48
0.0
140
3.2
141
0.0
142
0.0
143
0.04
144
1.0
145
1.0
146
0.6
147
0.0
 71
     0
 72
     0
 73
     0
 74
     0
 75
     0
 76
     0
 77
     0
 78
     8
170
     0
171
     2
172
     1
173
     0
174
     0
175
     0
176
     0
177
     0
178
     0
270
     2
271
     2
272
     2
273
     2
274
     2
340
340
275
     0
280
     0
281
     0
282
     0
283
     1
284
     8
285
     8
286
     8
287
     5
288
     0
  0
ENDTAB
  0
TABLE
  2
BLOCK_RECORD
  5
330
100
AcDbSymbolTable
 70
     3
  0
BLOCK_RECORD
  5
34D
102
{ACAD_XDICTIONARY
360
4C8
102
}
100
AcDbSymbolTableRecord
100
AcDbBlockTableRecord
  2
*MODEL_SPACE
  0
BLOCK_RECORD
  5
349
102
{ACAD_XDICTIONARY
360
4CA
102
}
100
AcDbSymbolTableRecord
100
AcDbBlockTableRecord
  2
*PAPER_SPACE
  0
BLOCK_RECORD
  5
358
100
AcDbSymbolTableRecord
100
AcDbBlockTableRecord
  2
$MODEL_SPACE
  0
BLOCK_RECORD
  5
35B
100
AcDbSymbolTableRecord
100
AcDbBlockTableRecord
  2
$PAPER_SPACE
  0
BLOCK_RECORD
  5
35E
100
AcDbSymbolTableRecord
100
AcDbBlockTableRecord
  2
ARROW
  0
ENDTAB
  0
ENDSEC
  0
SECTION
  2
BLOCKS
  0
BLOCK
  5
34E
100
AcDbEntity
  8
0
100
AcDbBlockBegin
  2
*MODEL_SPACE
 70
     0
 10
0.0
 20
0.0
 30
0.0
  3
*MODEL_SPACE
  1

  0
ENDBLK
  5
34F
100
AcDbEntity
  8
0
100
AcDbBlockEnd
  0
BLOCK
  5
34A
100
AcDbEntity
 67
     1
  8
0
100
AcDbBlockBegin
  2
*PAPER_SPACE
 70
     0
 10
0.0
 20
0.0
 30
0.0
  3
*PAPER_SPACE
  1

  0
ENDBLK
  5
34B
100
AcDbEntity
 67
     1
  8
0
100
AcDbBlockEnd
  0
BLOCK
  5
359
100
AcDbEntity
  8
0
100
AcDbBlockBegin
  2
$MODEL_SPACE
 70
     0
 10
0.0
 20
0.0
 30
0.0
  3
$MODEL_SPACE
  1

  0
ENDBLK
  5
35A
100
AcDbEntity
  8
0
100
AcDbBlockEnd
  0
BLOCK
  5
35C
100
AcDbEntity
  8
0
100
AcDbBlockBegin
  2
$PAPER_SPACE
 70
     0
 10
0.0
 20
0.0
 30
0.0
  3
$PAPER_SPACE
  1

  0
ENDBLK
  5
35D
100
AcDbEntity
  8
0
100
AcDbBlockEnd
  0
BLOCK
  5
35F
100
AcDbEntity
  8
0
100
AcDbBlockBegin
  2
ARROW
 70
     0
 10
0.0
 20
0.0
 30
0.0
  3
ARROW
  1

  0
LINE
  5
360
100
AcDbEntity
  8
DIMENSION
100
AcDbLine
 10
0.0
 20
0.0
 30
0.0
 11
-1.0
 21
0.176327
 31
0.0
  0
LINE
  5
361
100
AcDbEntity
  8
DIMENSION
100
AcDbLine
 10
0.0
 20
0.0
 30
0.0
 11
-1.0
 21
-0.176327
 31
0.0
  0
LINE
  5
362
100
AcDbEntity
  8
DIMENSION
100
AcDbLine
 10
-1.0
 20
0.0
 30
0.0
 11
0.0
 21
0.0
 31
0.0
  0
ENDBLK
  5
363
100
AcDbEntity
  8
0
100
AcDbBlockEnd
  0
ENDSEC
  0
SECTION
  2
ENTITIES
  0
LINE
  5
364
100
AcDbEntity
  8
0
100
AcDbLine
 10
193.600568
 20
187.803663
 30
0.0
 11
193.600568
 21
246.603663
 31
0.0
  0
LINE
  5
365
100
AcDbEntity
  8
0
100
AcDbLine
 10
177.600568
 20
249.703663
 30
0.0
 11
177.600568
 21
184.703663
 31
0.0
  0
LINE
  5
366
100
AcDbEntity
  8
0
100
AcDbLine
 10
175.400568
 20
249.703663
 30
0.0
 11
175.400568
 21
184.703663
 31
0.0
  0
LINE
  5
367
100
AcDbEntity
  8
0
100
AcDbLine
 10
241.400568
 20
249.703663
 30
0.0
 11
241.400568
 21
184.703663
 31
0.0
  0
LINE
  5
368
100
AcDbEntity
  8
0
100
AcDbLine
 10
239.200568
 20
249.703663
 30
0.0
 11
239.200568
 21
184.703663
 31
0.0
  0
LINE
  5
369
100
AcDbEntity
  8
0
100
AcDbLine
 10
223.200568
 20
187.803663
 30
0.0
 11
223.200568
 21
246.603663
 31
0.0
  0
LINE
  5
36A
100
AcDbEntity
  8
0
100
AcDbLine
 10
243.400568
 20
182.203663
 30
0.0
 11
243.400568
 21
252.203663
 31
0.0
  0
LINE
  5
36B
100
AcDbEntity
  8
0
100
AcDbLine
 10
173.400568
 20
182.203663
 30
0.0
 11
173.400568
 21
252.203663
 31
0.0
  0
LINE
  5
36E
100
AcDbEntity
  8
CENTER
  6
CENTER
 62
     1
100
AcDbLine
 10
208.400568
 20
178.703663
 30
0.0
 11
191.400568
 21
178.703663
 31
0.0
  0
LINE
  5
36F
100
AcDbEntity
  8
0
  6
DASHED
 62
     3
100
AcDbLine
 10
206.400568
 20
185.703663
 30
0.0
 11
198.300568
 21
185.703663
 31
0.0
  0
LINE
  5
370
100
AcDbEntity
  8
0
  6
DASHED
 62
     3
100
AcDbLine
 10
206.400568
 20
171.703663
 30
0.0
 11
198.300568
 21
171.703663
 31
0.0
  0
LINE
  5
371
100
AcDbEntity
  8
0
100
AcDbLine
 10
206.400568
 20
165.203663
 30
0.0
 11
193.400568
 21
165.203663
 31
0.0
  0
LINE
  5
372
100
AcDbEntity
  8
0
100
AcDbLine
 10
223.200568
 20
189.703663
 30
0.0
 11
193.600568
 21
189.703663
 31
0.0
  0
LINE
  5
373
100
AcDbEntity
  8
0
100
AcDbLine
 10
193.400568
 20
165.203663
 30
0.0
 11
193.400568
 21
182.203663
 31
0.0
  0
LINE
  5
374
100
AcDbEntity
  8
0
  6
DASHED
 62
     3
100
AcDbLine
 10
198.300568
 20
171.703663
 30
0.0
 11
198.300568
 21
185.703663
 31
0.0
  0
LINE
  5
375
100
AcDbEntity
  8
0
  6
DASHED
 62
     3
100
AcDbLine
 10
198.300568
 20
174.203663
 30
0.0
 11
193.400568
 21
174.203663
 31
0.0
  0
LINE
  5
376
100
AcDbEntity
  8
0
100
AcDbLine
 10
179.941614
 20
196.803673
 30
0.0
 11
181.784962
 21
196.803673
 31
0.0
  0
LINE
  5
377
100
AcDbEntity
  8
0
100
AcDbLine
 10
179.759833
 20
191.103673
 30
0.0
 11
181.784947
 21
191.103673
 31
0.0
  0
CIRCLE
  5
378
100
AcDbEntity
  8
0
100
AcDbCircle
 10
185.600568
 20
193.953663
 30
0.0
 40
4.7625
  0
LINE
  5
379
100
AcDbEntity
  8
0
100
AcDbLine
 10
192.000568
 20
186.203663
 30
0.0
 11
177.600568
 21
186.203663
 31
0.0
  0
LINE
  5
37A
100
AcDbEntity
  8
0
100
AcDbLine
 10
192.000568
 20
202.203663
 30
0.0
 11
179.200568
 21
202.203663
 31
0.0
  0
LINE
  5
37B
100
AcDbEntity
  8
0
100
AcDbLine
 10
193.400568
 20
182.203663
 30
0.0
 11
173.400568
 21
182.203663
 31
0.0
  0
LINE
  5
37C
100
AcDbEntity
  8
0
100
AcDbLine
 10
178.430568
 20
192.523573
 30
0.0
 11
178.430568
 21
197.003663
 31
0.0
  0
LINE
  5
37D
100
AcDbEntity
  8
0
100
AcDbLine
 10
178.130568
 20
192.399713
 30
0.0
 11
178.130568
 21
197.003673
 31
0.0
  0
LINE
  5
37E
100
AcDbEntity
  8
0
100
AcDbLine
 10
175.400568
 20
184.703663
 30
0.0
 11
177.600568
 21
184.703663
 31
0.0
  0
LINE
  5
37F
100
AcDbEntity
  8
0
100
AcDbLine
 10
175.400568
 20
186.203663
 30
0.0
 11
173.400568
 21
186.203663
 31
0.0
  0
LINE
  5
380
100
AcDbEntity
  8
0
100
AcDbLine
 10
175.400568
 20
190.203663
 30
0.0
 11
177.600568
 21
190.203663
 31
0.0
  0
ARC
  5
381
100
AcDbEntity
  8
0
100
AcDbCircle
 10
177.800568
 20
189.803663
 30
0.0
 40
0.2
100
AcDbArc
 50
90.0
 51
180.0
  0
LINE
  5
382
100
AcDbEntity
  8
0
100
AcDbLine
 10
179.230567
 20
191.299694
 30
0.0
 11
178.130568
 21
192.399713
 31
0.0
  0
LINE
  5
383
100
AcDbEntity
  8
0
100
AcDbLine
 10
178.839606
 20
190.38971
 30
0.0
 11
178.610588
 21
190.196709
 31
0.0
  0
LINE
  5
384
100
AcDbEntity
  8
0
100
AcDbLine
 10
178.610588
 20
190.196709
 30
0.0
 11
178.892459
 21
189.860869
 31
0.0
  0
LINE
  5
385
100
AcDbEntity
  8
0
100
AcDbLine
 10
178.646607
 20
190.619708
 30
0.0
 11
178.839606
 21
190.38971
 31
0.0
  0
LINE
  5
386
100
AcDbEntity
  8
0
100
AcDbLine
 10
179.174877
 20
189.957098
 30
0.0
 11
179.230567
 21
191.299694
 31
0.0
  0
ARC
  5
387
100
AcDbEntity
  8
0
100
AcDbCircle
 10
179.015014
 20
189.963729
 30
0.0
 40
0.16
100
AcDbArc
 50
220.006774
 51
357.624736
  0
ARC
  5
388
100
AcDbEntity
  8
0
100
AcDbCircle
 10
178.609854
 20
190.19723
 30
0.0
 40
0.3
100
AcDbArc
 50
130.002497
 51
220.092742
  0
LINE
  5
389
100
AcDbEntity
  8
0
100
AcDbLine
 10
178.380353
 20
190.004022
 30
0.0
 11
178.663422
 21
189.66778
 31
0.0
  0
LINE
  5
38A
100
AcDbEntity
  8
0
100
AcDbLine
 10
178.646607
 20
190.619708
 30
0.0
 11
178.417008
 21
190.427035
 31
0.0
  0
LINE
  5
38B
100
AcDbEntity
  8
0
100
AcDbLine
 10
179.473582
 20
189.924041
 30
0.0
 11
179.56059
 21
190.92106
 31
0.0
  0
LINE
  5
38C
100
AcDbEntity
  8
0
100
AcDbLine
 10
179.530568
 20
190.576663
 30
0.0
 11
179.530568
 21
191.423573
 31
0.0
  0
ARC
  5
38D
100
AcDbEntity
  8
0
100
AcDbCircle
 10
179.759833
 20
190.903673
 30
0.0
 40
0.2
100
AcDbArc
 50
90.0
 51
175.012529
  0
LINE
  5
38E
100
AcDbEntity
  8
0
100
AcDbLine
 10
179.530568
 20
191.423573
 30
0.0
 11
178.430568
 21
192.523573
 31
0.0
  0
ARC
  5
38F
100
AcDbEntity
  8
0
100
AcDbCircle
 10
179.015323
 20
189.964033
 30
0.0
 40
0.46
100
AcDbArc
 50
220.092742
 51
355.012529
  0
ARC
  5
390
100
AcDbEntity
  8
0
100
AcDbCircle
 10
179.200568
 20
187.803663
 30
0.0
 40
1.6
100
AcDbArc
 50
180.0
 51
270.0
  0
LINE
  5
391
100
AcDbEntity
  8
0
100
AcDbLine
 10
177.800568
 20
190.003663
 30
0.0
 11
178.380655
 21
190.003663
 31
0.0
  0
ARC
  5
392
100
AcDbEntity
  8
0
100
AcDbCircle
 10
179.200568
 20
200.603663
 30
0.0
 40
1.6
100
AcDbArc
 50
90.0
 51
180.0
  0
ARC
  5
393
100
AcDbEntity
  8
0
100
AcDbCircle
 10
177.800568
 20
197.803673
 30
0.0
 40
0.2
100
AcDbArc
 50
180.0
 51
270.0
  0
LINE
  5
394
100
AcDbEntity
  8
0
100
AcDbLine
 10
178.300528
 20
197.603673
 30
0.0
 11
178.674578
 21
197.977723
 31
0.0
  0
ARC
  5
395
100
AcDbEntity
  8
0
100
AcDbCircle
 10
179.098568
 20
197.553673
 30
0.0
 40
0.599655
100
AcDbArc
 50
87.195047
 51
135.0
  0
LINE
  5
396
100
AcDbEntity
  8
0
100
AcDbLine
 10
179.050568
 20
197.003663
 30
0.0
 11
178.430568
 21
197.003663
 31
0.0
  0
LINE
  5
397
100
AcDbEntity
  8
0
100
AcDbLine
 10
178.430568
 20
197.303673
 30
0.0
 11
179.050568
 21
197.303673
 31
0.0
  0
LINE
  5
398
100
AcDbEntity
  8
0
100
AcDbLine
 10
179.050568
 20
197.303673
 30
0.0
 11
179.050568
 21
197.003663
 31
0.0
  0
ARC
  5
399
100
AcDbEntity
  8
0
100
AcDbCircle
 10
178.430568
 20
197.003673
 30
0.0
 40
0.3
100
AcDbArc
 50
90.0
 51
180.0
  0
ARC
  5
39A
100
AcDbEntity
  8
0
100
AcDbCircle
 10
179.941614
 20
197.003673
 30
0.0
 40
0.2
100
AcDbArc
 50
199.969588
 51
270.0
  0
LINE
  5
39B
100
AcDbEntity
  8
0
100
AcDbLine
 10
179.382558
 20
197.956593
 30
0.0
 11
179.75364
 21
196.935368
 31
0.0
  0
ARC
  5
39C
100
AcDbEntity
  8
0
100
AcDbCircle
 10
179.100568
 20
197.853673
 30
0.0
 40
0.300184
100
AcDbArc
 50
19.969588
 51
94.462571
  0
LINE
  5
39D
100
AcDbEntity
  8
0
100
AcDbLine
 10
177.800568
 20
197.603673
 30
0.0
 11
178.300528
 21
197.603673
 31
0.0
  0
LINE
  5
39E
100
AcDbEntity
  8
0
100
AcDbLine
 10
193.070568
 20
192.399713
 30
0.0
 11
193.070568
 21
197.003673
 31
0.0
  0
LINE
  5
39F
100
AcDbEntity
  8
0
100
AcDbLine
 10
192.770568
 20
192.523573
 30
0.0
 11
192.770568
 21
197.003663
 31
0.0
  0
ARC
  5
3A0
100
AcDbEntity
  8
0
100
AcDbCircle
 10
192.000568
 20
187.803663
 30
0.0
 40
1.6
100
AcDbArc
 50
270.0
 51
0.0
  0
LINE
  5
3A1
100
AcDbEntity
  8
0
100
AcDbLine
 10
191.970569
 20
191.299694
 30
0.0
 11
193.070568
 21
192.399713
 31
0.0
  0
LINE
  5
3A2
100
AcDbEntity
  8
0
100
AcDbLine
 10
191.670568
 20
191.423573
 30
0.0
 11
192.770568
 21
192.523573
 31
0.0
  0
LINE
  5
3A3
100
AcDbEntity
  8
0
100
AcDbLine
 10
192.36153
 20
190.38971
 30
0.0
 11
192.590548
 21
190.196709
 31
0.0
  0
LINE
  5
3A4
100
AcDbEntity
  8
0
100
AcDbLine
 10
192.590548
 20
190.196709
 30
0.0
 11
192.308677
 21
189.860869
 31
0.0
  0
LINE
  5
3A5
100
AcDbEntity
  8
0
100
AcDbLine
 10
192.820783
 20
190.004022
 30
0.0
 11
192.537714
 21
189.66778
 31
0.0
  0
LINE
  5
3A6
100
AcDbEntity
  8
0
100
AcDbLine
 10
192.554529
 20
190.619708
 30
0.0
 11
192.784129
 21
190.427035
 31
0.0
  0
LINE
  5
3A7
100
AcDbEntity
  8
0
100
AcDbLine
 10
191.727555
 20
189.924041
 30
0.0
 11
191.640546
 21
190.92106
 31
0.0
  0
LINE
  5
3A8
100
AcDbEntity
  8
0
100
AcDbLine
 10
191.670568
 20
190.576663
 30
0.0
 11
191.670568
 21
191.423573
 31
0.0
  0
ARC
  5
3A9
100
AcDbEntity
  8
0
100
AcDbCircle
 10
191.441304
 20
190.903673
 30
0.0
 40
0.2
100
AcDbArc
 50
4.987471
 51
90.0
  0
LINE
  5
3AA
100
AcDbEntity
  8
0
100
AcDbLine
 10
192.02626
 20
189.957098
 30
0.0
 11
191.970569
 21
191.299694
 31
0.0
  0
ARC
  5
3AB
100
AcDbEntity
  8
0
100
AcDbCircle
 10
192.186122
 20
189.963729
 30
0.0
 40
0.16
100
AcDbArc
 50
182.375264
 51
319.993226
  0
LINE
  5
3AC
100
AcDbEntity
  8
0
100
AcDbLine
 10
192.554529
 20
190.619708
 30
0.0
 11
192.36153
 21
190.38971
 31
0.0
  0
ARC
  5
3AD
100
AcDbEntity
  8
0
100
AcDbCircle
 10
192.185813
 20
189.964033
 30
0.0
 40
0.46
100
AcDbArc
 50
184.987471
 51
319.907258
  0
LINE
  5
3AE
100
AcDbEntity
  8
0
100
AcDbLine
 10
191.441304
 20
191.103673
 30
0.0
 11
189.416189
 21
191.103673
 31
0.0
  0
LINE
  5
3AF
100
AcDbEntity
  8
0
  6
DASHED
 62
     3
100
AcDbLine
 10
198.300568
 20
183.203663
 30
0.0
 11
193.400568
 21
183.203663
 31
0.0
  0
ARC
  5
3B0
100
AcDbEntity
  8
0
100
AcDbCircle
 10
193.400568
 20
189.803663
 30
0.0
 40
0.2
100
AcDbArc
 50
0.0
 51
90.0
  0
LINE
  5
3B1
100
AcDbEntity
  8
0
100
AcDbLine
 10
193.400568
 20
190.003663
 30
0.0
 11
192.820481
 21
190.003663
 31
0.0
  0
ARC
  5
3B2
100
AcDbEntity
  8
0
100
AcDbCircle
 10
192.591282
 20
190.19723
 30
0.0
 40
0.3
100
AcDbArc
 50
319.907258
 51
49.997503
  0
LINE
  5
3B3
100
AcDbEntity
  8
0
100
AcDbLine
 10
192.900608
 20
197.603673
 30
0.0
 11
192.526558
 21
197.977723
 31
0.0
  0
LINE
  5
3B4
100
AcDbEntity
  8
0
100
AcDbLine
 10
192.770568
 20
197.303673
 30
0.0
 11
192.150568
 21
197.303673
 31
0.0
  0
LINE
  5
3B5
100
AcDbEntity
  8
0
100
AcDbLine
 10
192.150568
 20
197.003663
 30
0.0
 11
192.770568
 21
197.003663
 31
0.0
  0
ARC
  5
3B6
100
AcDbEntity
  8
0
100
AcDbCircle
 10
192.000568
 20
200.603663
 30
0.0
 40
1.6
100
AcDbArc
 50
0.0
 51
90.0
  0
LINE
  5
3B7
100
AcDbEntity
  8
0
100
AcDbLine
 10
191.818578
 20
197.956593
 30
0.0
 11
191.447497
 21
196.935368
 31
0.0
  0
ARC
  5
3B8
100
AcDbEntity
  8
0
100
AcDbCircle
 10
192.102568
 20
197.553673
 30
0.0
 40
0.599655
100
AcDbArc
 50
45.0
 51
92.804953
  0
ARC
  5
3B9
100
AcDbEntity
  8
0
100
AcDbCircle
 10
192.100568
 20
197.853673
 30
0.0
 40
0.300184
100
AcDbArc
 50
85.537429
 51
160.030412
  0
ARC
  5
3BA
100
AcDbEntity
  8
0
100
AcDbCircle
 10
191.259522
 20
197.003673
 30
0.0
 40
0.2
100
AcDbArc
 50
270.0
 51
340.030412
  0
LINE
  5
3BB
100
AcDbEntity
  8
0
100
AcDbLine
 10
192.150568
 20
197.303673
 30
0.0
 11
192.150568
 21
197.003663
 31
0.0
  0
LINE
  5
3BC
100
AcDbEntity
  8
0
100
AcDbLine
 10
191.259522
 20
196.803673
 30
0.0
 11
189.416174
 21
196.803673
 31
0.0
  0
ARC
  5
3BD
100
AcDbEntity
  8
0
100
AcDbCircle
 10
193.400568
 20
197.803673
 30
0.0
 40
0.2
100
AcDbArc
 50
270.0
 51
0.0
  0
LINE
  5
3BE
100
AcDbEntity
  8
0
100
AcDbLine
 10
193.400568
 20
197.603673
 30
0.0
 11
192.900608
 21
197.603673
 31
0.0
  0
ARC
  5
3BF
100
AcDbEntity
  8
0
100
AcDbCircle
 10
192.770568
 20
197.003673
 30
0.0
 40
0.3
100
AcDbArc
 50
0.0
 51
90.0
  0
LINE
  5
3C0
100
AcDbEntity
  8
0
100
AcDbLine
 10
206.400568
 20
165.203663
 30
0.0
 11
206.400568
 21
182.203663
 31
0.0
  0
LINE
  5
3C1
100
AcDbEntity
  8
0
100
AcDbLine
 10
243.400568
 20
182.203663
 30
0.0
 11
206.400568
 21
182.203663
 31
0.0
  0
LINE
  5
3C2
100
AcDbEntity
  8
0
100
AcDbLine
 10
224.800568
 20
186.203663
 30
0.0
 11
239.200568
 21
186.203663
 31
0.0
  0
LINE
  5
3C3
100
AcDbEntity
  8
0
100
AcDbLine
 10
224.800568
 20
202.203663
 30
0.0
 11
237.600568
 21
202.203663
 31
0.0
  0
CIRCLE
  5
3C4
100
AcDbEntity
  8
0
100
AcDbCircle
 10
231.200568
 20
193.953663
 30
0.0
 40
4.7625
  0
LINE
  5
3C5
100
AcDbEntity
  8
0
100
AcDbLine
 10
224.030568
 20
192.523573
 30
0.0
 11
224.030568
 21
197.003663
 31
0.0
  0
LINE
  5
3C6
100
AcDbEntity
  8
0
100
AcDbLine
 10
223.730568
 20
192.399713
 30
0.0
 11
223.730568
 21
197.003673
 31
0.0
  0
ARC
  5
3C7
100
AcDbEntity
  8
0
100
AcDbCircle
 10
224.615323
 20
189.964033
 30
0.0
 40
0.46
100
AcDbArc
 50
220.092742
 51
355.012529
  0
LINE
  5
3C8
100
AcDbEntity
  8
0
100
AcDbLine
 10
224.246607
 20
190.619708
 30
0.0
 11
224.017008
 21
190.427035
 31
0.0
  0
LINE
  5
3C9
100
AcDbEntity
  8
0
100
AcDbLine
 10
223.980353
 20
190.004022
 30
0.0
 11
224.263422
 21
189.66778
 31
0.0
  0
ARC
  5
3CA
100
AcDbEntity
  8
0
100
AcDbCircle
 10
224.209854
 20
190.19723
 30
0.0
 40
0.3
100
AcDbArc
 50
130.002497
 51
220.092742
  0
ARC
  5
3CB
100
AcDbEntity
  8
0
100
AcDbCircle
 10
223.400568
 20
189.803663
 30
0.0
 40
0.2
100
AcDbArc
 50
90.0
 51
180.0
  0
LINE
  5
3CC
100
AcDbEntity
  8
0
100
AcDbLine
 10
223.400568
 20
190.003663
 30
0.0
 11
223.980655
 21
190.003663
 31
0.0
  0
LINE
  5
3CD
100
AcDbEntity
  8
0
100
AcDbLine
 10
224.210588
 20
190.196709
 30
0.0
 11
224.492459
 21
189.860869
 31
0.0
  0
LINE
  5
3CE
100
AcDbEntity
  8
0
100
AcDbLine
 10
224.246607
 20
190.619708
 30
0.0
 11
224.439606
 21
190.38971
 31
0.0
  0
LINE
  5
3CF
100
AcDbEntity
  8
0
100
AcDbLine
 10
224.439606
 20
190.38971
 30
0.0
 11
224.210588
 21
190.196709
 31
0.0
  0
ARC
  5
3D0
100
AcDbEntity
  8
0
100
AcDbCircle
 10
224.615014
 20
189.963729
 30
0.0
 40
0.16
100
AcDbArc
 50
220.006774
 51
357.624736
  0
LINE
  5
3D1
100
AcDbEntity
  8
0
100
AcDbLine
 10
224.774877
 20
189.957098
 30
0.0
 11
224.830567
 21
191.299694
 31
0.0
  0
ARC
  5
3D2
100
AcDbEntity
  8
0
100
AcDbCircle
 10
225.359833
 20
190.903673
 30
0.0
 40
0.2
100
AcDbArc
 50
90.0
 51
175.012529
  0
LINE
  5
3D3
100
AcDbEntity
  8
0
100
AcDbLine
 10
225.130568
 20
190.576663
 30
0.0
 11
225.130568
 21
191.423573
 31
0.0
  0
LINE
  5
3D4
100
AcDbEntity
  8
0
100
AcDbLine
 10
225.073582
 20
189.924041
 30
0.0
 11
225.16059
 21
190.92106
 31
0.0
  0
LINE
  5
3D5
100
AcDbEntity
  8
0
100
AcDbLine
 10
225.359833
 20
191.103673
 30
0.0
 11
227.384947
 21
191.103673
 31
0.0
  0
LINE
  5
3D6
100
AcDbEntity
  8
0
100
AcDbLine
 10
225.130568
 20
191.423573
 30
0.0
 11
224.030568
 21
192.523573
 31
0.0
  0
LINE
  5
3D7
100
AcDbEntity
  8
0
100
AcDbLine
 10
224.830567
 20
191.299694
 30
0.0
 11
223.730568
 21
192.399713
 31
0.0
  0
ARC
  5
3D8
100
AcDbEntity
  8
0
100
AcDbCircle
 10
224.800568
 20
187.803663
 30
0.0
 40
1.6
100
AcDbArc
 50
180.0
 51
270.0
  0
ARC
  5
3D9
100
AcDbEntity
  8
0
100
AcDbCircle
 10
224.800568
 20
200.603663
 30
0.0
 40
1.6
100
AcDbArc
 50
90.0
 51
180.0
  0
LINE
  5
3DA
100
AcDbEntity
  8
0
100
AcDbLine
 10
224.650568
 20
197.003663
 30
0.0
 11
224.030568
 21
197.003663
 31
0.0
  0
LINE
  5
3DB
100
AcDbEntity
  8
0
100
AcDbLine
 10
224.030568
 20
197.303673
 30
0.0
 11
224.650568
 21
197.303673
 31
0.0
  0
ARC
  5
3DC
100
AcDbEntity
  8
0
100
AcDbCircle
 10
224.030568
 20
197.003673
 30
0.0
 40
0.3
100
AcDbArc
 50
90.0
 51
180.0
  0
ARC
  5
3DD
100
AcDbEntity
  8
0
100
AcDbCircle
 10
223.400568
 20
197.803673
 30
0.0
 40
0.2
100
AcDbArc
 50
180.0
 51
270.0
  0
LINE
  5
3DE
100
AcDbEntity
  8
0
100
AcDbLine
 10
223.400568
 20
197.603673
 30
0.0
 11
223.900528
 21
197.603673
 31
0.0
  0
LINE
  5
3DF
100
AcDbEntity
  8
0
100
AcDbLine
 10
224.650568
 20
197.303673
 30
0.0
 11
224.650568
 21
197.003663
 31
0.0
  0
ARC
  5
3E0
100
AcDbEntity
  8
0
100
AcDbCircle
 10
225.541614
 20
197.003673
 30
0.0
 40
0.2
100
AcDbArc
 50
199.969588
 51
270.0
  0
LINE
  5
3E1
100
AcDbEntity
  8
0
100
AcDbLine
 10
225.541614
 20
196.803673
 30
0.0
 11
227.384962
 21
196.803673
 31
0.0
  0
ARC
  5
3E2
100
AcDbEntity
  8
0
100
AcDbCircle
 10
224.700568
 20
197.853673
 30
0.0
 40
0.300184
100
AcDbArc
 50
19.969588
 51
94.462571
  0
ARC
  5
3E3
100
AcDbEntity
  8
0
100
AcDbCircle
 10
224.698568
 20
197.553673
 30
0.0
 40
0.599655
100
AcDbArc
 50
87.195047
 51
135.0
  0
LINE
  5
3E4
100
AcDbEntity
  8
0
100
AcDbLine
 10
223.900528
 20
197.603673
 30
0.0
 11
224.274578
 21
197.977723
 31
0.0
  0
LINE
  5
3E5
100
AcDbEntity
  8
0
100
AcDbLine
 10
224.982558
 20
197.956593
 30
0.0
 11
225.35364
 21
196.935368
 31
0.0
  0
LINE
  5
3E6
100
AcDbEntity
  8
0
100
AcDbLine
 10
238.670568
 20
192.399713
 30
0.0
 11
238.670568
 21
197.003673
 31
0.0
  0
LINE
  5
3E7
100
AcDbEntity
  8
0
100
AcDbLine
 10
238.370568
 20
192.523573
 30
0.0
 11
238.370568
 21
197.003663
 31
0.0
  0
LINE
  5
3E8
100
AcDbEntity
  8
0
100
AcDbLine
 10
239.000568
 20
190.003663
 30
0.0
 11
238.420481
 21
190.003663
 31
0.0
  0
ARC
  5
3E9
100
AcDbEntity
  8
0
100
AcDbCircle
 10
237.600568
 20
187.803663
 30
0.0
 40
1.6
100
AcDbArc
 50
270.0
 51
360.0
  0
LINE
  5
3EA
100
AcDbEntity
  8
0
100
AcDbLine
 10
238.154529
 20
190.619708
 30
0.0
 11
238.384129
 21
190.427035
 31
0.0
  0
LINE
  5
3EB
100
AcDbEntity
  8
0
100
AcDbLine
 10
238.420783
 20
190.004022
 30
0.0
 11
238.137714
 21
189.66778
 31
0.0
  0
ARC
  5
3EC
100
AcDbEntity
  8
0
100
AcDbCircle
 10
238.191282
 20
190.19723
 30
0.0
 40
0.3
100
AcDbArc
 50
319.907258
 51
49.997503
  0
ARC
  5
3ED
100
AcDbEntity
  8
0
100
AcDbCircle
 10
237.786122
 20
189.963729
 30
0.0
 40
0.16
100
AcDbArc
 50
182.375264
 51
319.993226
  0
ARC
  5
3EE
100
AcDbEntity
  8
0
100
AcDbCircle
 10
237.041304
 20
190.903673
 30
0.0
 40
0.2
100
AcDbArc
 50
4.987471
 51
90.0
  0
LINE
  5
3EF
100
AcDbEntity
  8
0
100
AcDbLine
 10
237.270568
 20
190.576663
 30
0.0
 11
237.270568
 21
191.423573
 31
0.0
  0
LINE
  5
3F0
100
AcDbEntity
  8
0
100
AcDbLine
 10
237.327555
 20
189.924041
 30
0.0
 11
237.240546
 21
190.92106
 31
0.0
  0
LINE
  5
3F1
100
AcDbEntity
  8
0
100
AcDbLine
 10
237.62626
 20
189.957098
 30
0.0
 11
237.570569
 21
191.299694
 31
0.0
  0
ARC
  5
3F2
100
AcDbEntity
  8
0
100
AcDbCircle
 10
237.785813
 20
189.964033
 30
0.0
 40
0.46
100
AcDbArc
 50
184.987471
 51
319.907258
  0
LINE
  5
3F3
100
AcDbEntity
  8
0
100
AcDbLine
 10
238.154529
 20
190.619708
 30
0.0
 11
237.96153
 21
190.38971
 31
0.0
  0
LINE
  5
3F4
100
AcDbEntity
  8
0
100
AcDbLine
 10
238.190548
 20
190.196709
 30
0.0
 11
237.908677
 21
189.860869
 31
0.0
  0
LINE
  5
3F5
100
AcDbEntity
  8
0
100
AcDbLine
 10
237.96153
 20
190.38971
 30
0.0
 11
238.190548
 21
190.196709
 31
0.0
  0
LINE
  5
3F6
100
AcDbEntity
  8
0
100
AcDbLine
 10
237.570569
 20
191.299694
 30
0.0
 11
238.670568
 21
192.399713
 31
0.0
  0
LINE
  5
3F7
100
AcDbEntity
  8
0
100
AcDbLine
 10
237.270568
 20
191.423573
 30
0.0
 11
238.370568
 21
192.523573
 31
0.0
  0
LINE
  5
3F8
100
AcDbEntity
  8
0
100
AcDbLine
 10
237.041304
 20
191.103673
 30
0.0
 11
235.016189
 21
191.103673
 31
0.0
  0
LINE
  5
3F9
100
AcDbEntity
  8
0
100
AcDbLine
 10
241.400568
 20
184.703663
 30
0.0
 11
239.200568
 21
184.703663
 31
0.0
  0
LINE
  5
3FA
100
AcDbEntity
  8
0
100
AcDbLine
 10
241.400568
 20
190.203663
 30
0.0
 11
239.200568
 21
190.203663
 31
0.0
  0
LINE
  5
3FB
100
AcDbEntity
  8
0
100
AcDbLine
 10
241.400568
 20
186.203663
 30
0.0
 11
243.400568
 21
186.203663
 31
0.0
  0
ARC
  5
3FC
100
AcDbEntity
  8
0
100
AcDbCircle
 10
239.000568
 20
189.803663
 30
0.0
 40
0.2
100
AcDbArc
 50
360.0
 51
90.0
  0
LINE
  5
3FD
100
AcDbEntity
  8
0
100
AcDbLine
 10
239.000568
 20
197.603673
 30
0.0
 11
238.500608
 21
197.603673
 31
0.0
  0
ARC
  5
3FE
100
AcDbEntity
  8
0
100
AcDbCircle
 10
237.600568
 20
200.603663
 30
0.0
 40
1.6
100
AcDbArc
 50
360.0
 51
90.0
  0
ARC
  5
3FF
100
AcDbEntity
  8
0
100
AcDbCircle
 10
238.370568
 20
197.003673
 30
0.0
 40
0.3
100
AcDbArc
 50
360.0
 51
90.0
  0
ARC
  5
400
100
AcDbEntity
  8
0
100
AcDbCircle
 10
236.859522
 20
197.003673
 30
0.0
 40
0.2
100
AcDbArc
 50
270.0
 51
340.030412
  0
LINE
  5
401
100
AcDbEntity
  8
0
100
AcDbLine
 10
237.750568
 20
197.303673
 30
0.0
 11
237.750568
 21
197.003663
 31
0.0
  0
LINE
  5
402
100
AcDbEntity
  8
0
100
AcDbLine
 10
238.370568
 20
197.303673
 30
0.0
 11
237.750568
 21
197.303673
 31
0.0
  0
LINE
  5
403
100
AcDbEntity
  8
0
100
AcDbLine
 10
237.750568
 20
197.003663
 30
0.0
 11
238.370568
 21
197.003663
 31
0.0
  0
ARC
  5
404
100
AcDbEntity
  8
0
100
AcDbCircle
 10
237.700568
 20
197.853673
 30
0.0
 40
0.300184
100
AcDbArc
 50
85.537429
 51
160.030412
  0
ARC
  5
405
100
AcDbEntity
  8
0
100
AcDbCircle
 10
237.702568
 20
197.553673
 30
0.0
 40
0.599655
100
AcDbArc
 50
45.0
 51
92.804953
  0
LINE
  5
406
100
AcDbEntity
  8
0
100
AcDbLine
 10
237.418578
 20
197.956593
 30
0.0
 11
237.047497
 21
196.935368
 31
0.0
  0
LINE
  5
407
100
AcDbEntity
  8
0
100
AcDbLine
 10
238.500608
 20
197.603673
 30
0.0
 11
238.126558
 21
197.977723
 31
0.0
  0
LINE
  5
408
100
AcDbEntity
  8
0
100
AcDbLine
 10
236.859522
 20
196.803673
 30
0.0
 11
235.016174
 21
196.803673
 31
0.0
  0
ARC
  5
409
100
AcDbEntity
  8
0
100
AcDbCircle
 10
239.000568
 20
197.803673
 30
0.0
 40
0.2
100
AcDbArc
 50
270.0
 51
360.0
  0
LINE
  5
40A
100
AcDbEntity
  8
CENTER
  6
CENTER
 62
     1
100
AcDbLine
 10
251.488691
 20
217.203663
 30
0.0
 11
165.893011
 21
217.203663
 31
0.0
  0
LINE
  5
40B
100
AcDbEntity
  8
CENTER
  6
CENTER
 62
     1
100
AcDbLine
 10
208.400568
 20
255.703663
 30
0.0
 11
191.400568
 21
255.703663
 31
0.0
  0
LINE
  5
40C
100
AcDbEntity
  8
0
100
AcDbLine
 10
223.200568
 20
244.703663
 30
0.0
 11
193.600568
 21
244.703663
 31
0.0
  0
LINE
  5
40D
100
AcDbEntity
  8
0
  6
DASHED
 62
     3
100
AcDbLine
 10
206.400568
 20
248.703663
 30
0.0
 11
198.300568
 21
248.703663
 31
0.0
  0
LINE
  5
40E
100
AcDbEntity
  8
0
  6
DASHED
 62
     3
100
AcDbLine
 10
206.400568
 20
262.703663
 30
0.0
 11
198.300568
 21
262.703663
 31
0.0
  0
LINE
  5
40F
100
AcDbEntity
  8
0
100
AcDbLine
 10
206.400568
 20
269.203663
 30
0.0
 11
193.400568
 21
269.203663
 31
0.0
  0
CIRCLE
  5
410
100
AcDbEntity
  8
0
100
AcDbCircle
 10
185.600568
 20
240.453663
 30
0.0
 40
4.7625
  0
LINE
  5
411
100
AcDbEntity
  8
0
100
AcDbLine
 10
191.970569
 20
243.107632
 30
0.0
 11
193.070568
 21
242.007613
 31
0.0
  0
LINE
  5
412
100
AcDbEntity
  8
0
100
AcDbLine
 10
191.670568
 20
242.983753
 30
0.0
 11
192.770568
 21
241.883753
 31
0.0
  0
LINE
  5
413
100
AcDbEntity
  8
0
100
AcDbLine
 10
179.530568
 20
242.983753
 30
0.0
 11
178.430568
 21
241.883753
 31
0.0
  0
LINE
  5
414
100
AcDbEntity
  8
0
100
AcDbLine
 10
179.230567
 20
243.107632
 30
0.0
 11
178.130568
 21
242.007613
 31
0.0
  0
LINE
  5
415
100
AcDbEntity
  8
0
100
AcDbLine
 10
179.941614
 20
237.603653
 30
0.0
 11
181.784962
 21
237.603653
 31
0.0
  0
LINE
  5
416
100
AcDbEntity
  8
0
100
AcDbLine
 10
192.000568
 20
232.203663
 30
0.0
 11
179.200568
 21
232.203663
 31
0.0
  0
ARC
  5
417
100
AcDbEntity
  8
0
100
AcDbCircle
 10
179.200568
 20
233.803663
 30
0.0
 40
1.6
100
AcDbArc
 50
180.0
 51
270.0
  0
ARC
  5
418
100
AcDbEntity
  8
0
100
AcDbCircle
 10
177.800568
 20
236.603653
 30
0.0
 40
0.2
100
AcDbArc
 50
90.0
 51
180.0
  0
LINE
  5
419
100
AcDbEntity
  8
0
100
AcDbLine
 10
178.430568
 20
241.883753
 30
0.0
 11
178.430568
 21
237.403663
 31
0.0
  0
LINE
  5
41A
100
AcDbEntity
  8
0
100
AcDbLine
 10
178.130568
 20
242.007613
 30
0.0
 11
178.130568
 21
237.403653
 31
0.0
  0
ARC
  5
41B
100
AcDbEntity
  8
0
100
AcDbCircle
 10
178.430568
 20
237.403653
 30
0.0
 40
0.3
100
AcDbArc
 50
180.0
 51
270.0
  0
LINE
  5
41C
100
AcDbEntity
  8
0
100
AcDbLine
 10
178.300528
 20
236.803653
 30
0.0
 11
178.674578
 21
236.429603
 31
0.0
  0
LINE
  5
41D
100
AcDbEntity
  8
0
100
AcDbLine
 10
179.050568
 20
237.103653
 30
0.0
 11
179.050568
 21
237.403663
 31
0.0
  0
ARC
  5
41E
100
AcDbEntity
  8
0
100
AcDbCircle
 10
179.098568
 20
236.853653
 30
0.0
 40
0.599655
100
AcDbArc
 50
225.0
 51
272.804953
  0
LINE
  5
41F
100
AcDbEntity
  8
0
100
AcDbLine
 10
179.050568
 20
237.403663
 30
0.0
 11
178.430568
 21
237.403663
 31
0.0
  0
LINE
  5
420
100
AcDbEntity
  8
0
100
AcDbLine
 10
178.430568
 20
237.103653
 30
0.0
 11
179.050568
 21
237.103653
 31
0.0
  0
ARC
  5
421
100
AcDbEntity
  8
0
100
AcDbCircle
 10
179.941614
 20
237.403653
 30
0.0
 40
0.2
100
AcDbArc
 50
90.0
 51
160.030412
  0
ARC
  5
422
100
AcDbEntity
  8
0
100
AcDbCircle
 10
179.100568
 20
236.553653
 30
0.0
 40
0.300184
100
AcDbArc
 50
265.537429
 51
340.030412
  0
LINE
  5
423
100
AcDbEntity
  8
0
100
AcDbLine
 10
179.382558
 20
236.450733
 30
0.0
 11
179.75364
 21
237.471957
 31
0.0
  0
LINE
  5
424
100
AcDbEntity
  8
0
100
AcDbLine
 10
177.800568
 20
236.803653
 30
0.0
 11
178.300528
 21
236.803653
 31
0.0
  0
LINE
  5
425
100
AcDbEntity
  8
0
100
AcDbLine
 10
192.900608
 20
236.803653
 30
0.0
 11
192.526558
 21
236.429603
 31
0.0
  0
LINE
  5
426
100
AcDbEntity
  8
0
100
AcDbLine
 10
192.770568
 20
237.103653
 30
0.0
 11
192.150568
 21
237.103653
 31
0.0
  0
LINE
  5
427
100
AcDbEntity
  8
0
100
AcDbLine
 10
192.150568
 20
237.403663
 30
0.0
 11
192.770568
 21
237.403663
 31
0.0
  0
ARC
  5
428
100
AcDbEntity
  8
0
100
AcDbCircle
 10
192.000568
 20
233.803663
 30
0.0
 40
1.6
100
AcDbArc
 50
270.0
 51
0.0
  0
LINE
  5
429
100
AcDbEntity
  8
0
100
AcDbLine
 10
191.818578
 20
236.450733
 30
0.0
 11
191.447497
 21
237.471957
 31
0.0
  0
LINE
  5
42A
100
AcDbEntity
  8
0
100
AcDbLine
 10
192.150568
 20
237.103653
 30
0.0
 11
192.150568
 21
237.403663
 31
0.0
  0
ARC
  5
42B
100
AcDbEntity
  8
0
100
AcDbCircle
 10
192.100568
 20
236.553653
 30
0.0
 40
0.300184
100
AcDbArc
 50
199.969588
 51
274.462571
  0
ARC
  5
42C
100
AcDbEntity
  8
0
100
AcDbCircle
 10
192.102568
 20
236.853653
 30
0.0
 40
0.599655
100
AcDbArc
 50
267.195047
 51
315.0
  0
ARC
  5
42D
100
AcDbEntity
  8
0
100
AcDbCircle
 10
191.259522
 20
237.403653
 30
0.0
 40
0.2
100
AcDbArc
 50
19.969588
 51
90.0
  0
LINE
  5
42E
100
AcDbEntity
  8
0
100
AcDbLine
 10
191.259522
 20
237.603653
 30
0.0
 11
189.416174
 21
237.603653
 31
0.0
  0
ARC
  5
42F
100
AcDbEntity
  8
0
100
AcDbCircle
 10
193.400568
 20
236.603653
 30
0.0
 40
0.2
100
AcDbArc
 50
0.0
 51
90.0
  0
LINE
  5
430
100
AcDbEntity
  8
0
100
AcDbLine
 10
193.070568
 20
242.007613
 30
0.0
 11
193.070568
 21
237.403653
 31
0.0
  0
LINE
  5
431
100
AcDbEntity
  8
0
100
AcDbLine
 10
192.770568
 20
241.883753
 30
0.0
 11
192.770568
 21
237.403663
 31
0.0
  0
ARC
  5
432
100
AcDbEntity
  8
0
100
AcDbCircle
 10
192.770568
 20
237.403653
 30
0.0
 40
0.3
100
AcDbArc
 50
270.0
 51
0.0
  0
LINE
  5
433
100
AcDbEntity
  8
0
100
AcDbLine
 10
193.400568
 20
236.803653
 30
0.0
 11
192.900608
 21
236.803653
 31
0.0
  0
LINE
  5
434
100
AcDbEntity
  8
0
100
AcDbLine
 10
179.759833
 20
243.303653
 30
0.0
 11
181.784947
 21
243.303653
 31
0.0
  0
LINE
  5
435
100
AcDbEntity
  8
0
100
AcDbLine
 10
192.000568
 20
248.203663
 30
0.0
 11
177.600568
 21
248.203663
 31
0.0
  0
LINE
  5
436
100
AcDbEntity
  8
0
100
AcDbLine
 10
193.400568
 20
252.203663
 30
0.0
 11
173.400568
 21
252.203663
 31
0.0
  0
LINE
  5
437
100
AcDbEntity
  8
0
100
AcDbLine
 10
175.400568
 20
248.203663
 30
0.0
 11
173.400568
 21
248.203663
 31
0.0
  0
LINE
  5
438
100
AcDbEntity
  8
0
100
AcDbLine
 10
175.400568
 20
244.203663
 30
0.0
 11
177.600568
 21
244.203663
 31
0.0
  0
ARC
  5
439
100
AcDbEntity
  8
0
100
AcDbCircle
 10
177.800568
 20
244.603663
 30
0.0
 40
0.2
100
AcDbArc
 50
180.0
 51
270.0
  0
LINE
  5
43A
100
AcDbEntity
  8
0
100
AcDbLine
 10
175.400568
 20
249.703663
 30
0.0
 11
177.600568
 21
249.703663
 31
0.0
  0
LINE
  5
43B
100
AcDbEntity
  8
0
100
AcDbLine
 10
179.174877
 20
244.450227
 30
0.0
 11
179.230567
 21
243.107632
 31
0.0
  0
ARC
  5
43C
100
AcDbEntity
  8
0
100
AcDbCircle
 10
178.609854
 20
244.210096
 30
0.0
 40
0.3
100
AcDbArc
 50
139.907258
 51
229.997503
  0
LINE
  5
43D
100
AcDbEntity
  8
0
100
AcDbLine
 10
178.839606
 20
244.017616
 30
0.0
 11
178.610588
 21
244.210616
 31
0.0
  0
ARC
  5
43E
100
AcDbEntity
  8
0
100
AcDbCircle
 10
179.015014
 20
244.443596
 30
0.0
 40
0.16
100
AcDbArc
 50
2.375264
 51
139.993226
  0
LINE
  5
43F
100
AcDbEntity
  8
0
100
AcDbLine
 10
178.610588
 20
244.210616
 30
0.0
 11
178.892459
 21
244.546457
 31
0.0
  0
LINE
  5
440
100
AcDbEntity
  8
0
100
AcDbLine
 10
178.646607
 20
243.787617
 30
0.0
 11
178.839606
 21
244.017616
 31
0.0
  0
LINE
  5
441
100
AcDbEntity
  8
0
100
AcDbLine
 10
178.380353
 20
244.403304
 30
0.0
 11
178.663422
 21
244.739545
 31
0.0
  0
LINE
  5
442
100
AcDbEntity
  8
0
100
AcDbLine
 10
178.646607
 20
243.787617
 30
0.0
 11
178.417008
 21
243.980291
 31
0.0
  0
LINE
  5
443
100
AcDbEntity
  8
0
100
AcDbLine
 10
179.473582
 20
244.483284
 30
0.0
 11
179.56059
 21
243.486265
 31
0.0
  0
LINE
  5
444
100
AcDbEntity
  8
0
100
AcDbLine
 10
179.530568
 20
243.830663
 30
0.0
 11
179.530568
 21
242.983753
 31
0.0
  0
ARC
  5
445
100
AcDbEntity
  8
0
100
AcDbCircle
 10
179.759833
 20
243.503653
 30
0.0
 40
0.2
100
AcDbArc
 50
184.987471
 51
270.0
  0
ARC
  5
446
100
AcDbEntity
  8
0
100
AcDbCircle
 10
179.015323
 20
244.443293
 30
0.0
 40
0.46
100
AcDbArc
 50
4.987471
 51
139.907258
  0
ARC
  5
447
100
AcDbEntity
  8
0
100
AcDbCircle
 10
179.200568
 20
246.603663
 30
0.0
 40
1.6
100
AcDbArc
 50
90.0
 51
180.0
  0
LINE
  5
448
100
AcDbEntity
  8
0
100
AcDbLine
 10
177.800568
 20
244.403663
 30
0.0
 11
178.380655
 21
244.403663
 31
0.0
  0
LINE
  5
449
100
AcDbEntity
  8
0
100
AcDbLine
 10
193.400568
 20
269.203663
 30
0.0
 11
193.400568
 21
252.203663
 31
0.0
  0
LINE
  5
44A
100
AcDbEntity
  8
0
  6
DASHED
 62
     3
100
AcDbLine
 10
198.300568
 20
262.703663
 30
0.0
 11
198.300568
 21
248.703663
 31
0.0
  0
ARC
  5
44B
100
AcDbEntity
  8
0
100
AcDbCircle
 10
192.000568
 20
246.603663
 30
0.0
 40
1.6
100
AcDbArc
 50
0.0
 51
90.0
  0
LINE
  5
44C
100
AcDbEntity
  8
0
100
AcDbLine
 10
192.820783
 20
244.403304
 30
0.0
 11
192.537714
 21
244.739545
 31
0.0
  0
LINE
  5
44D
100
AcDbEntity
  8
0
100
AcDbLine
 10
192.554529
 20
243.787617
 30
0.0
 11
192.784129
 21
243.980291
 31
0.0
  0
LINE
  5
44E
100
AcDbEntity
  8
0
100
AcDbLine
 10
192.36153
 20
244.017616
 30
0.0
 11
192.590548
 21
244.210616
 31
0.0
  0
LINE
  5
44F
100
AcDbEntity
  8
0
100
AcDbLine
 10
192.590548
 20
244.210616
 30
0.0
 11
192.308677
 21
244.546457
 31
0.0
  0
LINE
  5
450
100
AcDbEntity
  8
0
100
AcDbLine
 10
191.727555
 20
244.483284
 30
0.0
 11
191.640546
 21
243.486265
 31
0.0
  0
LINE
  5
451
100
AcDbEntity
  8
0
100
AcDbLine
 10
192.02626
 20
244.450227
 30
0.0
 11
191.970569
 21
243.107632
 31
0.0
  0
LINE
  5
452
100
AcDbEntity
  8
0
100
AcDbLine
 10
191.670568
 20
243.830663
 30
0.0
 11
191.670568
 21
242.983753
 31
0.0
  0
ARC
  5
453
100
AcDbEntity
  8
0
100
AcDbCircle
 10
191.441304
 20
243.503653
 30
0.0
 40
0.2
100
AcDbArc
 50
270.0
 51
355.012529
  0
ARC
  5
454
100
AcDbEntity
  8
0
100
AcDbCircle
 10
192.185813
 20
244.443293
 30
0.0
 40
0.46
100
AcDbArc
 50
40.092742
 51
175.012529
  0
ARC
  5
455
100
AcDbEntity
  8
0
100
AcDbCircle
 10
192.186122
 20
244.443596
 30
0.0
 40
0.16
100
AcDbArc
 50
40.006774
 51
177.624736
  0
LINE
  5
456
100
AcDbEntity
  8
0
100
AcDbLine
 10
192.554529
 20
243.787617
 30
0.0
 11
192.36153
 21
244.017616
 31
0.0
  0
LINE
  5
457
100
AcDbEntity
  8
0
100
AcDbLine
 10
191.441304
 20
243.303653
 30
0.0
 11
189.416189
 21
243.303653
 31
0.0
  0
ARC
  5
458
100
AcDbEntity
  8
0
100
AcDbCircle
 10
193.400568
 20
244.603663
 30
0.0
 40
0.2
100
AcDbArc
 50
270.0
 51
0.0
  0
ARC
  5
459
100
AcDbEntity
  8
0
100
AcDbCircle
 10
192.591282
 20
244.210096
 30
0.0
 40
0.3
100
AcDbArc
 50
310.002497
 51
40.092742
  0
LINE
  5
45A
100
AcDbEntity
  8
0
100
AcDbLine
 10
193.400568
 20
244.403663
 30
0.0
 11
192.820481
 21
244.403663
 31
0.0
  0
LINE
  5
45B
100
AcDbEntity
  8
0
  6
DASHED
 62
     3
100
AcDbLine
 10
198.300568
 20
251.203663
 30
0.0
 11
193.400568
 21
251.203663
 31
0.0
  0
LINE
  5
45C
100
AcDbEntity
  8
0
  6
DASHED
 62
     3
100
AcDbLine
 10
198.300568
 20
260.203663
 30
0.0
 11
193.400568
 21
260.203663
 31
0.0
  0
LINE
  5
45D
100
AcDbEntity
  8
0
100
AcDbLine
 10
203.150568
 20
269.203663
 30
0.0
 11
203.150568
 21
269.203763
 31
0.0
  0
LINE
  5
45E
100
AcDbEntity
  8
0
100
AcDbLine
 10
199.900568
 20
269.203663
 30
0.0
 11
199.900668
 21
269.203663
 31
0.0
  0
LINE
  5
45F
100
AcDbEntity
  8
0
100
AcDbLine
 10
237.570569
 20
243.107632
 30
0.0
 11
238.670568
 21
242.007613
 31
0.0
  0
LINE
  5
460
100
AcDbEntity
  8
0
100
AcDbLine
 10
237.270568
 20
242.983753
 30
0.0
 11
238.370568
 21
241.883753
 31
0.0
  0
LINE
  5
461
100
AcDbEntity
  8
0
100
AcDbLine
 10
225.130568
 20
242.983753
 30
0.0
 11
224.030568
 21
241.883753
 31
0.0
  0
LINE
  5
462
100
AcDbEntity
  8
0
100
AcDbLine
 10
224.830567
 20
243.107632
 30
0.0
 11
223.730568
 21
242.007613
 31
0.0
  0
CIRCLE
  5
463
100
AcDbEntity
  8
0
100
AcDbCircle
 10
231.200568
 20
240.453663
 30
0.0
 40
4.7625
  0
LINE
  5
464
100
AcDbEntity
  8
0
100
AcDbLine
 10
224.800568
 20
232.203663
 30
0.0
 11
237.600568
 21
232.203663
 31
0.0
  0
ARC
  5
465
100
AcDbEntity
  8
0
100
AcDbCircle
 10
224.800568
 20
233.803663
 30
0.0
 40
1.6
100
AcDbArc
 50
180.0
 51
270.0
  0
ARC
  5
466
100
AcDbEntity
  8
0
100
AcDbCircle
 10
225.541614
 20
237.403653
 30
0.0
 40
0.2
100
AcDbArc
 50
90.0
 51
160.030412
  0
ARC
  5
467
100
AcDbEntity
  8
0
100
AcDbCircle
 10
224.698568
 20
236.853653
 30
0.0
 40
0.599655
100
AcDbArc
 50
225.0
 51
272.804953
  0
ARC
  5
468
100
AcDbEntity
  8
0
100
AcDbCircle
 10
224.700568
 20
236.553653
 30
0.0
 40
0.300184
100
AcDbArc
 50
265.537429
 51
340.030412
  0
LINE
  5
469
100
AcDbEntity
  8
0
100
AcDbLine
 10
224.650568
 20
237.103653
 30
0.0
 11
224.650568
 21
237.403663
 31
0.0
  0
LINE
  5
46A
100
AcDbEntity
  8
0
100
AcDbLine
 10
223.400568
 20
236.803653
 30
0.0
 11
223.900528
 21
236.803653
 31
0.0
  0
ARC
  5
46B
100
AcDbEntity
  8
0
100
AcDbCircle
 10
223.400568
 20
236.603653
 30
0.0
 40
0.2
100
AcDbArc
 50
90.0
 51
180.0
  0
ARC
  5
46C
100
AcDbEntity
  8
0
100
AcDbCircle
 10
224.030568
 20
237.403653
 30
0.0
 40
0.3
100
AcDbArc
 50
180.0
 51
270.0
  0
LINE
  5
46D
100
AcDbEntity
  8
0
100
AcDbLine
 10
224.650568
 20
237.403663
 30
0.0
 11
224.030568
 21
237.403663
 31
0.0
  0
LINE
  5
46E
100
AcDbEntity
  8
0
100
AcDbLine
 10
224.030568
 20
237.103653
 30
0.0
 11
224.650568
 21
237.103653
 31
0.0
  0
LINE
  5
46F
100
AcDbEntity
  8
0
100
AcDbLine
 10
223.900528
 20
236.803653
 30
0.0
 11
224.274578
 21
236.429603
 31
0.0
  0
LINE
  5
470
100
AcDbEntity
  8
0
100
AcDbLine
 10
224.982558
 20
236.450733
 30
0.0
 11
225.35364
 21
237.471957
 31
0.0
  0
LINE
  5
471
100
AcDbEntity
  8
0
100
AcDbLine
 10
224.030568
 20
241.883753
 30
0.0
 11
224.030568
 21
237.403663
 31
0.0
  0
LINE
  5
472
100
AcDbEntity
  8
0
100
AcDbLine
 10
223.730568
 20
242.007613
 30
0.0
 11
223.730568
 21
237.403653
 31
0.0
  0
LINE
  5
473
100
AcDbEntity
  8
0
100
AcDbLine
 10
225.541614
 20
237.603653
 30
0.0
 11
227.384962
 21
237.603653
 31
0.0
  0
LINE
  5
474
100
AcDbEntity
  8
0
100
AcDbLine
 10
239.000568
 20
236.803653
 30
0.0
 11
238.500608
 21
236.803653
 31
0.0
  0
ARC
  5
475
100
AcDbEntity
  8
0
100
AcDbCircle
 10
237.600568
 20
233.803663
 30
0.0
 40
1.6
100
AcDbArc
 50
270.0
 51
0.0
  0
LINE
  5
476
100
AcDbEntity
  8
0
100
AcDbLine
 10
238.370568
 20
237.103653
 30
0.0
 11
237.750568
 21
237.103653
 31
0.0
  0
LINE
  5
477
100
AcDbEntity
  8
0
100
AcDbLine
 10
237.750568
 20
237.403663
 30
0.0
 11
238.370568
 21
237.403663
 31
0.0
  0
ARC
  5
478
100
AcDbEntity
  8
0
100
AcDbCircle
 10
237.702568
 20
236.853653
 30
0.0
 40
0.599655
100
AcDbArc
 50
267.195047
 51
315.0
  0
LINE
  5
479
100
AcDbEntity
  8
0
100
AcDbLine
 10
237.750568
 20
237.103653
 30
0.0
 11
237.750568
 21
237.403663
 31
0.0
  0
LINE
  5
47A
100
AcDbEntity
  8
0
100
AcDbLine
 10
238.500608
 20
236.803653
 30
0.0
 11
238.126558
 21
236.429603
 31
0.0
  0
ARC
  5
47B
100
AcDbEntity
  8
0
100
AcDbCircle
 10
238.370568
 20
237.403653
 30
0.0
 40
0.3
100
AcDbArc
 50
270.0
 51
0.0
  0
ARC
  5
47C
100
AcDbEntity
  8
0
100
AcDbCircle
 10
236.859522
 20
237.403653
 30
0.0
 40
0.2
100
AcDbArc
 50
19.969588
 51
90.0
  0
LINE
  5
47D
100
AcDbEntity
  8
0
100
AcDbLine
 10
237.418578
 20
236.450733
 30
0.0
 11
237.047497
 21
237.471957
 31
0.0
  0
ARC
  5
47E
100
AcDbEntity
  8
0
100
AcDbCircle
 10
237.700568
 20
236.553653
 30
0.0
 40
0.300184
100
AcDbArc
 50
199.969588
 51
274.462571
  0
LINE
  5
47F
100
AcDbEntity
  8
0
100
AcDbLine
 10
238.670568
 20
242.007613
 30
0.0
 11
238.670568
 21
237.403653
 31
0.0
  0
LINE
  5
480
100
AcDbEntity
  8
0
100
AcDbLine
 10
238.370568
 20
241.883753
 30
0.0
 11
238.370568
 21
237.403663
 31
0.0
  0
LINE
  5
481
100
AcDbEntity
  8
0
100
AcDbLine
 10
236.859522
 20
237.603653
 30
0.0
 11
235.016174
 21
237.603653
 31
0.0
  0
ARC
  5
482
100
AcDbEntity
  8
0
100
AcDbCircle
 10
239.000568
 20
236.603653
 30
0.0
 40
0.2
100
AcDbArc
 50
0.0
 51
90.0
  0
LINE
  5
483
100
AcDbEntity
  8
0
100
AcDbLine
 10
243.400568
 20
252.203663
 30
0.0
 11
206.400568
 21
252.203663
 31
0.0
  0
LINE
  5
484
100
AcDbEntity
  8
0
100
AcDbLine
 10
224.800568
 20
248.203663
 30
0.0
 11
239.200568
 21
248.203663
 31
0.0
  0
LINE
  5
485
100
AcDbEntity
  8
0
100
AcDbLine
 10
206.400568
 20
269.203663
 30
0.0
 11
206.400568
 21
252.203663
 31
0.0
  0
LINE
  5
486
100
AcDbEntity
  8
0
100
AcDbLine
 10
224.210588
 20
244.210616
 30
0.0
 11
224.492459
 21
244.546457
 31
0.0
  0
LINE
  5
487
100
AcDbEntity
  8
0
100
AcDbLine
 10
224.246607
 20
243.787617
 30
0.0
 11
224.439606
 21
244.017616
 31
0.0
  0
LINE
  5
488
100
AcDbEntity
  8
0
100
AcDbLine
 10
224.439606
 20
244.017616
 30
0.0
 11
224.210588
 21
244.210616
 31
0.0
  0
ARC
  5
489
100
AcDbEntity
  8
0
100
AcDbCircle
 10
224.615014
 20
244.443596
 30
0.0
 40
0.16
100
AcDbArc
 50
2.375264
 51
139.993226
  0
LINE
  5
48A
100
AcDbEntity
  8
0
100
AcDbLine
 10
223.400568
 20
244.403663
 30
0.0
 11
223.980655
 21
244.403663
 31
0.0
  0
ARC
  5
48B
100
AcDbEntity
  8
0
100
AcDbCircle
 10
223.400568
 20
244.603663
 30
0.0
 40
0.2
100
AcDbArc
 50
180.0
 51
270.0
  0
ARC
  5
48C
100
AcDbEntity
  8
0
100
AcDbCircle
 10
224.209854
 20
244.210096
 30
0.0
 40
0.3
100
AcDbArc
 50
139.907258
 51
229.997503
  0
LINE
  5
48D
100
AcDbEntity
  8
0
100
AcDbLine
 10
224.246607
 20
243.787617
 30
0.0
 11
224.017008
 21
243.980291
 31
0.0
  0
LINE
  5
48E
100
AcDbEntity
  8
0
100
AcDbLine
 10
223.980353
 20
244.403304
 30
0.0
 11
224.263422
 21
244.739545
 31
0.0
  0
ARC
  5
48F
100
AcDbEntity
  8
0
100
AcDbCircle
 10
224.615323
 20
244.443293
 30
0.0
 40
0.46
100
AcDbArc
 50
4.987471
 51
139.907258
  0
ARC
  5
490
100
AcDbEntity
  8
0
100
AcDbCircle
 10
225.359833
 20
243.503653
 30
0.0
 40
0.2
100
AcDbArc
 50
184.987471
 51
270.0
  0
LINE
  5
491
100
AcDbEntity
  8
0
100
AcDbLine
 10
225.130568
 20
243.830663
 30
0.0
 11
225.130568
 21
242.983753
 31
0.0
  0
LINE
  5
492
100
AcDbEntity
  8
0
100
AcDbLine
 10
224.774877
 20
244.450227
 30
0.0
 11
224.830567
 21
243.107632
 31
0.0
  0
LINE
  5
493
100
AcDbEntity
  8
0
100
AcDbLine
 10
225.073582
 20
244.483284
 30
0.0
 11
225.16059
 21
243.486265
 31
0.0
  0
ARC
  5
494
100
AcDbEntity
  8
0
100
AcDbCircle
 10
224.800568
 20
246.603663
 30
0.0
 40
1.6
100
AcDbArc
 50
90.0
 51
180.0
  0
LINE
  5
495
100
AcDbEntity
  8
0
100
AcDbLine
 10
225.359833
 20
243.303653
 30
0.0
 11
227.384947
 21
243.303653
 31
0.0
  0
LINE
  5
496
100
AcDbEntity
  8
0
100
AcDbLine
 10
239.000568
 20
244.403663
 30
0.0
 11
238.420481
 21
244.403663
 31
0.0
  0
ARC
  5
497
100
AcDbEntity
  8
0
100
AcDbCircle
 10
237.600568
 20
246.603663
 30
0.0
 40
1.6
100
AcDbArc
 50
0.0
 51
90.0
  0
LINE
  5
498
100
AcDbEntity
  8
0
100
AcDbLine
 10
238.154529
 20
243.787617
 30
0.0
 11
238.384129
 21
243.980291
 31
0.0
  0
LINE
  5
499
100
AcDbEntity
  8
0
100
AcDbLine
 10
238.420783
 20
244.403304
 30
0.0
 11
238.137714
 21
244.739545
 31
0.0
  0
LINE
  5
49A
100
AcDbEntity
  8
0
100
AcDbLine
 10
238.154529
 20
243.787617
 30
0.0
 11
237.96153
 21
244.017616
 31
0.0
  0
LINE
  5
49B
100
AcDbEntity
  8
0
100
AcDbLine
 10
238.190548
 20
244.210616
 30
0.0
 11
237.908677
 21
244.546457
 31
0.0
  0
ARC
  5
49C
100
AcDbEntity
  8
0
100
AcDbCircle
 10
237.786122
 20
244.443596
 30
0.0
 40
0.16
100
AcDbArc
 50
40.006774
 51
177.624736
  0
LINE
  5
49D
100
AcDbEntity
  8
0
100
AcDbLine
 10
237.96153
 20
244.017616
 30
0.0
 11
238.190548
 21
244.210616
 31
0.0
  0
ARC
  5
49E
100
AcDbEntity
  8
0
100
AcDbCircle
 10
238.191282
 20
244.210096
 30
0.0
 40
0.3
100
AcDbArc
 50
310.002497
 51
40.092742
  0
ARC
  5
49F
100
AcDbEntity
  8
0
100
AcDbCircle
 10
237.785813
 20
244.443293
 30
0.0
 40
0.46
100
AcDbArc
 50
40.092742
 51
175.012529
  0
ARC
  5
4A0
100
AcDbEntity
  8
0
100
AcDbCircle
 10
237.041304
 20
243.503653
 30
0.0
 40
0.2
100
AcDbArc
 50
270.0
 51
355.012529
  0
LINE
  5
4A1
100
AcDbEntity
  8
0
100
AcDbLine
 10
237.270568
 20
243.830663
 30
0.0
 11
237.270568
 21
242.983753
 31
0.0
  0
LINE
  5
4A2
100
AcDbEntity
  8
0
100
AcDbLine
 10
237.327555
 20
244.483284
 30
0.0
 11
237.240546
 21
243.486265
 31
0.0
  0
LINE
  5
4A3
100
AcDbEntity
  8
0
100
AcDbLine
 10
237.62626
 20
244.450227
 30
0.0
 11
237.570569
 21
243.107632
 31
0.0
  0
LINE
  5
4A4
100
AcDbEntity
  8
0
100
AcDbLine
 10
237.041304
 20
243.303653
 30
0.0
 11
235.016189
 21
243.303653
 31
0.0
  0
LINE
  5
4A5
100
AcDbEntity
  8
0
100
AcDbLine
 10
241.400568
 20
244.203663
 30
0.0
 11
239.200568
 21
244.203663
 31
0.0
  0
LINE
  5
4A6
100
AcDbEntity
  8
0
100
AcDbLine
 10
241.400568
 20
248.203663
 30
0.0
 11
243.400568
 21
248.203663
 31
0.0
  0
LINE
  5
4A7
100
AcDbEntity
  8
0
100
AcDbLine
 10
241.400568
 20
249.703663
 30
0.0
 11
239.200568
 21
249.703663
 31
0.0
  0
ARC
  5
4A8
100
AcDbEntity
  8
0
100
AcDbCircle
 10
239.000568
 20
244.603663
 30
0.0
 40
0.2
100
AcDbArc
 50
270.0
 51
0.0
  0
LINE
  5
4A9
100
AcDbEntity
  8
CENTER
  6
CENTER
 62
     1
100
AcDbLine
 10
404.270065
 20
278.230046
 30
0.0
 11
404.270065
 21
156.177279
 31
0.0
  0
CIRCLE
  5
4AA
100
AcDbEntity
  8
0
100
AcDbCircle
 10
404.270065
 20
217.203663
 30
0.0
 40
35.0
  0
CIRCLE
  5
4AB
100
AcDbEntity
  8
0
100
AcDbCircle
 10
404.270065
 20
217.203663
 30
0.0
 40
15.0
  0
CIRCLE
  5
4AC
100
AcDbEntity
  8
0
100
AcDbCircle
 10
404.270065
 20
217.203663
 30
0.0
 40
31.0
  0
LINE
  5
4AD
100
AcDbEntity
  8
0
100
AcDbLine
 10
441.270065
 20
253.741315
 30
0.0
 11
441.270065
 21
180.666011
 31
0.0
  0
LINE
  5
4AE
100
AcDbEntity
  8
0
100
AcDbLine
 10
367.270065
 20
253.741315
 30
0.0
 11
367.270065
 21
180.666011
 31
0.0
  0
LINE
  5
4AF
100
AcDbEntity
  8
CENTER
  6
CENTER
 62
     1
100
AcDbLine
 10
392.560113
 20
178.703663
 30
0.0
 11
371.980017
 21
178.703663
 31
0.0
  0
ARC
  5
4B0
100
AcDbEntity
  8
0
100
AcDbCircle
 10
404.270065
 20
217.203663
 30
0.0
 40
52.0
100
AcDbArc
 50
224.639773
 51
315.360227
  0
LINE
  5
4B1
100
AcDbEntity
  8
CENTER
  6
CENTER
 62
     1
100
AcDbLine
 10
382.270065
 20
168.413615
 30
0.0
 11
382.270065
 21
188.993711
 31
0.0
  0
CIRCLE
  5
4B2
100
AcDbEntity
  8
0
100
AcDbCircle
 10
382.270065
 20
178.703663
 30
0.0
 40
4.5
  0
CIRCLE
  5
4B3
100
AcDbEntity
  8
0
100
AcDbCircle
 10
382.270065
 20
178.703663
 30
0.0
 40
7.0
  0
LINE
  5
4B4
100
AcDbEntity
  8
CENTER
  6
CENTER
 62
     1
100
AcDbLine
 10
415.980017
 20
178.703663
 30
0.0
 11
436.560113
 21
178.703663
 31
0.0
  0
LINE
  5
4B5
100
AcDbEntity
  8
CENTER
  6
CENTER
 62
     1
100
AcDbLine
 10
426.270065
 20
168.413615
 30
0.0
 11
426.270065
 21
188.993711
 31
0.0
  0
CIRCLE
  5
4B6
100
AcDbEntity
  8
0
100
AcDbCircle
 10
426.270065
 20
178.703663
 30
0.0
 40
4.5
  0
CIRCLE
  5
4B7
100
AcDbEntity
  8
0
100
AcDbCircle
 10
426.270065
 20
178.703663
 30
0.0
 40
7.0
  0
LINE
  5
4B8
100
AcDbEntity
  8
CENTER
  6
CENTER
 62
     1
100
AcDbLine
 10
359.909189
 20
217.203663
 30
0.0
 11
447.844945
 21
217.203663
 31
0.0
  0
LINE
  5
4B9
100
AcDbEntity
  8
CENTER
  6
CENTER
 62
     1
100
AcDbLine
 10
392.560113
 20
255.703663
 30
0.0
 11
371.980017
 21
255.703663
 31
0.0
  0
ARC
  5
4BA
100
AcDbEntity
  8
0
100
AcDbCircle
 10
404.270065
 20
217.203663
 30
0.0
 40
52.0
100
AcDbArc
 50
44.639773
 51
135.360227
  0
LINE
  5
4BB
100
AcDbEntity
  8
CENTER
  6
CENTER
 62
     1
100
AcDbLine
 10
382.270065
 20
265.993711
 30
0.0
 11
382.270065
 21
245.413615
 31
0.0
  0
CIRCLE
  5
4BC
100
AcDbEntity
  8
0
100
AcDbCircle
 10
382.270065
 20
255.703663
 30
0.0
 40
4.5
  0
CIRCLE
  5
4BD
100
AcDbEntity
  8
0
100
AcDbCircle
 10
382.270065
 20
255.703663
 30
0.0
 40
7.0
  0
LINE
  5
4BE
100
AcDbEntity
  8
CENTER
  6
CENTER
 62
     1
100
AcDbLine
 10
415.980017
 20
255.703663
 30
0.0
 11
436.560113
 21
255.703663
 31
0.0
  0
LINE
  5
4BF
100
AcDbEntity
  8
CENTER
  6
CENTER
 62
     1
100
AcDbLine
 10
426.270065
 20
265.993711
 30
0.0
 11
426.270065
 21
245.413615
 31
0.0
  0
CIRCLE
  5
4C0
100
AcDbEntity
  8
0
100
AcDbCircle
 10
426.270065
 20
255.703663
 30
0.0
 40
4.5
  0
CIRCLE
  5
4C1
100
AcDbEntity
  8
0
100
AcDbCircle
 10
426.270065
 20
255.703663
 30
0.0
 40
7.0
  0
LINE
  5
4C2
100
AcDbEntity
  8
0
  6
DASHED
 62
     3
100
AcDbLine
 10
193.400568
 20
251.203663
 30
0.0
 11
193.400568
 21
252.203663
 31
0.0
  0
LINE
  5
4C3
100
AcDbEntity
  8
0
  6
DASHED
 62
     3
100
AcDbLine
 10
206.400568
 20
248.703663
 30
0.0
 11
206.400568
 21
252.203663
 31
0.0
  0
LINE
  5
4C4
100
AcDbEntity
  8
0
  6
DASHED
 62
     3
100
AcDbLine
 10
193.400568
 20
182.203663
 30
0.0
 11
193.400568
 21
183.203663
 31
0.0
  0
LINE
  5
4C5
100
AcDbEntity
  8
0
  6
DASHED
 62
     3
100
AcDbLine
 10
206.400568
 20
182.203663
 30
0.0
 11
206.400568
 21
185.703663
 31
0.0
  0
ENDSEC
  0
SECTION
  2
OBJECTS
  0
DICTIONARY
  5
33B
100
AcDbDictionary
  3
ACAD_GROUP
350
33C
  3
ACAD_LAYOUT
350
348
  3
ACAD_MLINESTYLE
350
345
  3
ACAD_PLOTSETTINGS
350
347
  3
ACAD_PLOTSTYLENAME
350
33D
  3
ACDBHEADERROUNDTRIPXREC
350
4D2
  3
AcDbVariableDictionary
350
4FB
  0
DICTIONARY
  5
4D0
100
AcDbDictionary
280
     1
  3
ACAD_XREC_ROUNDTRIP
360
4D1
  0
DICTIONARY
  5
4CC
100
AcDbDictionary
280
     1
  3
ACAD_XREC_ROUNDTRIP
360
4CD
  0
DICTIONARY
  5
4CE
100
AcDbDictionary
280
     1
  3
ACAD_XREC_ROUNDTRIP
360
4CF
  0
DICTIONARY
  5
4F9
100
AcDbDictionary
280
     1
  3
ACAD_XREC_ROUNDTRIP
360
4FA
  0
DICTIONARY
  5
4C8
100
AcDbDictionary
280
     1
  3
ACAD_LAYOUTSELFREF
360
4F8
  3
ACAD_XREC_ROUNDTRIP
360
4C9
  0
DICTIONARY
  5
4CA
100
AcDbDictionary
280
     1
  3
ACAD_LAYOUTSELFREF
360
4F7
  3
ACAD_XREC_ROUNDTRIP
360
4CB
  0
DICTIONARY
  5
33C
102
{ACAD_REACTORS
330
33B
102
}
100
AcDbDictionary
  0
DICTIONARY
  5
348
102
{ACAD_XDICTIONARY
360
4F5
102
}
102
{ACAD_REACTORS
330
33B
102
}
100
AcDbDictionary
  3
MODEL
350
350
  3
ﾚｲｱｳﾄ1
350
34C
  0
DICTIONARY
  5
345
102
{ACAD_XDICTIONARY
360
4F3
102
}
102
{ACAD_REACTORS
330
33B
102
}
100
AcDbDictionary
  3
STANDARD
350
346
  0
DICTIONARY
  5
347
102
{ACAD_REACTORS
330
33B
102
}
100
AcDbDictionary
  0
ACAD_PROXY_OBJECT
  5
33D
102
{ACAD_REACTORS
330
33B
102
}
100
AcDbProxyObject
 90
      499
 91
      500
 93
       86
310
405010041939BDC9B585B1
350
33E
340
33E
 94
        0
  0
DICTIONARY
  5
4D2
102
{ACAD_REACTORS
330
33B
102
}
100
AcDbDictionary
  3
CEPSNTYPE
350
4DC
  3
DIMSTYLEDATA
350
4E0
  3
FINGERPRINTGUID
350
4DD
  3
HYPERLINKBASE
350
4D5
  3
INSUNITS
350
4DB
  3
LAYOUTDICT
350
4D7
  3
LWETCUNION
350
4DA
  3
PLOTSETDICT
350
4D8
  3
PLOTSTYLNAMDICT
350
4D9
  3
PSVPSCALE
350
4DF
  3
PUCSBASE
350
4E3
  3
PUCSORGBACK
350
4E9
  3
PUCSORGBOTTOM
350
4E5
  3
PUCSORGFRONT
350
4E8
  3
PUCSORGLEFT
350
4E6
  3
PUCSORGRIGHT
350
4E7
  3
PUCSORGTOP
350
4E4
  3
PUCSORTHOREF
350
4E1
  3
PUCSORTHOVIEW
350
4E2
  3
STYLESHEET
350
4D6
  3
TSTACKALIGN
350
4D3
  3
TSTACKSIZE
350
4D4
  3
UCSBASE
350
4EC
  3
UCSORGBACK
350
4F2
  3
UCSORGBOTTOM
350
4EE
  3
UCSORGFRONT
350
4F1
  3
UCSORGLEFT
350
4EF
  3
UCSORGRIGHT
350
4F0
  3
UCSORGTOP
350
4ED
  3
UCSORTHOREF
350
4EA
  3
UCSORTHOVIEW
350
4EB
  3
VERSIONGUID
350
4DE
  0
DICTIONARY
  5
4FB
102
{ACAD_REACTORS
330
33B
102
}
100
AcDbDictionary
  3
DIMASSOC
350
4FC
  0
XRECORD
  5
4D1
102
{ACAD_REACTORS
330
4D0
102
}
100
AcDbXrecord
102
EXTNAMES
  1
*ACTIVE
  2
*Active
102
UCS
 74
     0
 71
     0
 10
0.0
 20
0.0
 30
0.0
 10
1.0
 20
0.0
 30
0.0
 10
0.0
 20
1.0
 30
0.0
146
0.0
 79
     0
102
VIEW
281
     0
  0
XRECORD
  5
4CD
102
{ACAD_REACTORS
330
4CC
102
}
100
AcDbXrecord
102
EXTNAMES
  1
BYBLOCK
  2
ByBlock
  0
XRECORD
  5
4CF
102
{ACAD_REACTORS
330
4CE
102
}
100
AcDbXrecord
102
EXTNAMES
  1
BYLAYER
  2
ByLayer
  0
XRECORD
  5
4FA
102
{ACAD_REACTORS
330
4F9
102
}
100
AcDbXrecord
102
ACADR14ROUNDTRIP
1000
DSTYLE
1002
{
1070
   279
 70
     2
1002
}
  0
XRECORD
  5
4F8
102
{ACAD_REACTORS
330
4C8
102
}
100
AcDbXrecord
340
34D
  0
XRECORD
  5
4C9
102
{ACAD_REACTORS
330
4C8
102
}
100
AcDbXrecord
102
EXTNAMES
  1
*MODEL_SPACE
  2
*Model_Space
  0
XRECORD
  5
4F7
102
{ACAD_REACTORS
330
4CA
102
}
100
AcDbXrecord
340
349
  0
XRECORD
  5
4CB
102
{ACAD_REACTORS
330
4CA
102
}
100
AcDbXrecord
102
EXTNAMES
  1
*PAPER_SPACE
  2
*Paper_Space
  0
DICTIONARY
  5
4F5
100
AcDbDictionary
280
     1
  3
ACAD_XREC_ROUNDTRIP
360
4F6
  0
ACAD_PROXY_OBJECT
  5
350
102
{ACAD_REACTORS
330
348
102
}
100
AcDbProxyObject
 90
      499
 91
      502
 93
      836
310
932433A5C50524F4752414D2046494C45535C4D4454365C706C6F74746572735C526F6C616E64204458592D313235302E7063332C01AAAAAAAAA5A69054D6F64656C901A800000000000000000000000000000000000000000000A1000000000000008902A6A6AAAA0
330
34D
330
0
340
0
340
0
 94
        0
  0
ACAD_PROXY_OBJECT
  5
34C
102
{ACAD_REACTORS
330
348
102
}
100
AcDbProxyObject
 90
      499
 91
      502
 93
     1244
310
932433A5C50524F4752414D2046494C45535C4D4454365C706C6F74746572735C526F6C616E64204458592D313235302E7063332C00AAAAAA416AA59106906DAB2B1B3C431406A800000000000000000000000000000000000000000101E900000000000241C902A6A6A10232D5E076BC5510408CB5781DAF154410232D5E0
310
76BC5510408CB5781DAF15C410232D5E076BC5710408CB5781DAF15C40
330
349
330
0
340
0
340
0
 94
        0
  0
DICTIONARY
  5
4F3
100
AcDbDictionary
280
     1
  3
ACAD_XREC_ROUNDTRIP
360
4F4
  0
MLINESTYLE
  5
346
102
{ACAD_REACTORS
330
345
102
}
100
AcDbMlineStyle
  2
STANDARD
 70
     0
  3

 62
   256
 51
90.0
 52
90.0
 71
     2
 49
0.5
 62
   256
  6
BYLAYER
 49
-0.5
 62
   256
  6
BYLAYER
  0
ACAD_PROXY_OBJECT
  5
33E
102
{ACAD_REACTORS
330
33D
102
}
100
AcDbProxyObject
 90
      499
 91
      501
 93
        0
 94
        0
  0
XRECORD
  5
4DC
102
{ACAD_REACTORS
330
4D2
102
}
100
AcDbXrecord
 90
        0
  0
XRECORD
  5
4E0
102
{ACAD_REACTORS
330
4D2
102
}
100
AcDbXrecord
1000
DSTYLE
1002
{
1070
   341
340
35E
1070
   342
340
35E
1002
}
  0
XRECORD
  5
4DD
102
{ACAD_REACTORS
330
4D2
102
}
100
AcDbXrecord
  1
{28A94FD8-F285-4A9E-80A8-217504F60D9A}
  0
XRECORD
  5
4D5
102
{ACAD_REACTORS
330
4D2
102
}
100
AcDbXrecord
  1

  0
XRECORD
  5
4DB
102
{ACAD_REACTORS
330
4D2
102
}
100
AcDbXrecord
 90
        0
  0
XRECORD
  5
4D7
102
{ACAD_REACTORS
330
4D2
102
}
100
AcDbXrecord
340
348
  0
XRECORD
  5
4DA
102
{ACAD_REACTORS
330
4D2
102
}
100
AcDbXrecord
 90
    10781
  0
XRECORD
  5
4D8
102
{ACAD_REACTORS
330
4D2
102
}
100
AcDbXrecord
340
347
  0
XRECORD
  5
4D9
102
{ACAD_REACTORS
330
4D2
102
}
100
AcDbXrecord
340
33D
  0
XRECORD
  5
4DF
102
{ACAD_REACTORS
330
4D2
102
}
100
AcDbXrecord
 40
0.0
  0
XRECORD
  5
4E3
102
{ACAD_REACTORS
330
4D2
102
}
100
AcDbXrecord
340
0
  0
XRECORD
  5
4E9
102
{ACAD_REACTORS
330
4D2
102
}
100
AcDbXrecord
 10
0.0
 20
0.0
 30
0.0
  0
XRECORD
  5
4E5
102
{ACAD_REACTORS
330
4D2
102
}
100
AcDbXrecord
 10
0.0
 20
0.0
 30
0.0
  0
XRECORD
  5
4E8
102
{ACAD_REACTORS
330
4D2
102
}
100
AcDbXrecord
 10
0.0
 20
0.0
 30
0.0
  0
XRECORD
  5
4E6
102
{ACAD_REACTORS
330
4D2
102
}
100
AcDbXrecord
 10
0.0
 20
0.0
 30
0.0
  0
XRECORD
  5
4E7
102
{ACAD_REACTORS
330
4D2
102
}
100
AcDbXrecord
 10
0.0
 20
0.0
 30
0.0
  0
XRECORD
  5
4E4
102
{ACAD_REACTORS
330
4D2
102
}
100
AcDbXrecord
 10
0.0
 20
0.0
 30
0.0
  0
XRECORD
  5
4E1
102
{ACAD_REACTORS
330
4D2
102
}
100
AcDbXrecord
340
0
  0
XRECORD
  5
4E2
102
{ACAD_REACTORS
330
4D2
102
}
100
AcDbXrecord
 70
     0
  0
XRECORD
  5
4D6
102
{ACAD_REACTORS
330
4D2
102
}
100
AcDbXrecord
  1

  0
XRECORD
  5
4D3
102
{ACAD_REACTORS
330
4D2
102
}
100
AcDbXrecord
 90
        1
  0
XRECORD
  5
4D4
102
{ACAD_REACTORS
330
4D2
102
}
100
AcDbXrecord
 90
       70
  0
XRECORD
  5
4EC
102
{ACAD_REACTORS
330
4D2
102
}
100
AcDbXrecord
340
0
  0
XRECORD
  5
4F2
102
{ACAD_REACTORS
330
4D2
102
}
100
AcDbXrecord
 10
0.0
 20
0.0
 30
0.0
  0
XRECORD
  5
4EE
102
{ACAD_REACTORS
330
4D2
102
}
100
AcDbXrecord
 10
0.0
 20
0.0
 30
0.0
  0
XRECORD
  5
4F1
102
{ACAD_REACTORS
330
4D2
102
}
100
AcDbXrecord
 10
0.0
 20
0.0
 30
0.0
  0
XRECORD
  5
4EF
102
{ACAD_REACTORS
330
4D2
102
}
100
AcDbXrecord
 10
0.0
 20
0.0
 30
0.0
  0
XRECORD
  5
4F0
102
{ACAD_REACTORS
330
4D2
102
}
100
AcDbXrecord
 10
0.0
 20
0.0
 30
0.0
  0
XRECORD
  5
4ED
102
{ACAD_REACTORS
330
4D2
102
}
100
AcDbXrecord
 10
0.0
 20
0.0
 30
0.0
  0
XRECORD
  5
4EA
102
{ACAD_REACTORS
330
4D2
102
}
100
AcDbXrecord
340
0
  0
XRECORD
  5
4EB
102
{ACAD_REACTORS
330
4D2
102
}
100
AcDbXrecord
 70
     0
  0
XRECORD
  5
4DE
102
{ACAD_REACTORS
330
4D2
102
}
100
AcDbXrecord
  1
{C18F83BC-8A34-4C2C-9505-B3A6F255A7AC}
  0
DICTIONARYVAR
  5
4FC
102
{ACAD_REACTORS
330
4FB
102
}
100
DictionaryVariables
280
     0
  1
1
  0
XRECORD
  5
4F6
102
{ACAD_REACTORS
330
4F5
102
}
100
AcDbXrecord
102
EXTNAMES
  1
MODEL
  2
Model
  0
XRECORD
  5
4F4
102
{ACAD_REACTORS
330
4F3
102
}
100
AcDbXrecord
102
EXTNAMES
  1
STANDARD
  2
Standard
  0
ENDSEC
  0
EOF
