  0
SECTION
  2
HEADER
  9
$ACADVER
  1
AC1014
  9
$ACADMAINTVER
 70
     0
  9
$DWGCODEPAGE
  3
ANSI_932
  9
$INSBASE
 10
0.0
 20
0.0
 30
0.0
  9
$EXTMIN
 10
165.897352
 20
146.097233
 30
0.0
  9
$EXTMAX
 10
429.820823
 20
256.158954
 30
0.0
  9
$LIMMIN
 10
0.0
 20
0.0
  9
$LIMMAX
 10
594.0
 20
420.0
  9
$ORTHOMODE
 70
     0
  9
$REGENMODE
 70
     1
  9
$FILLMODE
 70
     1
  9
$QTEXTMODE
 70
     0
  9
$MIRRTEXT
 70
     1
  9
$DRAGMODE
 70
     2
  9
$LTSCALE
 40
0.25
  9
$OSMODE
 70
    37
  9
$ATTMODE
 70
     1
  9
$TEXTSIZE
 40
4.0
  9
$TRACEWID
 40
1.0
  9
$TEXTSTYLE
  7
STANDARD
  9
$CLAYER
  8
0
  9
$CELTYPE
  6
BYLAYER
  9
$CECOLOR
 62
   256
  9
$CELTSCALE
 40
1.0
  9
$DELOBJ
 70
     1
  9
$DISPSILH
 70
     0
  9
$DIMSCALE
 40
2.0
  9
$DIMASZ
 40
3.0
  9
$DIMEXO
 40
1.0
  9
$DIMDLI
 40
0.0
  9
$DIMRND
 40
0.0
  9
$DIMDLE
 40
0.0
  9
$DIMEXE
 40
1.0
  9
$DIMTP
 40
0.1
  9
$DIMTM
 40
0.0
  9
$DIMTXT
 40
3.2
  9
$DIMCEN
 40
0.0
  9
$DIMTSZ
 40
0.0
  9
$DIMTOL
 70
     0
  9
$DIMLIM
 70
     0
  9
$DIMTIH
 70
     0
  9
$DIMTOH
 70
     0
  9
$DIMSE1
 70
     0
  9
$DIMSE2
 70
     0
  9
$DIMTAD
 70
     0
  9
$DIMZIN
 70
     8
  9
$DIMBLK
  1

  9
$DIMASO
 70
     1
  9
$DIMSHO
 70
     1
  9
$DIMPOST
  1

  9
$DIMAPOST
  1

  9
$DIMALT
 70
     0
  9
$DIMALTD
 70
     2
  9
$DIMALTF
 40
0.04
  9
$DIMLFAC
 40
1.0
  9
$DIMTOFL
 70
     1
  9
$DIMTVP
 40
1.0
  9
$DIMTIX
 70
     1
  9
$DIMSOXD
 70
     0
  9
$DIMSAH
 70
     1
  9
$DIMBLK1
  1
DOT
  9
$DIMBLK2
  1
ARROW
  9
$DIMSTYLE
  2
DA1
  9
$DIMCLRD
 70
     0
  9
$DIMCLRE
 70
     0
  9
$DIMCLRT
 70
     0
  9
$DIMTFAC
 40
0.6
  9
$DIMGAP
 40
0.0
  9
$DIMJUST
 70
     0
  9
$DIMSD1
 70
     0
  9
$DIMSD2
 70
     0
  9
$DIMTOLJ
 70
     1
  9
$DIMTZIN
 70
     0
  9
$DIMALTZ
 70
     0
  9
$DIMALTTZ
 70
     0
  9
$DIMFIT
 70
     3
  9
$DIMUPT
 70
     0
  9
$DIMUNIT
 70
     2
  9
$DIMDEC
 70
     4
  9
$DIMTDEC
 70
     4
  9
$DIMALTU
 70
     2
  9
$DIMALTTD
 70
     2
  9
$DIMTXSTY
  7
STANDARD
  9
$DIMAUNIT
 70
     0
  9
$LUNITS
 70
     2
  9
$LUPREC
 70
     2
  9
$SKETCHINC
 40
1.0
  9
$FILLETRAD
 40
10.0
  9
$AUNITS
 70
     0
  9
$AUPREC
 70
     0
  9
$MENU
  1
acad
  9
$ELEVATION
 40
0.0
  9
$PELEVATION
 40
0.0
  9
$THICKNESS
 40
0.0
  9
$LIMCHECK
 70
     0
  9
$BLIPMODE
 70
     0
  9
$CHAMFERA
 40
0.0
  9
$CHAMFERB
 40
0.0
  9
$CHAMFERC
 40
0.0
  9
$CHAMFERD
 40
0.0
  9
$SKPOLY
 70
     0
  9
$TDCREATE
 40
2451466.824992708
  9
$TDUPDATE
 40
2452821.796321643
  9
$TDINDWG
 40
0.0021661111
  9
$TDUSRTIMER
 40
0.0021661111
  9
$USRTIMER
 70
     1
  9
$ANGBASE
 50
0.0
  9
$ANGDIR
 70
     0
  9
$PDMODE
 70
     1
  9
$PDSIZE
 40
0.0
  9
$PLINEWID
 40
0.0
  9
$COORDS
 70
     1
  9
$SPLFRAME
 70
     0
  9
$SPLINETYPE
 70
     6
  9
$SPLINESEGS
 70
     8
  9
$ATTDIA
 70
     0
  9
$ATTREQ
 70
     1
  9
$HANDLING
 70
     1
  9
$HANDSEED
  5
51B
  9
$SURFTAB1
 70
     6
  9
$SURFTAB2
 70
     6
  9
$SURFTYPE
 70
     6
  9
$SURFU
 70
     6
  9
$SURFV
 70
     6
  9
$UCSNAME
  2

  9
$UCSORG
 10
0.0
 20
0.0
 30
0.0
  9
$UCSXDIR
 10
1.0
 20
0.0
 30
0.0
  9
$UCSYDIR
 10
0.0
 20
1.0
 30
0.0
  9
$PUCSNAME
  2

  9
$PUCSORG
 10
0.0
 20
0.0
 30
0.0
  9
$PUCSXDIR
 10
1.0
 20
0.0
 30
0.0
  9
$PUCSYDIR
 10
0.0
 20
1.0
 30
0.0
  9
$USERI1
 70
     0
  9
$USERI2
 70
     0
  9
$USERI3
 70
     0
  9
$USERI4
 70
     0
  9
$USERI5
 70
     0
  9
$USERR1
 40
0.0
  9
$USERR2
 40
0.0
  9
$USERR3
 40
0.0
  9
$USERR4
 40
0.0
  9
$USERR5
 40
0.0
  9
$WORLDVIEW
 70
     1
  9
$SHADEDGE
 70
     3
  9
$SHADEDIF
 70
    70
  9
$TILEMODE
 70
     1
  9
$MAXACTVP
 70
    16
  9
$PINSBASE
 10
0.0
 20
0.0
 30
0.0
  9
$PLIMCHECK
 70
     0
  9
$PEXTMIN
 10
1.000000E+20
 20
1.000000E+20
 30
1.000000E+20
  9
$PEXTMAX
 10
-1.000000E+20
 20
-1.000000E+20
 30
-1.000000E+20
  9
$PLIMMIN
 10
0.0
 20
0.0
  9
$PLIMMAX
 10
420.0
 20
297.0
  9
$UNITMODE
 70
     0
  9
$VISRETAIN
 70
     0
  9
$PLINEGEN
 70
     0
  9
$PSLTSCALE
 70
     0
  9
$TREEDEPTH
 70
  3020
  9
$PICKSTYLE
 70
     1
  9
$CMLSTYLE
  2
STANDARD
  9
$CMLJUST
 70
     0
  9
$CMLSCALE
 40
1.0
  9
$PROXYGRAPHICS
 70
     1
  9
$MEASUREMENT
 70
     0
  0
ENDSEC
  0
SECTION
  2
CLASSES
  0
CLASS
  1
ACDBDICTIONARYWDFLT
  2
AcDbDictionaryWithDefault
  3
AutoCAD 2000
 90
        0
280
     0
281
     0
  0
CLASS
  1
ACDBPLACEHOLDER
  2
AcDbPlaceHolder
  3
AutoCAD 2000
 90
        0
280
     0
281
     0
  0
CLASS
  1
LAYOUT
  2
AcDbLayout
  3
AutoCAD 2000
 90
        0
280
     0
281
     0
  0
CLASS
  1
DICTIONARYVAR
  2
AcDbDictionaryVar
  3
"AutoCAD"
 90
        0
280
     0
281
     0
  0
CLASS
  1
LONG_TRANSACTION
  2
AcDbLongTransaction
  3
AutoCAD 2000
 90
        0
280
     0
281
     0
  0
CLASS
  1
LWPOLYLINE
  2
AcDbPolyline
  3
"AutoCAD"
 90
        0
280
     0
281
     1
  0
CLASS
  1
HATCH
  2
AcDbHatch
  3
"ACAD_SEDONA"
 90
        0
280
     0
281
     1
  0
CLASS
  1
XRECORD
  2
AcDbXrecord
  3
"<Built In>"
 90
        0
280
     0
281
     0
  0
ENDSEC
  0
SECTION
  2
TABLES
  0
TABLE
  2
VPORT
  5
34A
100
AcDbSymbolTable
 70
     1
  0
VPORT
  5
4E2
102
{ACAD_XDICTIONARY
360
4EB
102
}
100
AcDbSymbolTableRecord
100
AcDbViewportTableRecord
  2
*ACTIVE
 70
     0
 10
0.0
 20
0.0
 11
1.0
 21
1.0
 12
224.898103
 22
146.539457
 13
0.0
 23
0.0
 14
10.0
 24
10.0
 15
0.0
 25
0.0
 16
0.0
 26
0.0
 36
1.0
 17
0.0
 27
0.0
 37
0.0
 40
262.207251
 41
1.570997
 42
50.0
 43
0.0
 44
0.0
 50
0.0
 51
0.0
 71
     0
 72
   100
 73
     1
 74
     0
 75
     0
 76
     0
 77
     0
 78
     1
  0
ENDTAB
  0
TABLE
  2
LTYPE
  5
347
100
AcDbSymbolTable
 70
     3
  0
LTYPE
  5
355
102
{ACAD_XDICTIONARY
360
4E7
102
}
100
AcDbSymbolTableRecord
100
AcDbLinetypeTableRecord
  2
BYBLOCK
 70
     0
  3

 72
    65
 73
     0
 40
0.0
  0
LTYPE
  5
356
102
{ACAD_XDICTIONARY
360
4E9
102
}
100
AcDbSymbolTableRecord
100
AcDbLinetypeTableRecord
  2
BYLAYER
 70
     0
  3

 72
    65
 73
     0
 40
0.0
  0
LTYPE
  5
357
100
AcDbSymbolTableRecord
100
AcDbLinetypeTableRecord
  2
CONTINUOUS
 70
     0
  3
Solid line
 72
    65
 73
     0
 40
0.0
  0
LTYPE
  5
365
100
AcDbSymbolTableRecord
100
AcDbLinetypeTableRecord
  2
CENTER
 70
     0
  3
____ _ ____ _ ____ _ ____ _ ____ _ ____ _ ____ 
 72
    65
 73
     4
 40
50.8
 49
31.75
 74
     0
 49
-6.35
 74
     0
 49
6.35
 74
     0
 49
-6.35
 74
     0
  0
LTYPE
  5
366
100
AcDbSymbolTableRecord
100
AcDbLinetypeTableRecord
  2
DASHED
 70
     0
  3
Dashed __ __ __ __ __ __ __ __ __ __ __ __ __ _
 72
    65
 73
     2
 40
0.75
 49
0.5
 74
     0
 49
-0.25
 74
     0
  0
ENDTAB
  0
TABLE
  2
LAYER
  5
344
100
AcDbSymbolTable
 70
     3
  0
LAYER
  5
352
100
AcDbSymbolTableRecord
100
AcDbLayerTableRecord
  2
0
 70
     0
 62
     7
  6
CONTINUOUS
  0
LAYER
  5
367
100
AcDbSymbolTableRecord
100
AcDbLayerTableRecord
  2
DIMENSION
 70
     0
 62
    -4
  6
CONTINUOUS
  0
LAYER
  5
368
100
AcDbSymbolTableRecord
100
AcDbLayerTableRecord
  2
CENTER
 70
     0
 62
     1
  6
CENTER
  0
ENDTAB
  0
TABLE
  2
STYLE
  5
345
100
AcDbSymbolTable
 70
     1
  0
STYLE
  5
353
100
AcDbSymbolTableRecord
100
AcDbTextStyleTableRecord
  2
STANDARD
 70
     0
 40
0.0
 41
1.0
 50
0.0
 71
     0
 42
4.0
  3
txt
  4

  0
ENDTAB
  0
TABLE
  2
VIEW
  5
348
100
AcDbSymbolTable
 70
     0
  0
ENDTAB
  0
TABLE
  2
UCS
  5
349
100
AcDbSymbolTable
 70
     0
  0
ENDTAB
  0
TABLE
  2
APPID
  5
34B
100
AcDbSymbolTable
 70
     1
  0
APPID
  5
354
100
AcDbSymbolTableRecord
100
AcDbRegAppTableRecord
  2
ACAD
 70
     0
  0
ENDTAB
  0
TABLE
  2
DIMSTYLE
  5
34C
100
AcDbSymbolTable
 70
     1
  0
DIMSTYLE
105
369
102
{ACAD_XDICTIONARY
360
514
102
}
100
AcDbSymbolTableRecord
100
AcDbDimStyleTableRecord
  2
DA1
 70
     0
  3

  4

  5

  6

  7

 40
1.0
 41
3.0
 42
1.0
 43
0.0
 44
1.0
 45
0.0
 46
0.0
 47
0.0
 48
0.0
140
3.2
141
0.0
142
0.0
143
0.04
144
1.0
145
1.0
146
0.6
147
0.0
 71
     0
 72
     0
 73
     0
 74
     0
 75
     0
 76
     0
 77
     0
 78
     8
170
     0
171
     2
172
     1
173
     1
174
     1
175
     0
176
     0
177
     0
178
     0
270
     2
271
     2
272
     2
273
     2
274
     2
340
353
275
     0
280
     0
281
     0
282
     0
283
     1
284
     8
285
     8
286
     8
287
     5
288
     0
  0
ENDTAB
  0
TABLE
  2
BLOCK_RECORD
  5
343
100
AcDbSymbolTable
 70
     4
  0
BLOCK_RECORD
  5
360
102
{ACAD_XDICTIONARY
360
4E3
102
}
100
AcDbSymbolTableRecord
100
AcDbBlockTableRecord
  2
*MODEL_SPACE
  0
BLOCK_RECORD
  5
35C
102
{ACAD_XDICTIONARY
360
4E5
102
}
100
AcDbSymbolTableRecord
100
AcDbBlockTableRecord
  2
*PAPER_SPACE
  0
BLOCK_RECORD
  5
36B
100
AcDbSymbolTableRecord
100
AcDbBlockTableRecord
  2
$MODEL_SPACE
  0
BLOCK_RECORD
  5
36E
100
AcDbSymbolTableRecord
100
AcDbBlockTableRecord
  2
$PAPER_SPACE
  0
BLOCK_RECORD
  5
371
100
AcDbSymbolTableRecord
100
AcDbBlockTableRecord
  2
ARROW
  0
BLOCK_RECORD
  5
377
100
AcDbSymbolTableRecord
100
AcDbBlockTableRecord
  2
DOT
  0
ENDTAB
  0
ENDSEC
  0
SECTION
  2
BLOCKS
  0
BLOCK
  5
361
100
AcDbEntity
  8
0
100
AcDbBlockBegin
  2
*MODEL_SPACE
 70
     0
 10
0.0
 20
0.0
 30
0.0
  3
*MODEL_SPACE
  1

  0
ENDBLK
  5
362
100
AcDbEntity
  8
0
100
AcDbBlockEnd
  0
BLOCK
  5
35D
100
AcDbEntity
 67
     1
  8
0
100
AcDbBlockBegin
  2
*PAPER_SPACE
 70
     0
 10
0.0
 20
0.0
 30
0.0
  3
*PAPER_SPACE
  1

  0
ENDBLK
  5
35E
100
AcDbEntity
 67
     1
  8
0
100
AcDbBlockEnd
  0
BLOCK
  5
36C
100
AcDbEntity
  8
0
100
AcDbBlockBegin
  2
$MODEL_SPACE
 70
     0
 10
0.0
 20
0.0
 30
0.0
  3
$MODEL_SPACE
  1

  0
ENDBLK
  5
36D
100
AcDbEntity
  8
0
100
AcDbBlockEnd
  0
BLOCK
  5
36F
100
AcDbEntity
  8
0
100
AcDbBlockBegin
  2
$PAPER_SPACE
 70
     0
 10
0.0
 20
0.0
 30
0.0
  3
$PAPER_SPACE
  1

  0
ENDBLK
  5
370
100
AcDbEntity
  8
0
100
AcDbBlockEnd
  0
BLOCK
  5
372
100
AcDbEntity
  8
0
100
AcDbBlockBegin
  2
ARROW
 70
     0
 10
0.0
 20
0.0
 30
0.0
  3
ARROW
  1

  0
LINE
  5
373
100
AcDbEntity
  8
DIMENSION
100
AcDbLine
 10
0.0
 20
0.0
 30
0.0
 11
-1.0
 21
0.176327
 31
0.0
  0
LINE
  5
374
100
AcDbEntity
  8
DIMENSION
100
AcDbLine
 10
0.0
 20
0.0
 30
0.0
 11
-1.0
 21
-0.176327
 31
0.0
  0
LINE
  5
375
100
AcDbEntity
  8
DIMENSION
100
AcDbLine
 10
-1.0
 20
0.0
 30
0.0
 11
0.0
 21
0.0
 31
0.0
  0
ENDBLK
  5
376
100
AcDbEntity
  8
0
100
AcDbBlockEnd
  0
BLOCK
  5
378
100
AcDbEntity
  8
0
100
AcDbBlockBegin
  2
DOT
 70
     0
 10
0.0
 20
0.0
 30
0.0
  3
DOT
  1
DOT2
  0
LWPOLYLINE
  5
379
100
AcDbEntity
  8
DIMENSION
100
AcDbPolyline
 90
        2
 70
     1
 43
0.165
 10
-0.082512
 20
0.000018
 42
1.0
 10
0.082488
 20
0.000018
 42
1.0
  0
LINE
  5
37D
100
AcDbEntity
  8
DIMENSION
100
AcDbLine
 10
-0.000012
 20
0.000018
 30
0.0
 11
-1.000012
 21
0.000018
 31
0.0
  0
ENDBLK
  5
37E
100
AcDbEntity
  8
0
100
AcDbBlockEnd
  0
ENDSEC
  0
SECTION
  2
ENTITIES
  0
LINE
  5
37F
100
AcDbEntity
  8
0
100
AcDbLine
 10
191.859382
 20
176.728093
 30
0.0
 11
191.859382
 21
225.528093
 31
0.0
  0
LINE
  5
380
100
AcDbEntity
  8
0
100
AcDbLine
 10
174.659382
 20
228.628093
 30
0.0
 11
174.659382
 21
173.628093
 31
0.0
  0
LINE
  5
381
100
AcDbEntity
  8
0
100
AcDbLine
 10
176.859382
 20
228.628093
 30
0.0
 11
176.859382
 21
173.628093
 31
0.0
  0
LINE
  5
382
100
AcDbEntity
  8
0
100
AcDbLine
 10
235.659382
 20
228.628093
 30
0.0
 11
235.659382
 21
173.628093
 31
0.0
  0
LINE
  5
383
100
AcDbEntity
  8
0
100
AcDbLine
 10
233.459382
 20
228.628093
 30
0.0
 11
233.459382
 21
173.628093
 31
0.0
  0
LINE
  5
384
100
AcDbEntity
  8
0
100
AcDbLine
 10
218.459382
 20
176.728093
 30
0.0
 11
218.459382
 21
225.528093
 31
0.0
  0
LINE
  5
385
100
AcDbEntity
  8
0
100
AcDbLine
 10
237.659382
 20
171.128093
 30
0.0
 11
237.659382
 21
231.128093
 31
0.0
  0
LINE
  5
386
100
AcDbEntity
  8
0
100
AcDbLine
 10
172.659382
 20
171.128093
 30
0.0
 11
172.659382
 21
231.128093
 31
0.0
  0
LINE
  5
389
100
AcDbEntity
  8
CENTER
  6
CENTER
 62
     1
100
AcDbLine
 10
165.897352
 20
201.128093
 30
0.0
 11
244.129723
 21
201.128093
 31
0.0
  0
LINE
  5
38A
100
AcDbEntity
  8
CENTER
  6
CENTER
 62
     1
100
AcDbLine
 10
207.659382
 20
167.128093
 30
0.0
 11
190.659382
 21
167.128093
 31
0.0
  0
LINE
  5
38B
100
AcDbEntity
  8
0
  6
DASHED
 62
     3
100
AcDbLine
 10
205.659382
 20
174.128093
 30
0.0
 11
197.559382
 21
174.128093
 31
0.0
  0
LINE
  5
38C
100
AcDbEntity
  8
0
  6
DASHED
 62
     3
100
AcDbLine
 10
205.659382
 20
160.128093
 30
0.0
 11
197.559382
 21
160.128093
 31
0.0
  0
LINE
  5
38D
100
AcDbEntity
  8
0
100
AcDbLine
 10
205.659382
 20
154.128093
 30
0.0
 11
192.659382
 21
154.128093
 31
0.0
  0
LINE
  5
38E
100
AcDbEntity
  8
0
100
AcDbLine
 10
191.859382
 20
178.628093
 30
0.0
 11
218.459382
 21
178.628093
 31
0.0
  0
LINE
  5
38F
100
AcDbEntity
  8
0
100
AcDbLine
 10
190.259382
 20
175.128093
 30
0.0
 11
176.859382
 21
175.128093
 31
0.0
  0
LINE
  5
390
100
AcDbEntity
  8
0
100
AcDbLine
 10
172.659382
 20
171.128093
 30
0.0
 11
192.659382
 21
171.128093
 31
0.0
  0
LINE
  5
391
100
AcDbEntity
  8
0
100
AcDbLine
 10
176.859382
 20
173.628093
 30
0.0
 11
174.659382
 21
173.628093
 31
0.0
  0
LINE
  5
392
100
AcDbEntity
  8
0
100
AcDbLine
 10
174.659382
 20
175.128093
 30
0.0
 11
172.659382
 21
175.128093
 31
0.0
  0
ARC
  5
393
100
AcDbEntity
  8
0
100
AcDbCircle
 10
178.459382
 20
176.728093
 30
0.0
 40
1.6
100
AcDbArc
 50
180.0
 51
270.0
  0
LINE
  5
394
100
AcDbEntity
  8
0
100
AcDbLine
 10
192.659382
 20
154.128093
 30
0.0
 11
192.659382
 21
171.128093
 31
0.0
  0
LINE
  5
395
100
AcDbEntity
  8
0
  6
DASHED
 62
     3
100
AcDbLine
 10
197.559382
 20
160.128093
 30
0.0
 11
197.559382
 21
174.128093
 31
0.0
  0
ARC
  5
396
100
AcDbEntity
  8
0
100
AcDbCircle
 10
190.259382
 20
176.728093
 30
0.0
 40
1.6
100
AcDbArc
 50
270.0
 51
0.0
  0
LINE
  5
397
100
AcDbEntity
  8
0
  6
DASHED
 62
     3
100
AcDbLine
 10
197.559382
 20
162.628093
 30
0.0
 11
192.659382
 21
162.628093
 31
0.0
  0
LINE
  5
398
100
AcDbEntity
  8
0
  6
DASHED
 62
     3
100
AcDbLine
 10
197.559382
 20
171.628093
 30
0.0
 11
192.659382
 21
171.628093
 31
0.0
  0
LINE
  5
399
100
AcDbEntity
  8
0
100
AcDbLine
 10
179.018642
 20
179.178093
 30
0.0
 11
181.237127
 21
179.178093
 31
0.0
  0
LINE
  5
39A
100
AcDbEntity
  8
0
100
AcDbLine
 10
179.200425
 20
184.078103
 30
0.0
 11
181.237135
 21
184.078103
 31
0.0
  0
CIRCLE
  5
39B
100
AcDbEntity
  8
0
100
AcDbCircle
 10
184.359382
 20
181.628093
 30
0.0
 40
3.96875
  0
LINE
  5
39C
100
AcDbEntity
  8
0
100
AcDbLine
 10
190.259382
 20
188.628093
 30
0.0
 11
178.459382
 21
188.628093
 31
0.0
  0
ARC
  5
39D
100
AcDbEntity
  8
0
100
AcDbCircle
 10
178.357382
 20
184.828103
 30
0.0
 40
0.599648
100
AcDbArc
 50
87.172109
 51
134.997702
  0
ARC
  5
39E
100
AcDbEntity
  8
0
100
AcDbCircle
 10
178.359382
 20
185.128113
 30
0.0
 40
0.300178
100
AcDbArc
 50
19.969588
 51
94.508609
  0
LINE
  5
39F
100
AcDbEntity
  8
0
100
AcDbLine
 10
176.859382
 20
178.728093
 30
0.0
 11
174.659382
 21
178.728093
 31
0.0
  0
ARC
  5
3A0
100
AcDbEntity
  8
0
100
AcDbCircle
 10
177.059382
 20
185.078113
 30
0.0
 40
0.2
100
AcDbArc
 50
180.0
 51
270.0
  0
ARC
  5
3A1
100
AcDbEntity
  8
0
100
AcDbCircle
 10
177.059382
 20
177.878103
 30
0.0
 40
0.2
100
AcDbArc
 50
90.0
 51
180.0
  0
LINE
  5
3A2
100
AcDbEntity
  8
0
100
AcDbLine
 10
178.309382
 20
184.578103
 30
0.0
 11
178.309382
 21
184.278103
 31
0.0
  0
ARC
  5
3A3
100
AcDbEntity
  8
0
100
AcDbCircle
 10
177.689382
 20
184.278103
 30
0.0
 40
0.3
100
AcDbArc
 50
90.0
 51
180.0
  0
LINE
  5
3A4
100
AcDbEntity
  8
0
100
AcDbLine
 10
177.689382
 20
184.578103
 30
0.0
 11
178.309382
 21
184.578103
 31
0.0
  0
LINE
  5
3A5
100
AcDbEntity
  8
0
100
AcDbLine
 10
177.559332
 20
184.878113
 30
0.0
 11
177.933392
 21
185.252143
 31
0.0
  0
LINE
  5
3A6
100
AcDbEntity
  8
0
100
AcDbLine
 10
178.433658
 20
178.031573
 30
0.0
 11
178.489346
 21
179.37404
 31
0.0
  0
LINE
  5
3A7
100
AcDbEntity
  8
0
100
AcDbLine
 10
177.905363
 20
178.694156
 30
0.0
 11
178.09838
 21
178.464144
 31
0.0
  0
LINE
  5
3A8
100
AcDbEntity
  8
0
100
AcDbLine
 10
177.905363
 20
178.694156
 30
0.0
 11
177.675754
 21
178.501485
 31
0.0
  0
LINE
  5
3A9
100
AcDbEntity
  8
0
100
AcDbLine
 10
177.389382
 20
180.474013
 30
0.0
 11
177.389382
 21
184.278103
 31
0.0
  0
LINE
  5
3AA
100
AcDbEntity
  8
0
100
AcDbLine
 10
178.309382
 20
184.278103
 30
0.0
 11
177.689382
 21
184.278103
 31
0.0
  0
LINE
  5
3AB
100
AcDbEntity
  8
0
100
AcDbLine
 10
177.689382
 20
180.598083
 30
0.0
 11
177.689382
 21
184.278103
 31
0.0
  0
LINE
  5
3AC
100
AcDbEntity
  8
0
100
AcDbLine
 10
178.489346
 20
179.37404
 30
0.0
 11
177.389382
 21
180.474013
 31
0.0
  0
LINE
  5
3AD
100
AcDbEntity
  8
0
100
AcDbLine
 10
177.869411
 20
178.271151
 30
0.0
 11
178.151238
 21
177.935347
 31
0.0
  0
ARC
  5
3AE
100
AcDbEntity
  8
0
100
AcDbCircle
 10
178.273795
 20
178.038205
 30
0.0
 40
0.16
100
AcDbArc
 50
220.005416
 51
357.62463
  0
LINE
  5
3AF
100
AcDbEntity
  8
0
100
AcDbLine
 10
178.09838
 20
178.464144
 30
0.0
 11
177.869411
 21
178.271151
 31
0.0
  0
ARC
  5
3B0
100
AcDbEntity
  8
0
100
AcDbCircle
 10
177.868594
 20
178.271675
 30
0.0
 40
0.3
100
AcDbArc
 50
130.000801
 51
220.08953
  0
LINE
  5
3B1
100
AcDbEntity
  8
0
100
AcDbLine
 10
177.639082
 20
178.07848
 30
0.0
 11
177.922216
 21
177.742122
 31
0.0
  0
LINE
  5
3B2
100
AcDbEntity
  8
0
100
AcDbLine
 10
178.732393
 20
177.998368
 30
0.0
 11
178.819399
 21
178.995479
 31
0.0
  0
ARC
  5
3B3
100
AcDbEntity
  8
0
100
AcDbCircle
 10
179.018642
 20
178.978093
 30
0.0
 40
0.2
100
AcDbArc
 50
90.0
 51
175.0131
  0
ARC
  5
3B4
100
AcDbEntity
  8
0
100
AcDbCircle
 10
179.200425
 20
184.278103
 30
0.0
 40
0.2
100
AcDbArc
 50
199.969588
 51
270.0
  0
LINE
  5
3B5
100
AcDbEntity
  8
0
100
AcDbLine
 10
178.789382
 20
178.651103
 30
0.0
 11
178.789382
 21
179.498113
 31
0.0
  0
LINE
  5
3B6
100
AcDbEntity
  8
0
100
AcDbLine
 10
178.641372
 20
185.231013
 30
0.0
 11
179.01245
 21
184.209799
 31
0.0
  0
LINE
  5
3B7
100
AcDbEntity
  8
0
100
AcDbLine
 10
178.789382
 20
179.498113
 30
0.0
 11
177.689382
 21
180.598083
 31
0.0
  0
ARC
  5
3B8
100
AcDbEntity
  8
0
100
AcDbCircle
 10
178.274134
 20
178.038355
 30
0.0
 40
0.46
100
AcDbArc
 50
220.08953
 51
355.0131
  0
LINE
  5
3B9
100
AcDbEntity
  8
0
100
AcDbLine
 10
177.059382
 20
184.878113
 30
0.0
 11
177.559332
 21
184.878113
 31
0.0
  0
LINE
  5
3BA
100
AcDbEntity
  8
0
100
AcDbLine
 10
177.059382
 20
178.078103
 30
0.0
 11
177.639399
 21
178.078103
 31
0.0
  0
ARC
  5
3BB
100
AcDbEntity
  8
0
100
AcDbCircle
 10
178.459382
 20
187.028093
 30
0.0
 40
1.6
100
AcDbArc
 50
90.0
 51
180.0
  0
ARC
  5
3BC
100
AcDbEntity
  8
0
100
AcDbCircle
 10
190.361382
 20
184.828103
 30
0.0
 40
0.599648
100
AcDbArc
 50
45.002298
 51
92.827891
  0
ARC
  5
3BD
100
AcDbEntity
  8
0
100
AcDbCircle
 10
190.359382
 20
185.128113
 30
0.0
 40
0.300178
100
AcDbArc
 50
85.491391
 51
160.030412
  0
LINE
  5
3BE
100
AcDbEntity
  8
0
100
AcDbLine
 10
190.077392
 20
185.231013
 30
0.0
 11
189.706314
 21
184.209799
 31
0.0
  0
LINE
  5
3BF
100
AcDbEntity
  8
0
100
AcDbLine
 10
190.285106
 20
178.031573
 30
0.0
 11
190.229419
 21
179.37404
 31
0.0
  0
LINE
  5
3C0
100
AcDbEntity
  8
0
100
AcDbLine
 10
189.986371
 20
177.998368
 30
0.0
 11
189.899365
 21
178.995479
 31
0.0
  0
ARC
  5
3C1
100
AcDbEntity
  8
0
100
AcDbCircle
 10
189.518339
 20
184.278103
 30
0.0
 40
0.2
100
AcDbArc
 50
270.0
 51
340.030412
  0
ARC
  5
3C2
100
AcDbEntity
  8
0
100
AcDbCircle
 10
189.700122
 20
178.978093
 30
0.0
 40
0.2
100
AcDbArc
 50
4.9869
 51
90.0
  0
LINE
  5
3C3
100
AcDbEntity
  8
0
100
AcDbLine
 10
189.929382
 20
178.651103
 30
0.0
 11
189.929382
 21
179.498113
 31
0.0
  0
LINE
  5
3C4
100
AcDbEntity
  8
0
100
AcDbLine
 10
190.409382
 20
184.578103
 30
0.0
 11
190.409382
 21
184.278103
 31
0.0
  0
ARC
  5
3C5
100
AcDbEntity
  8
0
100
AcDbCircle
 10
191.029382
 20
184.278103
 30
0.0
 40
0.3
100
AcDbArc
 50
0.0
 51
90.0
  0
LINE
  5
3C6
100
AcDbEntity
  8
0
100
AcDbLine
 10
191.159432
 20
184.878113
 30
0.0
 11
190.785372
 21
185.252143
 31
0.0
  0
LINE
  5
3C7
100
AcDbEntity
  8
0
100
AcDbLine
 10
191.659382
 20
184.878113
 30
0.0
 11
191.159432
 21
184.878113
 31
0.0
  0
ARC
  5
3C8
100
AcDbEntity
  8
0
100
AcDbCircle
 10
191.659382
 20
185.078113
 30
0.0
 40
0.2
100
AcDbArc
 50
270.0
 51
0.0
  0
LINE
  5
3C9
100
AcDbEntity
  8
0
100
AcDbLine
 10
191.029382
 20
184.578103
 30
0.0
 11
190.409382
 21
184.578103
 31
0.0
  0
LINE
  5
3CA
100
AcDbEntity
  8
0
100
AcDbLine
 10
190.813401
 20
178.694156
 30
0.0
 11
191.04301
 21
178.501485
 31
0.0
  0
LINE
  5
3CB
100
AcDbEntity
  8
0
100
AcDbLine
 10
190.813401
 20
178.694156
 30
0.0
 11
190.620385
 21
178.464144
 31
0.0
  0
LINE
  5
3CC
100
AcDbEntity
  8
0
100
AcDbLine
 10
191.329382
 20
180.474013
 30
0.0
 11
191.329382
 21
184.278103
 31
0.0
  0
LINE
  5
3CD
100
AcDbEntity
  8
0
100
AcDbLine
 10
191.029382
 20
180.598083
 30
0.0
 11
191.029382
 21
184.278103
 31
0.0
  0
LINE
  5
3CE
100
AcDbEntity
  8
0
100
AcDbLine
 10
190.409382
 20
184.278103
 30
0.0
 11
191.029382
 21
184.278103
 31
0.0
  0
LINE
  5
3CF
100
AcDbEntity
  8
0
100
AcDbLine
 10
191.659382
 20
178.078103
 30
0.0
 11
191.079365
 21
178.078103
 31
0.0
  0
ARC
  5
3D0
100
AcDbEntity
  8
0
100
AcDbCircle
 10
190.85017
 20
178.271675
 30
0.0
 40
0.3
100
AcDbArc
 50
319.91047
 51
49.999199
  0
ARC
  5
3D1
100
AcDbEntity
  8
0
100
AcDbCircle
 10
191.659382
 20
177.878103
 30
0.0
 40
0.2
100
AcDbArc
 50
0.0
 51
90.0
  0
LINE
  5
3D2
100
AcDbEntity
  8
0
100
AcDbLine
 10
190.849353
 20
178.271151
 30
0.0
 11
190.567526
 21
177.935347
 31
0.0
  0
LINE
  5
3D3
100
AcDbEntity
  8
0
100
AcDbLine
 10
190.620385
 20
178.464144
 30
0.0
 11
190.849353
 21
178.271151
 31
0.0
  0
LINE
  5
3D4
100
AcDbEntity
  8
0
100
AcDbLine
 10
191.079682
 20
178.07848
 30
0.0
 11
190.796548
 21
177.742122
 31
0.0
  0
LINE
  5
3D5
100
AcDbEntity
  8
0
100
AcDbLine
 10
190.229419
 20
179.37404
 30
0.0
 11
191.329382
 21
180.474013
 31
0.0
  0
LINE
  5
3D6
100
AcDbEntity
  8
0
100
AcDbLine
 10
189.929382
 20
179.498113
 30
0.0
 11
191.029382
 21
180.598083
 31
0.0
  0
ARC
  5
3D7
100
AcDbEntity
  8
0
100
AcDbCircle
 10
190.44463
 20
178.038355
 30
0.0
 40
0.46
100
AcDbArc
 50
184.9869
 51
319.91047
  0
ARC
  5
3D8
100
AcDbEntity
  8
0
100
AcDbCircle
 10
190.444969
 20
178.038205
 30
0.0
 40
0.16
100
AcDbArc
 50
182.37537
 51
319.994584
  0
LINE
  5
3D9
100
AcDbEntity
  8
0
100
AcDbLine
 10
189.700122
 20
179.178093
 30
0.0
 11
187.481637
 21
179.178093
 31
0.0
  0
LINE
  5
3DA
100
AcDbEntity
  8
0
100
AcDbLine
 10
189.518339
 20
184.078103
 30
0.0
 11
187.481629
 21
184.078103
 31
0.0
  0
ARC
  5
3DB
100
AcDbEntity
  8
0
100
AcDbCircle
 10
190.259382
 20
187.028093
 30
0.0
 40
1.6
100
AcDbArc
 50
0.0
 51
90.0
  0
LINE
  5
3DC
100
AcDbEntity
  8
0
100
AcDbLine
 10
205.659382
 20
171.128093
 30
0.0
 11
237.659382
 21
171.128093
 31
0.0
  0
LINE
  5
3DD
100
AcDbEntity
  8
0
100
AcDbLine
 10
220.059382
 20
175.128093
 30
0.0
 11
233.459382
 21
175.128093
 31
0.0
  0
LINE
  5
3DE
100
AcDbEntity
  8
0
100
AcDbLine
 10
205.659382
 20
154.128093
 30
0.0
 11
205.659382
 21
171.128093
 31
0.0
  0
ARC
  5
3DF
100
AcDbEntity
  8
0
100
AcDbCircle
 10
220.059382
 20
176.728093
 30
0.0
 40
1.6
100
AcDbArc
 50
180.0
 51
270.0
  0
ARC
  5
3E0
100
AcDbEntity
  8
0
100
AcDbCircle
 10
231.859382
 20
176.728093
 30
0.0
 40
1.6
100
AcDbArc
 50
270.0
 51
0.0
  0
LINE
  5
3E1
100
AcDbEntity
  8
0
100
AcDbLine
 10
235.659382
 20
175.128093
 30
0.0
 11
237.659382
 21
175.128093
 31
0.0
  0
LINE
  5
3E2
100
AcDbEntity
  8
0
100
AcDbLine
 10
233.459382
 20
173.628093
 30
0.0
 11
235.659382
 21
173.628093
 31
0.0
  0
CIRCLE
  5
3E3
100
AcDbEntity
  8
0
100
AcDbCircle
 10
225.959382
 20
181.628093
 30
0.0
 40
3.96875
  0
LINE
  5
3E4
100
AcDbEntity
  8
0
100
AcDbLine
 10
220.059382
 20
188.628093
 30
0.0
 11
231.859382
 21
188.628093
 31
0.0
  0
ARC
  5
3E5
100
AcDbEntity
  8
0
100
AcDbCircle
 10
219.957382
 20
184.828103
 30
0.0
 40
0.599648
100
AcDbArc
 50
87.172109
 51
134.997702
  0
ARC
  5
3E6
100
AcDbEntity
  8
0
100
AcDbCircle
 10
219.959382
 20
185.128113
 30
0.0
 40
0.300178
100
AcDbArc
 50
19.969588
 51
94.508609
  0
LINE
  5
3E7
100
AcDbEntity
  8
0
100
AcDbLine
 10
220.800425
 20
184.078103
 30
0.0
 11
222.837135
 21
184.078103
 31
0.0
  0
LINE
  5
3E8
100
AcDbEntity
  8
0
100
AcDbLine
 10
220.618642
 20
179.178093
 30
0.0
 11
222.837127
 21
179.178093
 31
0.0
  0
ARC
  5
3E9
100
AcDbEntity
  8
0
100
AcDbCircle
 10
219.873795
 20
178.038205
 30
0.0
 40
0.16
100
AcDbArc
 50
220.005416
 51
357.62463
  0
ARC
  5
3EA
100
AcDbEntity
  8
0
100
AcDbCircle
 10
219.874134
 20
178.038355
 30
0.0
 40
0.46
100
AcDbArc
 50
220.08953
 51
355.0131
  0
LINE
  5
3EB
100
AcDbEntity
  8
0
100
AcDbLine
 10
219.239082
 20
178.07848
 30
0.0
 11
219.522216
 21
177.742122
 31
0.0
  0
LINE
  5
3EC
100
AcDbEntity
  8
0
100
AcDbLine
 10
219.69838
 20
178.464144
 30
0.0
 11
219.469411
 21
178.271151
 31
0.0
  0
LINE
  5
3ED
100
AcDbEntity
  8
0
100
AcDbLine
 10
219.469411
 20
178.271151
 30
0.0
 11
219.751238
 21
177.935347
 31
0.0
  0
ARC
  5
3EE
100
AcDbEntity
  8
0
100
AcDbCircle
 10
218.659382
 20
177.878103
 30
0.0
 40
0.2
100
AcDbArc
 50
90.0
 51
180.0
  0
ARC
  5
3EF
100
AcDbEntity
  8
0
100
AcDbCircle
 10
219.468594
 20
178.271675
 30
0.0
 40
0.3
100
AcDbArc
 50
130.000801
 51
220.08953
  0
LINE
  5
3F0
100
AcDbEntity
  8
0
100
AcDbLine
 10
218.659382
 20
178.078103
 30
0.0
 11
219.239399
 21
178.078103
 31
0.0
  0
LINE
  5
3F1
100
AcDbEntity
  8
0
100
AcDbLine
 10
219.909382
 20
184.278103
 30
0.0
 11
219.289382
 21
184.278103
 31
0.0
  0
LINE
  5
3F2
100
AcDbEntity
  8
0
100
AcDbLine
 10
220.389382
 20
179.498113
 30
0.0
 11
219.289382
 21
180.598083
 31
0.0
  0
LINE
  5
3F3
100
AcDbEntity
  8
0
100
AcDbLine
 10
220.089346
 20
179.37404
 30
0.0
 11
218.989382
 21
180.474013
 31
0.0
  0
LINE
  5
3F4
100
AcDbEntity
  8
0
100
AcDbLine
 10
219.289382
 20
180.598083
 30
0.0
 11
219.289382
 21
184.278103
 31
0.0
  0
LINE
  5
3F5
100
AcDbEntity
  8
0
100
AcDbLine
 10
218.989382
 20
180.474013
 30
0.0
 11
218.989382
 21
184.278103
 31
0.0
  0
LINE
  5
3F6
100
AcDbEntity
  8
0
100
AcDbLine
 10
220.389382
 20
178.651103
 30
0.0
 11
220.389382
 21
179.498113
 31
0.0
  0
ARC
  5
3F7
100
AcDbEntity
  8
0
100
AcDbCircle
 10
220.618642
 20
178.978093
 30
0.0
 40
0.2
100
AcDbArc
 50
90.0
 51
175.0131
  0
ARC
  5
3F8
100
AcDbEntity
  8
0
100
AcDbCircle
 10
220.800425
 20
184.278103
 30
0.0
 40
0.2
100
AcDbArc
 50
199.969588
 51
270.0
  0
LINE
  5
3F9
100
AcDbEntity
  8
0
100
AcDbLine
 10
219.505363
 20
178.694156
 30
0.0
 11
219.69838
 21
178.464144
 31
0.0
  0
LINE
  5
3FA
100
AcDbEntity
  8
0
100
AcDbLine
 10
219.505363
 20
178.694156
 30
0.0
 11
219.275754
 21
178.501485
 31
0.0
  0
LINE
  5
3FB
100
AcDbEntity
  8
0
100
AcDbLine
 10
220.332393
 20
177.998368
 30
0.0
 11
220.419399
 21
178.995479
 31
0.0
  0
LINE
  5
3FC
100
AcDbEntity
  8
0
100
AcDbLine
 10
220.033658
 20
178.031573
 30
0.0
 11
220.089346
 21
179.37404
 31
0.0
  0
LINE
  5
3FD
100
AcDbEntity
  8
0
100
AcDbLine
 10
219.289382
 20
184.578103
 30
0.0
 11
219.909382
 21
184.578103
 31
0.0
  0
ARC
  5
3FE
100
AcDbEntity
  8
0
100
AcDbCircle
 10
218.659382
 20
185.078113
 30
0.0
 40
0.2
100
AcDbArc
 50
180.0
 51
270.0
  0
LINE
  5
3FF
100
AcDbEntity
  8
0
100
AcDbLine
 10
218.659382
 20
184.878113
 30
0.0
 11
219.159332
 21
184.878113
 31
0.0
  0
LINE
  5
400
100
AcDbEntity
  8
0
100
AcDbLine
 10
219.159332
 20
184.878113
 30
0.0
 11
219.533392
 21
185.252143
 31
0.0
  0
ARC
  5
401
100
AcDbEntity
  8
0
100
AcDbCircle
 10
219.289382
 20
184.278103
 30
0.0
 40
0.3
100
AcDbArc
 50
90.0
 51
180.0
  0
LINE
  5
402
100
AcDbEntity
  8
0
100
AcDbLine
 10
220.241372
 20
185.231013
 30
0.0
 11
220.61245
 21
184.209799
 31
0.0
  0
LINE
  5
403
100
AcDbEntity
  8
0
100
AcDbLine
 10
219.909382
 20
184.578103
 30
0.0
 11
219.909382
 21
184.278103
 31
0.0
  0
ARC
  5
404
100
AcDbEntity
  8
0
100
AcDbCircle
 10
220.059382
 20
187.028093
 30
0.0
 40
1.6
100
AcDbArc
 50
90.0
 51
180.0
  0
ARC
  5
405
100
AcDbEntity
  8
0
100
AcDbCircle
 10
231.959382
 20
185.128113
 30
0.0
 40
0.300178
100
AcDbArc
 50
85.491391
 51
160.030412
  0
ARC
  5
406
100
AcDbEntity
  8
0
100
AcDbCircle
 10
231.961382
 20
184.828103
 30
0.0
 40
0.599648
100
AcDbArc
 50
45.002298
 51
92.827891
  0
LINE
  5
407
100
AcDbEntity
  8
0
100
AcDbLine
 10
233.259382
 20
178.078103
 30
0.0
 11
232.679365
 21
178.078103
 31
0.0
  0
LINE
  5
408
100
AcDbEntity
  8
0
100
AcDbLine
 10
233.259382
 20
184.878113
 30
0.0
 11
232.759432
 21
184.878113
 31
0.0
  0
LINE
  5
409
100
AcDbEntity
  8
0
100
AcDbLine
 10
232.679682
 20
178.07848
 30
0.0
 11
232.396548
 21
177.742122
 31
0.0
  0
ARC
  5
40A
100
AcDbEntity
  8
0
100
AcDbCircle
 10
232.45017
 20
178.271675
 30
0.0
 40
0.3
100
AcDbArc
 50
319.91047
 51
49.999199
  0
LINE
  5
40B
100
AcDbEntity
  8
0
100
AcDbLine
 10
232.220385
 20
178.464144
 30
0.0
 11
232.449353
 21
178.271151
 31
0.0
  0
ARC
  5
40C
100
AcDbEntity
  8
0
100
AcDbCircle
 10
232.044969
 20
178.038205
 30
0.0
 40
0.16
100
AcDbArc
 50
182.37537
 51
319.994584
  0
ARC
  5
40D
100
AcDbEntity
  8
0
100
AcDbCircle
 10
232.04463
 20
178.038355
 30
0.0
 40
0.46
100
AcDbArc
 50
184.9869
 51
319.91047
  0
LINE
  5
40E
100
AcDbEntity
  8
0
100
AcDbLine
 10
232.449353
 20
178.271151
 30
0.0
 11
232.167526
 21
177.935347
 31
0.0
  0
LINE
  5
40F
100
AcDbEntity
  8
0
100
AcDbLine
 10
231.829419
 20
179.37404
 30
0.0
 11
232.929382
 21
180.474013
 31
0.0
  0
LINE
  5
410
100
AcDbEntity
  8
0
100
AcDbLine
 10
231.529382
 20
178.651103
 30
0.0
 11
231.529382
 21
179.498113
 31
0.0
  0
LINE
  5
411
100
AcDbEntity
  8
0
100
AcDbLine
 10
232.629382
 20
180.598083
 30
0.0
 11
232.629382
 21
184.278103
 31
0.0
  0
LINE
  5
412
100
AcDbEntity
  8
0
100
AcDbLine
 10
232.009382
 20
184.278103
 30
0.0
 11
232.629382
 21
184.278103
 31
0.0
  0
LINE
  5
413
100
AcDbEntity
  8
0
100
AcDbLine
 10
231.529382
 20
179.498113
 30
0.0
 11
232.629382
 21
180.598083
 31
0.0
  0
ARC
  5
414
100
AcDbEntity
  8
0
100
AcDbCircle
 10
231.118339
 20
184.278103
 30
0.0
 40
0.2
100
AcDbArc
 50
270.0
 51
340.030412
  0
ARC
  5
415
100
AcDbEntity
  8
0
100
AcDbCircle
 10
231.300122
 20
178.978093
 30
0.0
 40
0.2
100
AcDbArc
 50
4.9869
 51
90.0
  0
LINE
  5
416
100
AcDbEntity
  8
0
100
AcDbLine
 10
232.929382
 20
180.474013
 30
0.0
 11
232.929382
 21
184.278103
 31
0.0
  0
LINE
  5
417
100
AcDbEntity
  8
0
100
AcDbLine
 10
232.413401
 20
178.694156
 30
0.0
 11
232.64301
 21
178.501485
 31
0.0
  0
LINE
  5
418
100
AcDbEntity
  8
0
100
AcDbLine
 10
232.413401
 20
178.694156
 30
0.0
 11
232.220385
 21
178.464144
 31
0.0
  0
LINE
  5
419
100
AcDbEntity
  8
0
100
AcDbLine
 10
231.586371
 20
177.998368
 30
0.0
 11
231.499365
 21
178.995479
 31
0.0
  0
LINE
  5
41A
100
AcDbEntity
  8
0
100
AcDbLine
 10
231.885106
 20
178.031573
 30
0.0
 11
231.829419
 21
179.37404
 31
0.0
  0
LINE
  5
41B
100
AcDbEntity
  8
0
100
AcDbLine
 10
232.759432
 20
184.878113
 30
0.0
 11
232.385372
 21
185.252143
 31
0.0
  0
LINE
  5
41C
100
AcDbEntity
  8
0
100
AcDbLine
 10
232.629382
 20
184.578103
 30
0.0
 11
232.009382
 21
184.578103
 31
0.0
  0
ARC
  5
41D
100
AcDbEntity
  8
0
100
AcDbCircle
 10
232.629382
 20
184.278103
 30
0.0
 40
0.3
100
AcDbArc
 50
0.0
 51
90.0
  0
LINE
  5
41E
100
AcDbEntity
  8
0
100
AcDbLine
 10
231.677392
 20
185.231013
 30
0.0
 11
231.306314
 21
184.209799
 31
0.0
  0
LINE
  5
41F
100
AcDbEntity
  8
0
100
AcDbLine
 10
232.009382
 20
184.578103
 30
0.0
 11
232.009382
 21
184.278103
 31
0.0
  0
LINE
  5
420
100
AcDbEntity
  8
0
100
AcDbLine
 10
231.118339
 20
184.078103
 30
0.0
 11
229.081629
 21
184.078103
 31
0.0
  0
LINE
  5
421
100
AcDbEntity
  8
0
100
AcDbLine
 10
231.300122
 20
179.178093
 30
0.0
 11
229.081637
 21
179.178093
 31
0.0
  0
LINE
  5
422
100
AcDbEntity
  8
0
100
AcDbLine
 10
233.459382
 20
178.728093
 30
0.0
 11
235.659382
 21
178.728093
 31
0.0
  0
ARC
  5
423
100
AcDbEntity
  8
0
100
AcDbCircle
 10
233.259382
 20
177.878103
 30
0.0
 40
0.2
100
AcDbArc
 50
0.0
 51
90.0
  0
ARC
  5
424
100
AcDbEntity
  8
0
100
AcDbCircle
 10
233.259382
 20
185.078113
 30
0.0
 40
0.2
100
AcDbArc
 50
270.0
 51
0.0
  0
ARC
  5
425
100
AcDbEntity
  8
0
100
AcDbCircle
 10
231.859382
 20
187.028093
 30
0.0
 40
1.6
100
AcDbArc
 50
0.0
 51
90.0
  0
LINE
  5
426
100
AcDbEntity
  8
CENTER
  6
CENTER
 62
     1
100
AcDbLine
 10
207.659382
 20
235.128093
 30
0.0
 11
190.659382
 21
235.128093
 31
0.0
  0
LINE
  5
427
100
AcDbEntity
  8
0
100
AcDbLine
 10
191.859382
 20
223.628093
 30
0.0
 11
218.459382
 21
223.628093
 31
0.0
  0
LINE
  5
428
100
AcDbEntity
  8
0
  6
DASHED
 62
     3
100
AcDbLine
 10
205.659382
 20
228.128093
 30
0.0
 11
197.559382
 21
228.128093
 31
0.0
  0
LINE
  5
429
100
AcDbEntity
  8
0
  6
DASHED
 62
     3
100
AcDbLine
 10
205.659382
 20
242.128093
 30
0.0
 11
197.559382
 21
242.128093
 31
0.0
  0
LINE
  5
42A
100
AcDbEntity
  8
0
100
AcDbLine
 10
205.659382
 20
248.128093
 30
0.0
 11
192.659382
 21
248.128093
 31
0.0
  0
LINE
  5
42B
100
AcDbEntity
  8
0
100
AcDbLine
 10
192.659382
 20
248.128093
 30
0.0
 11
192.659382
 21
231.128093
 31
0.0
  0
LINE
  5
42C
100
AcDbEntity
  8
0
100
AcDbLine
 10
179.018642
 20
223.078093
 30
0.0
 11
181.237127
 21
223.078093
 31
0.0
  0
LINE
  5
42D
100
AcDbEntity
  8
0
100
AcDbLine
 10
179.200425
 20
218.178083
 30
0.0
 11
181.237135
 21
218.178083
 31
0.0
  0
LINE
  5
42E
100
AcDbEntity
  8
0
100
AcDbLine
 10
190.259382
 20
227.128093
 30
0.0
 11
176.859382
 21
227.128093
 31
0.0
  0
CIRCLE
  5
42F
100
AcDbEntity
  8
0
100
AcDbCircle
 10
184.359382
 20
220.628093
 30
0.0
 40
3.96875
  0
LINE
  5
430
100
AcDbEntity
  8
0
100
AcDbLine
 10
190.259382
 20
213.628093
 30
0.0
 11
178.459382
 21
213.628093
 31
0.0
  0
LINE
  5
431
100
AcDbEntity
  8
0
100
AcDbLine
 10
172.659382
 20
231.128093
 30
0.0
 11
192.659382
 21
231.128093
 31
0.0
  0
ARC
  5
432
100
AcDbEntity
  8
0
100
AcDbCircle
 10
178.459382
 20
225.528093
 30
0.0
 40
1.6
100
AcDbArc
 50
90.0
 51
180.0
  0
LINE
  5
433
100
AcDbEntity
  8
0
100
AcDbLine
 10
177.689382
 20
221.658103
 30
0.0
 11
177.689382
 21
217.978083
 31
0.0
  0
LINE
  5
434
100
AcDbEntity
  8
0
100
AcDbLine
 10
177.389382
 20
221.782173
 30
0.0
 11
177.389382
 21
217.978083
 31
0.0
  0
ARC
  5
435
100
AcDbEntity
  8
0
100
AcDbCircle
 10
179.200425
 20
217.978083
 30
0.0
 40
0.2
100
AcDbArc
 50
90.0
 51
160.030412
  0
ARC
  5
436
100
AcDbEntity
  8
0
100
AcDbCircle
 10
177.059382
 20
217.178073
 30
0.0
 40
0.2
100
AcDbArc
 50
90.0
 51
180.0
  0
ARC
  5
437
100
AcDbEntity
  8
0
100
AcDbCircle
 10
178.357382
 20
217.428083
 30
0.0
 40
0.599648
100
AcDbArc
 50
225.002298
 51
272.827891
  0
ARC
  5
438
100
AcDbEntity
  8
0
100
AcDbCircle
 10
178.359382
 20
217.128073
 30
0.0
 40
0.300178
100
AcDbArc
 50
265.491391
 51
340.030412
  0
LINE
  5
439
100
AcDbEntity
  8
0
100
AcDbLine
 10
178.309382
 20
217.978083
 30
0.0
 11
177.689382
 21
217.978083
 31
0.0
  0
LINE
  5
43A
100
AcDbEntity
  8
0
100
AcDbLine
 10
177.689382
 20
217.678083
 30
0.0
 11
178.309382
 21
217.678083
 31
0.0
  0
LINE
  5
43B
100
AcDbEntity
  8
0
100
AcDbLine
 10
178.309382
 20
217.678083
 30
0.0
 11
178.309382
 21
217.978083
 31
0.0
  0
LINE
  5
43C
100
AcDbEntity
  8
0
100
AcDbLine
 10
177.559332
 20
217.378073
 30
0.0
 11
177.933392
 21
217.004043
 31
0.0
  0
ARC
  5
43D
100
AcDbEntity
  8
0
100
AcDbCircle
 10
177.689382
 20
217.978083
 30
0.0
 40
0.3
100
AcDbArc
 50
180.0
 51
270.0
  0
LINE
  5
43E
100
AcDbEntity
  8
0
100
AcDbLine
 10
178.641372
 20
217.025173
 30
0.0
 11
179.01245
 21
218.046387
 31
0.0
  0
ARC
  5
43F
100
AcDbEntity
  8
0
100
AcDbCircle
 10
178.459382
 20
215.228093
 30
0.0
 40
1.6
100
AcDbArc
 50
180.0
 51
270.0
  0
LINE
  5
440
100
AcDbEntity
  8
0
100
AcDbLine
 10
177.059382
 20
217.378073
 30
0.0
 11
177.559332
 21
217.378073
 31
0.0
  0
LINE
  5
441
100
AcDbEntity
  8
0
100
AcDbLine
 10
176.859382
 20
223.528093
 30
0.0
 11
174.659382
 21
223.528093
 31
0.0
  0
ARC
  5
442
100
AcDbEntity
  8
0
100
AcDbCircle
 10
177.059382
 20
224.378083
 30
0.0
 40
0.2
100
AcDbArc
 50
180.0
 51
270.0
  0
LINE
  5
443
100
AcDbEntity
  8
0
100
AcDbLine
 10
178.489346
 20
222.882147
 30
0.0
 11
177.389382
 21
221.782173
 31
0.0
  0
LINE
  5
444
100
AcDbEntity
  8
0
100
AcDbLine
 10
177.869411
 20
223.985036
 30
0.0
 11
178.151238
 21
224.320839
 31
0.0
  0
LINE
  5
445
100
AcDbEntity
  8
0
100
AcDbLine
 10
178.433658
 20
224.224613
 30
0.0
 11
178.489346
 21
222.882147
 31
0.0
  0
ARC
  5
446
100
AcDbEntity
  8
0
100
AcDbCircle
 10
178.273795
 20
224.217982
 30
0.0
 40
0.16
100
AcDbArc
 50
2.37537
 51
139.994584
  0
LINE
  5
447
100
AcDbEntity
  8
0
100
AcDbLine
 10
177.905363
 20
223.562031
 30
0.0
 11
178.09838
 21
223.792042
 31
0.0
  0
LINE
  5
448
100
AcDbEntity
  8
0
100
AcDbLine
 10
178.09838
 20
223.792042
 30
0.0
 11
177.869411
 21
223.985036
 31
0.0
  0
LINE
  5
449
100
AcDbEntity
  8
0
100
AcDbLine
 10
177.905363
 20
223.562031
 30
0.0
 11
177.675754
 21
223.754701
 31
0.0
  0
ARC
  5
44A
100
AcDbEntity
  8
0
100
AcDbCircle
 10
177.868594
 20
223.984512
 30
0.0
 40
0.3
100
AcDbArc
 50
139.91047
 51
229.999199
  0
LINE
  5
44B
100
AcDbEntity
  8
0
100
AcDbLine
 10
177.639082
 20
224.177707
 30
0.0
 11
177.922216
 21
224.514064
 31
0.0
  0
LINE
  5
44C
100
AcDbEntity
  8
0
100
AcDbLine
 10
178.789382
 20
223.605083
 30
0.0
 11
178.789382
 21
222.758073
 31
0.0
  0
ARC
  5
44D
100
AcDbEntity
  8
0
100
AcDbCircle
 10
179.018642
 20
223.278093
 30
0.0
 40
0.2
100
AcDbArc
 50
184.9869
 51
270.0
  0
LINE
  5
44E
100
AcDbEntity
  8
0
100
AcDbLine
 10
178.732393
 20
224.257819
 30
0.0
 11
178.819399
 21
223.260708
 31
0.0
  0
LINE
  5
44F
100
AcDbEntity
  8
0
100
AcDbLine
 10
178.789382
 20
222.758073
 30
0.0
 11
177.689382
 21
221.658103
 31
0.0
  0
ARC
  5
450
100
AcDbEntity
  8
0
100
AcDbCircle
 10
178.274134
 20
224.217832
 30
0.0
 40
0.46
100
AcDbArc
 50
4.9869
 51
139.91047
  0
LINE
  5
451
100
AcDbEntity
  8
0
100
AcDbLine
 10
177.059382
 20
224.178083
 30
0.0
 11
177.639399
 21
224.178083
 31
0.0
  0
LINE
  5
452
100
AcDbEntity
  8
0
100
AcDbLine
 10
176.859382
 20
228.628093
 30
0.0
 11
174.659382
 21
228.628093
 31
0.0
  0
LINE
  5
453
100
AcDbEntity
  8
0
100
AcDbLine
 10
174.659382
 20
227.128093
 30
0.0
 11
172.659382
 21
227.128093
 31
0.0
  0
ARC
  5
454
100
AcDbEntity
  8
0
100
AcDbCircle
 10
190.259382
 20
225.528093
 30
0.0
 40
1.6
100
AcDbArc
 50
0.0
 51
90.0
  0
ARC
  5
455
100
AcDbEntity
  8
0
100
AcDbCircle
 10
189.518339
 20
217.978083
 30
0.0
 40
0.2
100
AcDbArc
 50
19.969588
 51
90.0
  0
LINE
  5
456
100
AcDbEntity
  8
0
100
AcDbLine
 10
191.029382
 20
221.658103
 30
0.0
 11
191.029382
 21
217.978083
 31
0.0
  0
LINE
  5
457
100
AcDbEntity
  8
0
100
AcDbLine
 10
191.329382
 20
221.782173
 30
0.0
 11
191.329382
 21
217.978083
 31
0.0
  0
LINE
  5
458
100
AcDbEntity
  8
0
100
AcDbLine
 10
190.077392
 20
217.025173
 30
0.0
 11
189.706314
 21
218.046387
 31
0.0
  0
ARC
  5
459
100
AcDbEntity
  8
0
100
AcDbCircle
 10
190.361382
 20
217.428083
 30
0.0
 40
0.599648
100
AcDbArc
 50
267.172109
 51
314.997702
  0
LINE
  5
45A
100
AcDbEntity
  8
0
100
AcDbLine
 10
191.659382
 20
217.378073
 30
0.0
 11
191.159432
 21
217.378073
 31
0.0
  0
ARC
  5
45B
100
AcDbEntity
  8
0
100
AcDbCircle
 10
191.659382
 20
217.178073
 30
0.0
 40
0.2
100
AcDbArc
 50
0.0
 51
90.0
  0
LINE
  5
45C
100
AcDbEntity
  8
0
100
AcDbLine
 10
191.029382
 20
217.678083
 30
0.0
 11
190.409382
 21
217.678083
 31
0.0
  0
LINE
  5
45D
100
AcDbEntity
  8
0
100
AcDbLine
 10
190.409382
 20
217.678083
 30
0.0
 11
190.409382
 21
217.978083
 31
0.0
  0
LINE
  5
45E
100
AcDbEntity
  8
0
100
AcDbLine
 10
190.409382
 20
217.978083
 30
0.0
 11
191.029382
 21
217.978083
 31
0.0
  0
ARC
  5
45F
100
AcDbEntity
  8
0
100
AcDbCircle
 10
191.029382
 20
217.978083
 30
0.0
 40
0.3
100
AcDbArc
 50
270.0
 51
0.0
  0
LINE
  5
460
100
AcDbEntity
  8
0
100
AcDbLine
 10
191.159432
 20
217.378073
 30
0.0
 11
190.785372
 21
217.004043
 31
0.0
  0
ARC
  5
461
100
AcDbEntity
  8
0
100
AcDbCircle
 10
190.359382
 20
217.128073
 30
0.0
 40
0.300178
100
AcDbArc
 50
199.969588
 51
274.508609
  0
ARC
  5
462
100
AcDbEntity
  8
0
100
AcDbCircle
 10
190.259382
 20
215.228093
 30
0.0
 40
1.6
100
AcDbArc
 50
270.0
 51
0.0
  0
LINE
  5
463
100
AcDbEntity
  8
0
100
AcDbLine
 10
189.518339
 20
218.178083
 30
0.0
 11
187.481629
 21
218.178083
 31
0.0
  0
ARC
  5
464
100
AcDbEntity
  8
0
100
AcDbCircle
 10
189.700122
 20
223.278093
 30
0.0
 40
0.2
100
AcDbArc
 50
270.0
 51
355.0131
  0
LINE
  5
465
100
AcDbEntity
  8
0
100
AcDbLine
 10
190.285106
 20
224.224613
 30
0.0
 11
190.229419
 21
222.882147
 31
0.0
  0
LINE
  5
466
100
AcDbEntity
  8
0
100
AcDbLine
 10
189.929382
 20
223.605083
 30
0.0
 11
189.929382
 21
222.758073
 31
0.0
  0
LINE
  5
467
100
AcDbEntity
  8
0
100
AcDbLine
 10
189.986371
 20
224.257819
 30
0.0
 11
189.899365
 21
223.260708
 31
0.0
  0
LINE
  5
468
100
AcDbEntity
  8
0
100
AcDbLine
 10
191.659382
 20
224.178083
 30
0.0
 11
191.079365
 21
224.178083
 31
0.0
  0
ARC
  5
469
100
AcDbEntity
  8
0
100
AcDbCircle
 10
191.659382
 20
224.378083
 30
0.0
 40
0.2
100
AcDbArc
 50
270.0
 51
0.0
  0
LINE
  5
46A
100
AcDbEntity
  8
0
100
AcDbLine
 10
190.849353
 20
223.985036
 30
0.0
 11
190.567526
 21
224.320839
 31
0.0
  0
LINE
  5
46B
100
AcDbEntity
  8
0
100
AcDbLine
 10
190.813401
 20
223.562031
 30
0.0
 11
191.04301
 21
223.754701
 31
0.0
  0
LINE
  5
46C
100
AcDbEntity
  8
0
100
AcDbLine
 10
190.620385
 20
223.792042
 30
0.0
 11
190.849353
 21
223.985036
 31
0.0
  0
LINE
  5
46D
100
AcDbEntity
  8
0
100
AcDbLine
 10
190.813401
 20
223.562031
 30
0.0
 11
190.620385
 21
223.792042
 31
0.0
  0
LINE
  5
46E
100
AcDbEntity
  8
0
100
AcDbLine
 10
191.079682
 20
224.177707
 30
0.0
 11
190.796548
 21
224.514064
 31
0.0
  0
ARC
  5
46F
100
AcDbEntity
  8
0
100
AcDbCircle
 10
190.85017
 20
223.984512
 30
0.0
 40
0.3
100
AcDbArc
 50
310.000801
 51
40.08953
  0
LINE
  5
470
100
AcDbEntity
  8
0
100
AcDbLine
 10
189.929382
 20
222.758073
 30
0.0
 11
191.029382
 21
221.658103
 31
0.0
  0
LINE
  5
471
100
AcDbEntity
  8
0
100
AcDbLine
 10
190.229419
 20
222.882147
 30
0.0
 11
191.329382
 21
221.782173
 31
0.0
  0
ARC
  5
472
100
AcDbEntity
  8
0
100
AcDbCircle
 10
190.44463
 20
224.217832
 30
0.0
 40
0.46
100
AcDbArc
 50
40.08953
 51
175.0131
  0
ARC
  5
473
100
AcDbEntity
  8
0
100
AcDbCircle
 10
190.444969
 20
224.217982
 30
0.0
 40
0.16
100
AcDbArc
 50
40.005416
 51
177.62463
  0
LINE
  5
474
100
AcDbEntity
  8
0
100
AcDbLine
 10
189.700122
 20
223.078093
 30
0.0
 11
187.481637
 21
223.078093
 31
0.0
  0
LINE
  5
475
100
AcDbEntity
  8
0
  6
DASHED
 62
     3
100
AcDbLine
 10
197.559382
 20
242.128093
 30
0.0
 11
197.559382
 21
228.128093
 31
0.0
  0
LINE
  5
476
100
AcDbEntity
  8
0
  6
DASHED
 62
     3
100
AcDbLine
 10
197.559382
 20
230.628093
 30
0.0
 11
192.659382
 21
230.628093
 31
0.0
  0
LINE
  5
477
100
AcDbEntity
  8
0
  6
DASHED
 62
     3
100
AcDbLine
 10
197.559382
 20
239.628093
 30
0.0
 11
192.659382
 21
239.628093
 31
0.0
  0
LINE
  5
478
100
AcDbEntity
  8
0
100
AcDbLine
 10
202.409382
 20
248.128093
 30
0.0
 11
202.409382
 21
248.128193
 31
0.0
  0
LINE
  5
479
100
AcDbEntity
  8
0
100
AcDbLine
 10
199.159382
 20
248.128093
 30
0.0
 11
199.159482
 21
248.128093
 31
0.0
  0
LINE
  5
47A
100
AcDbEntity
  8
0
100
AcDbLine
 10
205.659382
 20
248.128093
 30
0.0
 11
205.659382
 21
231.128093
 31
0.0
  0
LINE
  5
47B
100
AcDbEntity
  8
0
100
AcDbLine
 10
205.659382
 20
231.128093
 30
0.0
 11
237.659382
 21
231.128093
 31
0.0
  0
CIRCLE
  5
47C
100
AcDbEntity
  8
0
100
AcDbCircle
 10
225.959382
 20
220.628093
 30
0.0
 40
3.96875
  0
LINE
  5
47D
100
AcDbEntity
  8
0
100
AcDbLine
 10
220.059382
 20
213.628093
 30
0.0
 11
231.859382
 21
213.628093
 31
0.0
  0
LINE
  5
47E
100
AcDbEntity
  8
0
100
AcDbLine
 10
220.059382
 20
227.128093
 30
0.0
 11
233.459382
 21
227.128093
 31
0.0
  0
ARC
  5
47F
100
AcDbEntity
  8
0
100
AcDbCircle
 10
220.059382
 20
225.528093
 30
0.0
 40
1.6
100
AcDbArc
 50
90.0
 51
180.0
  0
ARC
  5
480
100
AcDbEntity
  8
0
100
AcDbCircle
 10
220.800425
 20
217.978083
 30
0.0
 40
0.2
100
AcDbArc
 50
90.0
 51
160.030412
  0
LINE
  5
481
100
AcDbEntity
  8
0
100
AcDbLine
 10
218.989382
 20
221.782173
 30
0.0
 11
218.989382
 21
217.978083
 31
0.0
  0
LINE
  5
482
100
AcDbEntity
  8
0
100
AcDbLine
 10
219.289382
 20
221.658103
 30
0.0
 11
219.289382
 21
217.978083
 31
0.0
  0
LINE
  5
483
100
AcDbEntity
  8
0
100
AcDbLine
 10
220.800425
 20
218.178083
 30
0.0
 11
222.837135
 21
218.178083
 31
0.0
  0
LINE
  5
484
100
AcDbEntity
  8
0
100
AcDbLine
 10
220.241372
 20
217.025173
 30
0.0
 11
220.61245
 21
218.046387
 31
0.0
  0
LINE
  5
485
100
AcDbEntity
  8
0
100
AcDbLine
 10
219.159332
 20
217.378073
 30
0.0
 11
219.533392
 21
217.004043
 31
0.0
  0
ARC
  5
486
100
AcDbEntity
  8
0
100
AcDbCircle
 10
219.289382
 20
217.978083
 30
0.0
 40
0.3
100
AcDbArc
 50
180.0
 51
270.0
  0
LINE
  5
487
100
AcDbEntity
  8
0
100
AcDbLine
 10
219.909382
 20
217.978083
 30
0.0
 11
219.289382
 21
217.978083
 31
0.0
  0
LINE
  5
488
100
AcDbEntity
  8
0
100
AcDbLine
 10
219.909382
 20
217.678083
 30
0.0
 11
219.909382
 21
217.978083
 31
0.0
  0
LINE
  5
489
100
AcDbEntity
  8
0
100
AcDbLine
 10
219.289382
 20
217.678083
 30
0.0
 11
219.909382
 21
217.678083
 31
0.0
  0
ARC
  5
48A
100
AcDbEntity
  8
0
100
AcDbCircle
 10
218.659382
 20
217.178073
 30
0.0
 40
0.2
100
AcDbArc
 50
90.0
 51
180.0
  0
LINE
  5
48B
100
AcDbEntity
  8
0
100
AcDbLine
 10
218.659382
 20
217.378073
 30
0.0
 11
219.159332
 21
217.378073
 31
0.0
  0
ARC
  5
48C
100
AcDbEntity
  8
0
100
AcDbCircle
 10
220.059382
 20
215.228093
 30
0.0
 40
1.6
100
AcDbArc
 50
180.0
 51
270.0
  0
ARC
  5
48D
100
AcDbEntity
  8
0
100
AcDbCircle
 10
219.957382
 20
217.428083
 30
0.0
 40
0.599648
100
AcDbArc
 50
225.002298
 51
272.827891
  0
ARC
  5
48E
100
AcDbEntity
  8
0
100
AcDbCircle
 10
219.959382
 20
217.128073
 30
0.0
 40
0.300178
100
AcDbArc
 50
265.491391
 51
340.030412
  0
LINE
  5
48F
100
AcDbEntity
  8
0
100
AcDbLine
 10
220.618642
 20
223.078093
 30
0.0
 11
222.837127
 21
223.078093
 31
0.0
  0
LINE
  5
490
100
AcDbEntity
  8
0
100
AcDbLine
 10
220.332393
 20
224.257819
 30
0.0
 11
220.419399
 21
223.260708
 31
0.0
  0
LINE
  5
491
100
AcDbEntity
  8
0
100
AcDbLine
 10
220.389382
 20
223.605083
 30
0.0
 11
220.389382
 21
222.758073
 31
0.0
  0
LINE
  5
492
100
AcDbEntity
  8
0
100
AcDbLine
 10
220.033658
 20
224.224613
 30
0.0
 11
220.089346
 21
222.882147
 31
0.0
  0
ARC
  5
493
100
AcDbEntity
  8
0
100
AcDbCircle
 10
220.618642
 20
223.278093
 30
0.0
 40
0.2
100
AcDbArc
 50
184.9869
 51
270.0
  0
ARC
  5
494
100
AcDbEntity
  8
0
100
AcDbCircle
 10
219.468594
 20
223.984512
 30
0.0
 40
0.3
100
AcDbArc
 50
139.91047
 51
229.999199
  0
LINE
  5
495
100
AcDbEntity
  8
0
100
AcDbLine
 10
219.239082
 20
224.177707
 30
0.0
 11
219.522216
 21
224.514064
 31
0.0
  0
LINE
  5
496
100
AcDbEntity
  8
0
100
AcDbLine
 10
219.505363
 20
223.562031
 30
0.0
 11
219.69838
 21
223.792042
 31
0.0
  0
LINE
  5
497
100
AcDbEntity
  8
0
100
AcDbLine
 10
219.69838
 20
223.792042
 30
0.0
 11
219.469411
 21
223.985036
 31
0.0
  0
LINE
  5
498
100
AcDbEntity
  8
0
100
AcDbLine
 10
219.505363
 20
223.562031
 30
0.0
 11
219.275754
 21
223.754701
 31
0.0
  0
LINE
  5
499
100
AcDbEntity
  8
0
100
AcDbLine
 10
219.469411
 20
223.985036
 30
0.0
 11
219.751238
 21
224.320839
 31
0.0
  0
ARC
  5
49A
100
AcDbEntity
  8
0
100
AcDbCircle
 10
218.659382
 20
224.378083
 30
0.0
 40
0.2
100
AcDbArc
 50
180.0
 51
270.0
  0
LINE
  5
49B
100
AcDbEntity
  8
0
100
AcDbLine
 10
218.659382
 20
224.178083
 30
0.0
 11
219.239399
 21
224.178083
 31
0.0
  0
ARC
  5
49C
100
AcDbEntity
  8
0
100
AcDbCircle
 10
219.873795
 20
224.217982
 30
0.0
 40
0.16
100
AcDbArc
 50
2.37537
 51
139.994584
  0
ARC
  5
49D
100
AcDbEntity
  8
0
100
AcDbCircle
 10
219.874134
 20
224.217832
 30
0.0
 40
0.46
100
AcDbArc
 50
4.9869
 51
139.91047
  0
LINE
  5
49E
100
AcDbEntity
  8
0
100
AcDbLine
 10
220.089346
 20
222.882147
 30
0.0
 11
218.989382
 21
221.782173
 31
0.0
  0
LINE
  5
49F
100
AcDbEntity
  8
0
100
AcDbLine
 10
220.389382
 20
222.758073
 30
0.0
 11
219.289382
 21
221.658103
 31
0.0
  0
ARC
  5
4A0
100
AcDbEntity
  8
0
100
AcDbCircle
 10
231.859382
 20
225.528093
 30
0.0
 40
1.6
100
AcDbArc
 50
0.0
 51
90.0
  0
LINE
  5
4A1
100
AcDbEntity
  8
0
100
AcDbLine
 10
232.929382
 20
221.782173
 30
0.0
 11
232.929382
 21
217.978083
 31
0.0
  0
LINE
  5
4A2
100
AcDbEntity
  8
0
100
AcDbLine
 10
232.629382
 20
221.658103
 30
0.0
 11
232.629382
 21
217.978083
 31
0.0
  0
ARC
  5
4A3
100
AcDbEntity
  8
0
100
AcDbCircle
 10
231.118339
 20
217.978083
 30
0.0
 40
0.2
100
AcDbArc
 50
19.969588
 51
90.0
  0
LINE
  5
4A4
100
AcDbEntity
  8
0
100
AcDbLine
 10
233.259382
 20
217.378073
 30
0.0
 11
232.759432
 21
217.378073
 31
0.0
  0
ARC
  5
4A5
100
AcDbEntity
  8
0
100
AcDbCircle
 10
231.859382
 20
215.228093
 30
0.0
 40
1.6
100
AcDbArc
 50
270.0
 51
0.0
  0
ARC
  5
4A6
100
AcDbEntity
  8
0
100
AcDbCircle
 10
232.629382
 20
217.978083
 30
0.0
 40
0.3
100
AcDbArc
 50
270.0
 51
0.0
  0
LINE
  5
4A7
100
AcDbEntity
  8
0
100
AcDbLine
 10
232.759432
 20
217.378073
 30
0.0
 11
232.385372
 21
217.004043
 31
0.0
  0
LINE
  5
4A8
100
AcDbEntity
  8
0
100
AcDbLine
 10
231.677392
 20
217.025173
 30
0.0
 11
231.306314
 21
218.046387
 31
0.0
  0
LINE
  5
4A9
100
AcDbEntity
  8
0
100
AcDbLine
 10
232.009382
 20
217.678083
 30
0.0
 11
232.009382
 21
217.978083
 31
0.0
  0
LINE
  5
4AA
100
AcDbEntity
  8
0
100
AcDbLine
 10
232.629382
 20
217.678083
 30
0.0
 11
232.009382
 21
217.678083
 31
0.0
  0
LINE
  5
4AB
100
AcDbEntity
  8
0
100
AcDbLine
 10
232.009382
 20
217.978083
 30
0.0
 11
232.629382
 21
217.978083
 31
0.0
  0
ARC
  5
4AC
100
AcDbEntity
  8
0
100
AcDbCircle
 10
231.959382
 20
217.128073
 30
0.0
 40
0.300178
100
AcDbArc
 50
199.969588
 51
274.508609
  0
ARC
  5
4AD
100
AcDbEntity
  8
0
100
AcDbCircle
 10
231.961382
 20
217.428083
 30
0.0
 40
0.599648
100
AcDbArc
 50
267.172109
 51
314.997702
  0
LINE
  5
4AE
100
AcDbEntity
  8
0
100
AcDbLine
 10
231.118339
 20
218.178083
 30
0.0
 11
229.081629
 21
218.178083
 31
0.0
  0
ARC
  5
4AF
100
AcDbEntity
  8
0
100
AcDbCircle
 10
233.259382
 20
217.178073
 30
0.0
 40
0.2
100
AcDbArc
 50
0.0
 51
90.0
  0
LINE
  5
4B0
100
AcDbEntity
  8
0
100
AcDbLine
 10
233.259382
 20
224.178083
 30
0.0
 11
232.679365
 21
224.178083
 31
0.0
  0
LINE
  5
4B1
100
AcDbEntity
  8
0
100
AcDbLine
 10
232.679682
 20
224.177707
 30
0.0
 11
232.396548
 21
224.514064
 31
0.0
  0
ARC
  5
4B2
100
AcDbEntity
  8
0
100
AcDbCircle
 10
232.45017
 20
223.984512
 30
0.0
 40
0.3
100
AcDbArc
 50
310.000801
 51
40.08953
  0
LINE
  5
4B3
100
AcDbEntity
  8
0
100
AcDbLine
 10
232.413401
 20
223.562031
 30
0.0
 11
232.64301
 21
223.754701
 31
0.0
  0
LINE
  5
4B4
100
AcDbEntity
  8
0
100
AcDbLine
 10
232.220385
 20
223.792042
 30
0.0
 11
232.449353
 21
223.985036
 31
0.0
  0
LINE
  5
4B5
100
AcDbEntity
  8
0
100
AcDbLine
 10
232.413401
 20
223.562031
 30
0.0
 11
232.220385
 21
223.792042
 31
0.0
  0
LINE
  5
4B6
100
AcDbEntity
  8
0
100
AcDbLine
 10
231.586371
 20
224.257819
 30
0.0
 11
231.499365
 21
223.260708
 31
0.0
  0
ARC
  5
4B7
100
AcDbEntity
  8
0
100
AcDbCircle
 10
232.044969
 20
224.217982
 30
0.0
 40
0.16
100
AcDbArc
 50
40.005416
 51
177.62463
  0
ARC
  5
4B8
100
AcDbEntity
  8
0
100
AcDbCircle
 10
231.300122
 20
223.278093
 30
0.0
 40
0.2
100
AcDbArc
 50
270.0
 51
355.0131
  0
LINE
  5
4B9
100
AcDbEntity
  8
0
100
AcDbLine
 10
231.885106
 20
224.224613
 30
0.0
 11
231.829419
 21
222.882147
 31
0.0
  0
LINE
  5
4BA
100
AcDbEntity
  8
0
100
AcDbLine
 10
231.529382
 20
223.605083
 30
0.0
 11
231.529382
 21
222.758073
 31
0.0
  0
ARC
  5
4BB
100
AcDbEntity
  8
0
100
AcDbCircle
 10
232.04463
 20
224.217832
 30
0.0
 40
0.46
100
AcDbArc
 50
40.08953
 51
175.0131
  0
LINE
  5
4BC
100
AcDbEntity
  8
0
100
AcDbLine
 10
232.449353
 20
223.985036
 30
0.0
 11
232.167526
 21
224.320839
 31
0.0
  0
LINE
  5
4BD
100
AcDbEntity
  8
0
100
AcDbLine
 10
231.829419
 20
222.882147
 30
0.0
 11
232.929382
 21
221.782173
 31
0.0
  0
LINE
  5
4BE
100
AcDbEntity
  8
0
100
AcDbLine
 10
231.529382
 20
222.758073
 30
0.0
 11
232.629382
 21
221.658103
 31
0.0
  0
LINE
  5
4BF
100
AcDbEntity
  8
0
100
AcDbLine
 10
231.300122
 20
223.078093
 30
0.0
 11
229.081637
 21
223.078093
 31
0.0
  0
LINE
  5
4C0
100
AcDbEntity
  8
0
100
AcDbLine
 10
233.459382
 20
223.528093
 30
0.0
 11
235.659382
 21
223.528093
 31
0.0
  0
ARC
  5
4C1
100
AcDbEntity
  8
0
100
AcDbCircle
 10
233.259382
 20
224.378083
 30
0.0
 40
0.2
100
AcDbArc
 50
270.0
 51
0.0
  0
LINE
  5
4C2
100
AcDbEntity
  8
0
100
AcDbLine
 10
235.659382
 20
227.128093
 30
0.0
 11
237.659382
 21
227.128093
 31
0.0
  0
LINE
  5
4C3
100
AcDbEntity
  8
0
100
AcDbLine
 10
233.459382
 20
228.628093
 30
0.0
 11
235.659382
 21
228.628093
 31
0.0
  0
LINE
  5
4C4
100
AcDbEntity
  8
CENTER
  6
CENTER
 62
     1
100
AcDbLine
 10
390.181014
 20
256.158954
 30
0.0
 11
390.181014
 21
146.097233
 31
0.0
  0
CIRCLE
  5
4C5
100
AcDbEntity
  8
0
100
AcDbCircle
 10
390.181014
 20
201.128093
 30
0.0
 40
30.0
  0
CIRCLE
  5
4C6
100
AcDbEntity
  8
0
100
AcDbCircle
 10
390.181014
 20
201.128093
 30
0.0
 40
12.5
  0
CIRCLE
  5
4C7
100
AcDbEntity
  8
0
100
AcDbCircle
 10
390.181014
 20
201.128093
 30
0.0
 40
26.0
  0
LINE
  5
4C8
100
AcDbEntity
  8
0
100
AcDbLine
 10
422.181014
 20
235.551922
 30
0.0
 11
422.181014
 21
166.704264
 31
0.0
  0
LINE
  5
4C9
100
AcDbEntity
  8
0
100
AcDbLine
 10
358.181014
 20
235.551922
 30
0.0
 11
358.181014
 21
166.704264
 31
0.0
  0
LINE
  5
4CA
100
AcDbEntity
  8
CENTER
  6
CENTER
 62
     1
100
AcDbLine
 10
350.860042
 20
201.128093
 30
0.0
 11
429.820823
 21
201.128093
 31
0.0
  0
ARC
  5
4CB
100
AcDbEntity
  8
0
100
AcDbCircle
 10
390.181014
 20
201.128093
 30
0.0
 40
47.0
100
AcDbArc
 50
227.089816
 51
312.910184
  0
LINE
  5
4CC
100
AcDbEntity
  8
CENTER
  6
CENTER
 62
     1
100
AcDbLine
 10
370.681014
 20
156.417035
 30
0.0
 11
370.681014
 21
177.839151
 31
0.0
  0
LINE
  5
4CD
100
AcDbEntity
  8
CENTER
  6
CENTER
 62
     1
100
AcDbLine
 10
381.392072
 20
167.128093
 30
0.0
 11
359.969956
 21
167.128093
 31
0.0
  0
CIRCLE
  5
4CE
100
AcDbEntity
  8
0
100
AcDbCircle
 10
370.681014
 20
167.128093
 30
0.0
 40
4.5
  0
CIRCLE
  5
4CF
100
AcDbEntity
  8
0
100
AcDbCircle
 10
370.681014
 20
167.128093
 30
0.0
 40
7.0
  0
LINE
  5
4D0
100
AcDbEntity
  8
CENTER
  6
CENTER
 62
     1
100
AcDbLine
 10
409.681014
 20
156.417035
 30
0.0
 11
409.681014
 21
177.839151
 31
0.0
  0
LINE
  5
4D1
100
AcDbEntity
  8
CENTER
  6
CENTER
 62
     1
100
AcDbLine
 10
398.969956
 20
167.128093
 30
0.0
 11
420.392072
 21
167.128093
 31
0.0
  0
CIRCLE
  5
4D2
100
AcDbEntity
  8
0
100
AcDbCircle
 10
409.681014
 20
167.128093
 30
0.0
 40
4.5
  0
CIRCLE
  5
4D3
100
AcDbEntity
  8
0
100
AcDbCircle
 10
409.681014
 20
167.128093
 30
0.0
 40
7.0
  0
ARC
  5
4D4
100
AcDbEntity
  8
0
100
AcDbCircle
 10
390.181014
 20
201.128093
 30
0.0
 40
47.0
100
AcDbArc
 50
47.089816
 51
132.910184
  0
LINE
  5
4D5
100
AcDbEntity
  8
CENTER
  6
CENTER
 62
     1
100
AcDbLine
 10
370.681014
 20
245.839151
 30
0.0
 11
370.681014
 21
224.417035
 31
0.0
  0
LINE
  5
4D6
100
AcDbEntity
  8
CENTER
  6
CENTER
 62
     1
100
AcDbLine
 10
381.392072
 20
235.128093
 30
0.0
 11
359.969956
 21
235.128093
 31
0.0
  0
CIRCLE
  5
4D7
100
AcDbEntity
  8
0
100
AcDbCircle
 10
370.681014
 20
235.128093
 30
0.0
 40
4.5
  0
CIRCLE
  5
4D8
100
AcDbEntity
  8
0
100
AcDbCircle
 10
370.681014
 20
235.128093
 30
0.0
 40
7.0
  0
LINE
  5
4D9
100
AcDbEntity
  8
CENTER
  6
CENTER
 62
     1
100
AcDbLine
 10
409.681014
 20
245.839151
 30
0.0
 11
409.681014
 21
224.417035
 31
0.0
  0
LINE
  5
4DA
100
AcDbEntity
  8
CENTER
  6
CENTER
 62
     1
100
AcDbLine
 10
398.969956
 20
235.128093
 30
0.0
 11
420.392072
 21
235.128093
 31
0.0
  0
CIRCLE
  5
4DB
100
AcDbEntity
  8
0
100
AcDbCircle
 10
409.681014
 20
235.128093
 30
0.0
 40
4.5
  0
CIRCLE
  5
4DC
100
AcDbEntity
  8
0
100
AcDbCircle
 10
409.681014
 20
235.128093
 30
0.0
 40
7.0
  0
LINE
  5
4DD
100
AcDbEntity
  8
0
  6
DASHED
 62
     3
100
AcDbLine
 10
192.659382
 20
231.128093
 30
0.0
 11
192.659382
 21
230.628093
 31
0.0
  0
LINE
  5
4DE
100
AcDbEntity
  8
0
  6
DASHED
 62
     3
100
AcDbLine
 10
205.659382
 20
228.128093
 30
0.0
 11
205.659382
 21
231.128093
 31
0.0
  0
LINE
  5
4DF
100
AcDbEntity
  8
0
  6
DASHED
 62
     3
100
AcDbLine
 10
192.659382
 20
171.128093
 30
0.0
 11
192.659382
 21
171.628093
 31
0.0
  0
LINE
  5
4E0
100
AcDbEntity
  8
0
  6
DASHED
 62
     3
100
AcDbLine
 10
205.659382
 20
171.128093
 30
0.0
 11
205.659382
 21
174.128093
 31
0.0
  0
ENDSEC
  0
SECTION
  2
OBJECTS
  0
DICTIONARY
  5
34E
100
AcDbDictionary
  3
ACAD_GROUP
350
34F
  3
ACAD_LAYOUT
350
35B
  3
ACAD_MLINESTYLE
350
358
  3
ACAD_PLOTSETTINGS
350
35A
  3
ACAD_PLOTSTYLENAME
350
350
  3
ACDBHEADERROUNDTRIPXREC
350
4ED
  3
AcDbVariableDictionary
350
516
  0
DICTIONARY
  5
4EB
100
AcDbDictionary
280
     1
  3
ACAD_XREC_ROUNDTRIP
360
4EC
  0
DICTIONARY
  5
4E7
100
AcDbDictionary
280
     1
  3
ACAD_XREC_ROUNDTRIP
360
4E8
  0
DICTIONARY
  5
4E9
100
AcDbDictionary
280
     1
  3
ACAD_XREC_ROUNDTRIP
360
4EA
  0
DICTIONARY
  5
514
100
AcDbDictionary
280
     1
  3
ACAD_XREC_ROUNDTRIP
360
515
  0
DICTIONARY
  5
4E3
100
AcDbDictionary
280
     1
  3
ACAD_LAYOUTSELFREF
360
513
  3
ACAD_XREC_ROUNDTRIP
360
4E4
  0
DICTIONARY
  5
4E5
100
AcDbDictionary
280
     1
  3
ACAD_LAYOUTSELFREF
360
512
  3
ACAD_XREC_ROUNDTRIP
360
4E6
  0
DICTIONARY
  5
34F
102
{ACAD_REACTORS
330
34E
102
}
100
AcDbDictionary
  0
DICTIONARY
  5
35B
102
{ACAD_XDICTIONARY
360
510
102
}
102
{ACAD_REACTORS
330
34E
102
}
100
AcDbDictionary
  3
MODEL
350
363
  3
ﾚｲｱｳﾄ1
350
35F
  0
DICTIONARY
  5
358
102
{ACAD_XDICTIONARY
360
50E
102
}
102
{ACAD_REACTORS
330
34E
102
}
100
AcDbDictionary
  3
STANDARD
350
359
  0
DICTIONARY
  5
35A
102
{ACAD_REACTORS
330
34E
102
}
100
AcDbDictionary
  0
ACAD_PROXY_OBJECT
  5
350
102
{ACAD_REACTORS
330
34E
102
}
100
AcDbProxyObject
 90
      499
 91
      500
 93
       86
310
405010041939BDC9B585B0
350
351
340
351
 94
        0
  0
DICTIONARY
  5
4ED
102
{ACAD_REACTORS
330
34E
102
}
100
AcDbDictionary
  3
CEPSNTYPE
350
4F7
  3
DIMSTYLEDATA
350
4FB
  3
FINGERPRINTGUID
350
4F8
  3
HYPERLINKBASE
350
4F0
  3
INSUNITS
350
4F6
  3
LAYOUTDICT
350
4F2
  3
LWETCUNION
350
4F5
  3
PLOTSETDICT
350
4F3
  3
PLOTSTYLNAMDICT
350
4F4
  3
PSVPSCALE
350
4FA
  3
PUCSBASE
350
4FE
  3
PUCSORGBACK
350
504
  3
PUCSORGBOTTOM
350
500
  3
PUCSORGFRONT
350
503
  3
PUCSORGLEFT
350
501
  3
PUCSORGRIGHT
350
502
  3
PUCSORGTOP
350
4FF
  3
PUCSORTHOREF
350
4FC
  3
PUCSORTHOVIEW
350
4FD
  3
STYLESHEET
350
4F1
  3
TSTACKALIGN
350
4EE
  3
TSTACKSIZE
350
4EF
  3
UCSBASE
350
507
  3
UCSORGBACK
350
50D
  3
UCSORGBOTTOM
350
509
  3
UCSORGFRONT
350
50C
  3
UCSORGLEFT
350
50A
  3
UCSORGRIGHT
350
50B
  3
UCSORGTOP
350
508
  3
UCSORTHOREF
350
505
  3
UCSORTHOVIEW
350
506
  3
VERSIONGUID
350
4F9
  0
DICTIONARY
  5
516
102
{ACAD_REACTORS
330
34E
102
}
100
AcDbDictionary
  3
DIMASSOC
350
517
  0
XRECORD
  5
4EC
102
{ACAD_REACTORS
330
4EB
102
}
100
AcDbXrecord
102
EXTNAMES
  1
*ACTIVE
  2
*Active
102
UCS
 74
     0
 71
     0
 10
0.0
 20
0.0
 30
0.0
 10
1.0
 20
0.0
 30
0.0
 10
0.0
 20
1.0
 30
0.0
146
0.0
 79
     0
102
VIEW
281
     0
  0
XRECORD
  5
4E8
102
{ACAD_REACTORS
330
4E7
102
}
100
AcDbXrecord
102
EXTNAMES
  1
BYBLOCK
  2
ByBlock
  0
XRECORD
  5
4EA
102
{ACAD_REACTORS
330
4E9
102
}
100
AcDbXrecord
102
EXTNAMES
  1
BYLAYER
  2
ByLayer
  0
XRECORD
  5
515
102
{ACAD_REACTORS
330
514
102
}
100
AcDbXrecord
102
ACADR14ROUNDTRIP
1000
DSTYLE
1002
{
1070
   279
 70
     2
1002
}
  0
XRECORD
  5
513
102
{ACAD_REACTORS
330
4E3
102
}
100
AcDbXrecord
340
360
  0
XRECORD
  5
4E4
102
{ACAD_REACTORS
330
4E3
102
}
100
AcDbXrecord
102
EXTNAMES
  1
*MODEL_SPACE
  2
*Model_Space
  0
XRECORD
  5
512
102
{ACAD_REACTORS
330
4E5
102
}
100
AcDbXrecord
340
35C
  0
XRECORD
  5
4E6
102
{ACAD_REACTORS
330
4E5
102
}
100
AcDbXrecord
102
EXTNAMES
  1
*PAPER_SPACE
  2
*Paper_Space
  0
DICTIONARY
  5
510
100
AcDbDictionary
280
     1
  3
ACAD_XREC_ROUNDTRIP
360
511
  0
ACAD_PROXY_OBJECT
  5
363
102
{ACAD_REACTORS
330
35B
102
}
100
AcDbProxyObject
 90
      499
 91
      502
 93
      836
310
932433A5C50524F4752414D2046494C45535C4D4454365C706C6F74746572735C526F6C616E64204458592D313235302E7063332C01AAAAAAAAA5A69054D6F64656C901A800000000000000000000000000000000000000000000A1000000000000008902A6A6AAAA4
330
360
330
0
340
0
340
0
 94
        0
  0
ACAD_PROXY_OBJECT
  5
35F
102
{ACAD_REACTORS
330
35B
102
}
100
AcDbProxyObject
 90
      499
 91
      502
 93
     1244
310
932433A5C50524F4752414D2046494C45535C4D4454365C706C6F74746572735C526F6C616E64204458592D313235302E7063332C00AAAAAA416AA59106906DAB2B1B3C431406A800000000000000000000000000000000000000000101E900000000000241C902A6A6A10232D5E076BC5510408CB5781DAF154410232D5E0
310
76BC5510408CB5781DAF15C410232D5E076BC5710408CB5781DAF15C40
330
35C
330
0
340
0
340
0
 94
        0
  0
DICTIONARY
  5
50E
100
AcDbDictionary
280
     1
  3
ACAD_XREC_ROUNDTRIP
360
50F
  0
MLINESTYLE
  5
359
102
{ACAD_REACTORS
330
358
102
}
100
AcDbMlineStyle
  2
STANDARD
 70
     0
  3

 62
   256
 51
90.0
 52
90.0
 71
     2
 49
0.5
 62
   256
  6
BYLAYER
 49
-0.5
 62
   256
  6
BYLAYER
  0
ACAD_PROXY_OBJECT
  5
351
102
{ACAD_REACTORS
330
350
102
}
100
AcDbProxyObject
 90
      499
 91
      501
 93
        0
 94
        0
  0
XRECORD
  5
4F7
102
{ACAD_REACTORS
330
4ED
102
}
100
AcDbXrecord
 90
        0
  0
XRECORD
  5
4FB
102
{ACAD_REACTORS
330
4ED
102
}
100
AcDbXrecord
1000
DSTYLE
1002
{
1070
   341
340
377
1070
   343
340
377
1070
   344
340
371
1002
}
  0
XRECORD
  5
4F8
102
{ACAD_REACTORS
330
4ED
102
}
100
AcDbXrecord
  1
{93AB1F2F-F8F2-47E3-8791-7E4A11368DBE}
  0
XRECORD
  5
4F0
102
{ACAD_REACTORS
330
4ED
102
}
100
AcDbXrecord
  1

  0
XRECORD
  5
4F6
102
{ACAD_REACTORS
330
4ED
102
}
100
AcDbXrecord
 90
        0
  0
XRECORD
  5
4F2
102
{ACAD_REACTORS
330
4ED
102
}
100
AcDbXrecord
340
35B
  0
XRECORD
  5
4F5
102
{ACAD_REACTORS
330
4ED
102
}
100
AcDbXrecord
 90
    10781
  0
XRECORD
  5
4F3
102
{ACAD_REACTORS
330
4ED
102
}
100
AcDbXrecord
340
35A
  0
XRECORD
  5
4F4
102
{ACAD_REACTORS
330
4ED
102
}
100
AcDbXrecord
340
350
  0
XRECORD
  5
4FA
102
{ACAD_REACTORS
330
4ED
102
}
100
AcDbXrecord
 40
0.0
  0
XRECORD
  5
4FE
102
{ACAD_REACTORS
330
4ED
102
}
100
AcDbXrecord
340
0
  0
XRECORD
  5
504
102
{ACAD_REACTORS
330
4ED
102
}
100
AcDbXrecord
 10
0.0
 20
0.0
 30
0.0
  0
XRECORD
  5
500
102
{ACAD_REACTORS
330
4ED
102
}
100
AcDbXrecord
 10
0.0
 20
0.0
 30
0.0
  0
XRECORD
  5
503
102
{ACAD_REACTORS
330
4ED
102
}
100
AcDbXrecord
 10
0.0
 20
0.0
 30
0.0
  0
XRECORD
  5
501
102
{ACAD_REACTORS
330
4ED
102
}
100
AcDbXrecord
 10
0.0
 20
0.0
 30
0.0
  0
XRECORD
  5
502
102
{ACAD_REACTORS
330
4ED
102
}
100
AcDbXrecord
 10
0.0
 20
0.0
 30
0.0
  0
XRECORD
  5
4FF
102
{ACAD_REACTORS
330
4ED
102
}
100
AcDbXrecord
 10
0.0
 20
0.0
 30
0.0
  0
XRECORD
  5
4FC
102
{ACAD_REACTORS
330
4ED
102
}
100
AcDbXrecord
340
0
  0
XRECORD
  5
4FD
102
{ACAD_REACTORS
330
4ED
102
}
100
AcDbXrecord
 70
     0
  0
XRECORD
  5
4F1
102
{ACAD_REACTORS
330
4ED
102
}
100
AcDbXrecord
  1

  0
XRECORD
  5
4EE
102
{ACAD_REACTORS
330
4ED
102
}
100
AcDbXrecord
 90
        1
  0
XRECORD
  5
4EF
102
{ACAD_REACTORS
330
4ED
102
}
100
AcDbXrecord
 90
       70
  0
XRECORD
  5
507
102
{ACAD_REACTORS
330
4ED
102
}
100
AcDbXrecord
340
0
  0
XRECORD
  5
50D
102
{ACAD_REACTORS
330
4ED
102
}
100
AcDbXrecord
 10
0.0
 20
0.0
 30
0.0
  0
XRECORD
  5
509
102
{ACAD_REACTORS
330
4ED
102
}
100
AcDbXrecord
 10
0.0
 20
0.0
 30
0.0
  0
XRECORD
  5
50C
102
{ACAD_REACTORS
330
4ED
102
}
100
AcDbXrecord
 10
0.0
 20
0.0
 30
0.0
  0
XRECORD
  5
50A
102
{ACAD_REACTORS
330
4ED
102
}
100
AcDbXrecord
 10
0.0
 20
0.0
 30
0.0
  0
XRECORD
  5
50B
102
{ACAD_REACTORS
330
4ED
102
}
100
AcDbXrecord
 10
0.0
 20
0.0
 30
0.0
  0
XRECORD
  5
508
102
{ACAD_REACTORS
330
4ED
102
}
100
AcDbXrecord
 10
0.0
 20
0.0
 30
0.0
  0
XRECORD
  5
505
102
{ACAD_REACTORS
330
4ED
102
}
100
AcDbXrecord
340
0
  0
XRECORD
  5
506
102
{ACAD_REACTORS
330
4ED
102
}
100
AcDbXrecord
 70
     0
  0
XRECORD
  5
4F9
102
{ACAD_REACTORS
330
4ED
102
}
100
AcDbXrecord
  1
{D38AD63D-0023-4183-A2C9-97E8A6301D89}
  0
DICTIONARYVAR
  5
517
102
{ACAD_REACTORS
330
516
102
}
100
DictionaryVariables
280
     0
  1
1
  0
XRECORD
  5
511
102
{ACAD_REACTORS
330
510
102
}
100
AcDbXrecord
102
EXTNAMES
  1
MODEL
  2
Model
  0
XRECORD
  5
50F
102
{ACAD_REACTORS
330
50E
102
}
100
AcDbXrecord
102
EXTNAMES
  1
STANDARD
  2
Standard
  0
ENDSEC
  0
EOF
